  0
SECTION
  2
HEADER
  9
$ACADVER
  1
AC1015
  9
$ACADMAINTVER
 70
    20
  9
$DWGCODEPAGE
  3
ANSI_1252
  9
$INSBASE
 10
0.0
 20
0.0
 30
0.0
  9
$EXTMIN
 10
-0.0128164049386896
 20
-0.0090630292066862
 30
-0.0015258207003583
  9
$EXTMAX
 10
418.0261240224658
 20
295.0150458552118
 30
0.0000000349246037
  9
$LIMMIN
 10
0.0
 20
0.0
  9
$LIMMAX
 10
420.0
 20
297.0
  9
$ORTHOMODE
 70
     1
  9
$REGENMODE
 70
     1
  9
$FILLMODE
 70
     1
  9
$QTEXTMODE
 70
     0
  9
$MIRRTEXT
 70
     1
  9
$LTSCALE
 40
1.0
  9
$ATTMODE
 70
     1
  9
$TEXTSIZE
 40
2.5
  9
$TRACEWID
 40
1.0
  9
$TEXTSTYLE
  7
STANDARD
  9
$CLAYER
  8
0
  9
$CELTYPE
  6
BYLAYER
  9
$CECOLOR
 62
   256
  9
$CELTSCALE
 40
1.0
  9
$DISPSILH
 70
     0
  9
$DIMSCALE
 40
1.0
  9
$DIMASZ
 40
2.5
  9
$DIMEXO
 40
0.625
  9
$DIMDLI
 40
3.75
  9
$DIMRND
 40
0.0
  9
$DIMDLE
 40
0.0
  9
$DIMEXE
 40
1.25
  9
$DIMTP
 40
0.0
  9
$DIMTM
 40
0.0
  9
$DIMTXT
 40
2.5
  9
$DIMCEN
 40
2.5
  9
$DIMTSZ
 40
0.0
  9
$DIMTOL
 70
     0
  9
$DIMLIM
 70
     0
  9
$DIMTIH
 70
     0
  9
$DIMTOH
 70
     0
  9
$DIMSE1
 70
     0
  9
$DIMSE2
 70
     0
  9
$DIMTAD
 70
     1
  9
$DIMZIN
 70
     0
  9
$DIMBLK
  1

  9
$DIMASO
 70
     1
  9
$DIMSHO
 70
     1
  9
$DIMPOST
  1

  9
$DIMAPOST
  1

  9
$DIMALT
 70
     0
  9
$DIMALTD
 70
     4
  9
$DIMALTF
 40
0.0394
  9
$DIMLFAC
 40
1.0
  9
$DIMTOFL
 70
     1
  9
$DIMTVP
 40
0.0
  9
$DIMTIX
 70
     0
  9
$DIMSOXD
 70
     0
  9
$DIMSAH
 70
     0
  9
$DIMBLK1
  1

  9
$DIMBLK2
  1

  9
$DIMSTYLE
  2
STANDARD
  9
$DIMCLRD
 70
     0
  9
$DIMCLRE
 70
     0
  9
$DIMCLRT
 70
     0
  9
$DIMTFAC
 40
1.0
  9
$DIMGAP
 40
0.625
  9
$DIMJUST
 70
     0
  9
$DIMSD1
 70
     0
  9
$DIMSD2
 70
     0
  9
$DIMTOLJ
 70
     1
  9
$DIMTZIN
 70
     0
  9
$DIMALTZ
 70
     0
  9
$DIMALTTZ
 70
     0
  9
$DIMUPT
 70
     0
  9
$DIMDEC
 70
     4
  9
$DIMTDEC
 70
     4
  9
$DIMALTU
 70
     8
  9
$DIMALTTD
 70
     4
  9
$DIMTXSTY
  7
STANDARD
  9
$DIMAUNIT
 70
     0
  9
$DIMADEC
 70
     0
  9
$DIMALTRND
 40
0.0
  9
$DIMAZIN
 70
     0
  9
$DIMDSEP
 70
    46
  9
$DIMATFIT
 70
     3
  9
$DIMFRAC
 70
     0
  9
$DIMLDRBLK
  1

  9
$DIMLUNIT
 70
     6
  9
$DIMLWD
 70
    -2
  9
$DIMLWE
 70
    -2
  9
$DIMTMOVE
 70
     0
  9
$LUNITS
 70
     2
  9
$LUPREC
 70
     4
  9
$SKETCHINC
 40
1.0
  9
$FILLETRAD
 40
10.0
  9
$AUNITS
 70
     0
  9
$AUPREC
 70
     0
  9
$MENU
  1
.
  9
$ELEVATION
 40
0.0
  9
$PELEVATION
 40
0.0
  9
$THICKNESS
 40
0.0
  9
$LIMCHECK
 70
     0
  9
$CHAMFERA
 40
10.0
  9
$CHAMFERB
 40
10.0
  9
$CHAMFERC
 40
20.0
  9
$CHAMFERD
 40
0.0
  9
$SKPOLY
 70
     0
  9
$TDCREATE
 40
2451107.667011180
  9
$TDUCREATE
 40
2451107.625344514
  9
$TDUPDATE
 40
2457045.609952685
  9
$TDUUPDATE
 40
2457045.568286019
  9
$TDINDWG
 40
0.0215120486
  9
$TDUSRTIMER
 40
0.0215120486
  9
$USRTIMER
 70
     1
  9
$ANGBASE
 50
0.0
  9
$ANGDIR
 70
     0
  9
$PDMODE
 70
    35
  9
$PDSIZE
 40
-2.0
  9
$PLINEWID
 40
0.0
  9
$SPLFRAME
 70
     0
  9
$SPLINETYPE
 70
     6
  9
$SPLINESEGS
 70
     8
  9
$HANDSEED
  5
EE5
  9
$SURFTAB1
 70
     6
  9
$SURFTAB2
 70
     6
  9
$SURFTYPE
 70
     6
  9
$SURFU
 70
     6
  9
$SURFV
 70
     6
  9
$UCSBASE
  2

  9
$UCSNAME
  2

  9
$UCSORG
 10
0.0
 20
0.0
 30
0.0
  9
$UCSXDIR
 10
1.0
 20
0.0
 30
0.0
  9
$UCSYDIR
 10
0.0
 20
1.0
 30
0.0
  9
$UCSORTHOREF
  2

  9
$UCSORTHOVIEW
 70
     0
  9
$UCSORGTOP
 10
0.0
 20
0.0
 30
0.0
  9
$UCSORGBOTTOM
 10
0.0
 20
0.0
 30
0.0
  9
$UCSORGLEFT
 10
0.0
 20
0.0
 30
0.0
  9
$UCSORGRIGHT
 10
0.0
 20
0.0
 30
0.0
  9
$UCSORGFRONT
 10
0.0
 20
0.0
 30
0.0
  9
$UCSORGBACK
 10
0.0
 20
0.0
 30
0.0
  9
$PUCSBASE
  2

  9
$PUCSNAME
  2

  9
$PUCSORG
 10
0.0
 20
0.0
 30
0.0
  9
$PUCSXDIR
 10
1.0
 20
0.0
 30
0.0
  9
$PUCSYDIR
 10
0.0
 20
1.0
 30
0.0
  9
$PUCSORTHOREF
  2

  9
$PUCSORTHOVIEW
 70
     0
  9
$PUCSORGTOP
 10
0.0
 20
0.0
 30
0.0
  9
$PUCSORGBOTTOM
 10
0.0
 20
0.0
 30
0.0
  9
$PUCSORGLEFT
 10
0.0
 20
0.0
 30
0.0
  9
$PUCSORGRIGHT
 10
0.0
 20
0.0
 30
0.0
  9
$PUCSORGFRONT
 10
0.0
 20
0.0
 30
0.0
  9
$PUCSORGBACK
 10
0.0
 20
0.0
 30
0.0
  9
$USERI1
 70
     0
  9
$USERI2
 70
     0
  9
$USERI3
 70
     0
  9
$USERI4
 70
     0
  9
$USERI5
 70
     0
  9
$USERR1
 40
0.0
  9
$USERR2
 40
0.0
  9
$USERR3
 40
0.0
  9
$USERR4
 40
0.0
  9
$USERR5
 40
0.0
  9
$WORLDVIEW
 70
     1
  9
$SHADEDGE
 70
     3
  9
$SHADEDIF
 70
    70
  9
$TILEMODE
 70
     1
  9
$MAXACTVP
 70
    48
  9
$PINSBASE
 10
0.0
 20
0.0
 30
0.0
  9
$PLIMCHECK
 70
     0
  9
$PEXTMIN
 10
1.000000000000000E+20
 20
1.000000000000000E+20
 30
1.000000000000000E+20
  9
$PEXTMAX
 10
-1.000000000000000E+20
 20
-1.000000000000000E+20
 30
-1.000000000000000E+20
  9
$PLIMMIN
 10
0.0
 20
0.0
  9
$PLIMMAX
 10
420.0
 20
297.0
  9
$UNITMODE
 70
     0
  9
$VISRETAIN
 70
     1
  9
$PLINEGEN
 70
     0
  9
$PSLTSCALE
 70
     1
  9
$TREEDEPTH
 70
  3020
  9
$CMLSTYLE
  2
STANDARD
  9
$CMLJUST
 70
     0
  9
$CMLSCALE
 40
20.0
  9
$PROXYGRAPHICS
 70
     1
  9
$MEASUREMENT
 70
     1
  9
$CELWEIGHT
370
    -1
  9
$ENDCAPS
280
     0
  9
$JOINSTYLE
280
     0
  9
$LWDISPLAY
290
     0
  9
$INSUNITS
 70
     0
  9
$HYPERLINKBASE
  1

  9
$STYLESHEET
  1
HP_SW.ctb
  9
$XEDIT
290
     1
  9
$CEPSNTYPE
380
     0
  9
$PSTYLEMODE
290
     1
  9
$FINGERPRINTGUID
  2
{866CF92A-F23C-423D-B78E-53A37E85CC6E}
  9
$VERSIONGUID
  2
{E497D244-49C4-4709-89E0-FEB63D4B92A6}
  9
$EXTNAMES
290
     1
  9
$PSVPSCALE
 40
0.0
  9
$OLESTARTUP
290
     0
  0
ENDSEC
  0
SECTION
  2
CLASSES
  0
CLASS
  1
PH_VARS
  2
PhoenixVars
  3
PHOENIX7010
 90
        0
280
     0
281
     0
  0
CLASS
  1
PH_GROUP
  2
PhGroup
  3
PHOENIX7010
 90
        0
280
     0
281
     0
  0
CLASS
  1
ACDBDICTIONARYWDFLT
  2
AcDbDictionaryWithDefault
  3
ObjectDBX Classes
 90
        0
280
     0
281
     0
  0
CLASS
  1
MATERIAL
  2
AcDbMaterial
  3
ObjectDBX Classes
 90
     1153
280
     0
281
     0
  0
CLASS
  1
VISUALSTYLE
  2
AcDbVisualStyle
  3
ObjectDBX Classes
 90
     4095
280
     0
281
     0
  0
CLASS
  1
TABLESTYLE
  2
AcDbTableStyle
  3
ObjectDBX Classes
 90
     4095
280
     0
281
     0
  0
CLASS
  1
SCALE
  2
AcDbScale
  3
ObjectDBX Classes
 90
     1153
280
     0
281
     0
  0
CLASS
  1
MLEADERSTYLE
  2
AcDbMLeaderStyle
  3
ACDB_MLEADERSTYLE_CLASS
 90
     4095
280
     0
281
     0
  0
CLASS
  1
PH_ENTDIMREACTOR
  2
EntDimReactor
  3
PHOENIX7010
 90
        0
280
     0
281
     0
  0
CLASS
  1
DICTIONARYVAR
  2
AcDbDictionaryVar
  3
ObjectDBX Classes
 90
        0
280
     0
281
     0
  0
CLASS
  1
CELLSTYLEMAP
  2
AcDbCellStyleMap
  3
ObjectDBX Classes
 90
     1152
280
     0
281
     0
  0
CLASS
  1
ACDBPLACEHOLDER
  2
AcDbPlaceHolder
  3
ObjectDBX Classes
 90
        0
280
     0
281
     0
  0
CLASS
  1
LAYOUT
  2
AcDbLayout
  3
ObjectDBX Classes
 90
        0
280
     0
281
     0
  0
ENDSEC
  0
SECTION
  2
TABLES
  0
TABLE
  2
VPORT
  5
8
330
0
100
AcDbSymbolTable
 70
     1
  0
VPORT
  5
DA6
330
8
100
AcDbSymbolTableRecord
100
AcDbViewportTableRecord
  2
*ACTIVE
 70
     0
 10
0.0
 20
0.0
 11
1.0
 21
1.0
 12
211.1785730885622
 22
147.4999999999999
 13
0.0
 23
0.0
 14
10.0
 24
10.0
 15
10.0
 25
10.0
 16
0.0
 26
0.0
 36
1.0
 17
0.0
 27
0.0
 37
0.0
 40
297.1109392886057
 41
1.906175771971496
 42
50.0
 43
0.0
 44
0.0
 50
0.0
 51
0.0
 71
     0
 72
   100
 73
     1
 74
     0
 75
     0
 76
     0
 77
     0
 78
     0
281
     0
 65
     1
110
0.0
120
0.0
130
0.0
111
1.0
121
0.0
131
0.0
112
0.0
122
1.0
132
0.0
 79
     0
146
0.0
  0
ENDTAB
  0
TABLE
  2
LTYPE
  5
5
330
0
100
AcDbSymbolTable
 70
     2
  0
LTYPE
  5
12
330
5
100
AcDbSymbolTableRecord
100
AcDbLinetypeTableRecord
  2
BYBLOCK
 70
     0
  3

 72
    65
 73
     0
 40
0.0
  0
LTYPE
  5
13
330
5
100
AcDbSymbolTableRecord
100
AcDbLinetypeTableRecord
  2
BYLAYER
 70
     0
  3

 72
    65
 73
     0
 40
0.0
  0
LTYPE
  5
14
330
5
100
AcDbSymbolTableRecord
100
AcDbLinetypeTableRecord
  2
CONTINUOUS
 70
     0
  3
Solid line
 72
    65
 73
     0
 40
0.0
  0
LTYPE
  5
33F
330
5
100
AcDbSymbolTableRecord
100
AcDbLinetypeTableRecord
  2
ACAD_ISO04W100
 70
     0
  3
____ . ____ . ____ . ____ . ____ . ____ . ____ 
 72
    65
 73
     4
 40
30.5
 49
24.0
 74
     0
 49
-3.0
 74
     0
 49
0.5
 74
     0
 49
-3.0
 74
     0
  0
ENDTAB
  0
TABLE
  2
LAYER
  5
2
102
{ACAD_XDICTIONARY
360
E05
102
}
330
0
100
AcDbSymbolTable
 70
     3
  0
LAYER
  5
E
102
{ACAD_XDICTIONARY
360
E73
102
}
330
2
100
AcDbSymbolTableRecord
100
AcDbLayerTableRecord
  2
0
 70
     0
 62
     7
  6
CONTINUOUS
370
    -3
390
DA9
  0
LAYER
  5
27D
102
{ACAD_XDICTIONARY
360
E75
102
}
330
2
100
AcDbSymbolTableRecord
100
AcDbLayerTableRecord
  2
PH_HILFSELEMENTE
 70
     0
 62
    -7
  6
CONTINUOUS
370
    -3
390
DA9
  0
LAYER
  5
340
330
2
100
AcDbSymbolTableRecord
100
AcDbLayerTableRecord
  2
DEFPOINTS
 70
     0
 62
     7
  6
CONTINUOUS
290
     0
370
    -3
390
DA9
  0
ENDTAB
  0
TABLE
  2
STYLE
  5
3
330
0
100
AcDbSymbolTable
 70
     2
  0
STYLE
  5
F
330
3
100
AcDbSymbolTableRecord
100
AcDbTextStyleTableRecord
  2
STANDARD
 70
     0
 40
0.0
 41
1.199999999999999
 50
0.0
 71
     0
 42
2.5
  3
isocp.shx
  4

  0
ENDTAB
  0
TABLE
  2
VIEW
  5
6
330
0
100
AcDbSymbolTable
 70
     0
  0
ENDTAB
  0
TABLE
  2
UCS
  5
7
330
0
100
AcDbSymbolTable
 70
     0
  0
ENDTAB
  0
TABLE
  2
APPID
  5
9
330
0
100
AcDbSymbolTable
 70
     6
  0
APPID
  5
10
330
9
100
AcDbSymbolTableRecord
100
AcDbRegAppTableRecord
  2
ACAD
 70
     0
  0
APPID
  5
266
330
9
100
AcDbSymbolTableRecord
100
AcDbRegAppTableRecord
  2
PHOENIX7010
 70
     0
  0
APPID
  5
E6F
330
9
100
AcDbSymbolTableRecord
100
AcDbRegAppTableRecord
  2
AcadAnnoPO
 70
     0
  0
APPID
  5
E71
330
9
100
AcDbSymbolTableRecord
100
AcDbRegAppTableRecord
  2
ACAD_EXEMPT_FROM_CAD_STANDARDS
 70
     0
  0
APPID
  5
EA3
330
9
100
AcDbSymbolTableRecord
100
AcDbRegAppTableRecord
  2
ACAD_PSEXT
 70
     0
  0
APPID
  5
EE1
330
9
100
AcDbSymbolTableRecord
100
AcDbRegAppTableRecord
  2
ACAD_MLEADERVER
 70
     0
  0
ENDTAB
  0
TABLE
  2
DIMSTYLE
  5
A
330
0
100
AcDbSymbolTable
 70
     5
100
AcDbDimStyleTable
 71
     1
340
1D
  0
DIMSTYLE
105
1D
330
A
100
AcDbSymbolTableRecord
100
AcDbDimStyleTableRecord
  2
STANDARD
 70
     0
340
F
  0
DIMSTYLE
105
26D
330
A
100
AcDbSymbolTableRecord
100
AcDbDimStyleTableRecord
  2
PHOENIX
 70
     0
  4
"
 41
3.72
 42
0.0
 43
7.0
 44
1.5
 73
     0
 74
     0
 77
     1
 78
     8
140
3.5
141
0.0
143
0.0393700787401575
146
0.6666666666666666
147
2.0
172
     1
173
     1
176
     1
177
     1
178
     5
271
     2
272
     2
284
     8
288
     1
289
     0
340
F
341
267
343
267
344
267
  0
DIMSTYLE
105
26E
330
A
100
AcDbSymbolTableRecord
100
AcDbDimStyleTableRecord
  2
PHOENIX$4
 70
     0
  4
"
 41
3.72
 42
0.0
 43
7.0
 44
1.5
 73
     0
 74
     0
 77
     1
 78
     8
140
3.5
141
0.0
143
0.0393700787401575
146
0.6666666666666666
147
2.0
173
     1
176
     1
177
     1
178
     5
271
     2
272
     2
281
     1
284
     8
288
     1
289
     0
340
F
341
267
343
267
344
267
  0
DIMSTYLE
105
DF4
330
A
100
AcDbSymbolTableRecord
100
AcDbDimStyleTableRecord
  2
ISO-25
 70
     0
 41
2.5
 42
0.625
 43
3.75
 44
1.25
 73
     0
 74
     0
 77
     1
 78
     8
140
2.5
141
2.5
143
0.03937007874016
147
0.625
171
     3
172
     1
271
     2
272
     2
274
     3
278
    44
283
     0
284
     8
340
F
  0
ENDTAB
  0
TABLE
  2
BLOCK_RECORD
  5
1
330
0
100
AcDbSymbolTable
 70
    10
  0
BLOCK_RECORD
  5
18
330
1
100
AcDbSymbolTableRecord
100
AcDbBlockTableRecord
  2
*MODEL_SPACE
340
DF0
  0
BLOCK_RECORD
  5
15
330
1
100
AcDbSymbolTableRecord
100
AcDbBlockTableRecord
  2
*PAPER_SPACE
340
DF1
  0
BLOCK_RECORD
  5
267
330
1
100
AcDbSymbolTableRecord
100
AcDbBlockTableRecord
  2
_OPEN15
340
0
  0
BLOCK_RECORD
  5
2A2
330
1
100
AcDbSymbolTableRecord
100
AcDbBlockTableRecord
  2
PH_GRPBLK
340
0
102
{BLKREFS
331
E02
331
E1C
331
E1F
331
E57
102
}
  0
ENDTAB
  0
ENDSEC
  0
SECTION
  2
BLOCKS
  0
BLOCK
  5
19
330
18
100
AcDbEntity
  8
0
100
AcDbBlockBegin
  2
*MODEL_SPACE
 70
     0
 10
0.0
 20
0.0
 30
0.0
  3
*MODEL_SPACE
  1

  0
ENDBLK
  5
1A
330
18
100
AcDbEntity
  8
0
100
AcDbBlockEnd
  0
BLOCK
  5
16
330
15
100
AcDbEntity
 67
     1
  8
0
100
AcDbBlockBegin
  2
*PAPER_SPACE
 70
     0
 10
0.0
 20
0.0
 30
0.0
  3
*PAPER_SPACE
  1

  0
ENDBLK
  5
17
330
15
100
AcDbEntity
 67
     1
  8
0
100
AcDbBlockEnd
  0
BLOCK
  5
26B
330
267
100
AcDbEntity
  8
0
100
AcDbBlockBegin
  2
_OPEN15
 70
     0
 10
1.0
 20
0.0
 30
0.0
  3
_OPEN15
  1

  0
LINE
  5
268
330
267
100
AcDbEntity
  8
0
  6
ByBlock
 62
     0
100
AcDbLine
 10
0.0
 20
0.0
 30
0.0
 11
1.0
 21
0.0
 31
0.0
  0
LINE
  5
269
330
267
100
AcDbEntity
  8
0
  6
ByBlock
 62
     0
100
AcDbLine
 10
1.0
 20
0.0
 30
0.0
 11
0.0
 21
0.1316524975873958
 31
0.0
  0
LINE
  5
26A
330
267
100
AcDbEntity
  8
0
  6
ByBlock
 62
     0
100
AcDbLine
 10
1.0
 20
0.0
 30
0.0
 11
0.0
 21
-0.1316524975873958
 31
0.0
  0
ENDBLK
  5
26C
330
267
100
AcDbEntity
  8
0
100
AcDbBlockEnd
  0
BLOCK
  5
2A4
330
2A2
100
AcDbEntity
  8
0
 62
     7
100
AcDbBlockBegin
  2
PH_GRPBLK
 70
     0
 10
0.0
 20
0.0
 30
0.0
  3
PH_GRPBLK
  1

  0
POINT
  5
2A3
330
2A2
100
AcDbEntity
  8
DEFPOINTS
  6
Continuous
 62
     0
100
AcDbPoint
 10
0.0
 20
0.0
 30
0.0
  0
ENDBLK
  5
2A5
330
2A2
100
AcDbEntity
  8
0
 62
     7
100
AcDbBlockEnd
  0
ENDSEC
  0
SECTION
  2
ENTITIES
  0
LINE
  5
A27
330
18
100
AcDbEntity
  8
0
  6
Continuous
 62
     1
100
AcDbLine
 10
110.7159719338078
 20
232.9385609112235
 30
0.0
 11
110.7159719338078
 21
249.6052275778902
 31
0.0
1001
PHOENIX7010
1002
{
1070
    41
1040
1.5
1002
}
  0
LINE
  5
A28
330
18
100
AcDbEntity
  8
0
  6
Continuous
 62
     1
100
AcDbLine
 10
250.7158905535996
 20
232.9385609112235
 30
0.0
 11
250.7158905535996
 21
249.6053089580984
 31
0.0
1001
PHOENIX7010
1002
{
1070
    41
1040
1.5
1002
}
  0
LINE
  5
A29
330
18
100
AcDbEntity
  8
0
  6
Continuous
 62
     1
100
AcDbLine
 10
102.3826386004746
 20
232.9385609112235
 30
0.0
 11
102.3826386004746
 21
249.6052275778902
 31
0.0
1001
PHOENIX7010
1002
{
1070
    41
1040
1.5
1002
}
  0
LINE
  5
A2A
330
18
100
AcDbEntity
  8
0
  6
Continuous
 62
     1
100
AcDbLine
 10
259.0492238869329
 20
232.9385609112235
 30
0.0
 11
259.0492238869329
 21
249.6052275778902
 31
0.0
1001
PHOENIX7010
1002
{
1070
    41
1040
1.5
1002
}
  0
TEXT
  5
A2B
330
18
100
AcDbEntity
  8
0
 62
     5
100
AcDbText
 10
80.71597193380785
 20
251.6052275778902
 30
0.0
 40
7.0
  1
12.5
100
AcDbText
1001
PHOENIX7010
1002
{
1070
    41
1040
1.5
1002
}
  0
LINE
  5
A2C
330
18
100
AcDbEntity
  8
0
 62
     1
100
AcDbLine
 10
110.7159719338078
 20
232.9385609112235
 30
0.0
 11
110.7159719338078
 21
210.0083037497651
 31
0.0
1001
PHOENIX7010
1002
{
1070
    41
1040
1.5
1002
}
  0
LINE
  5
A2D
330
18
100
AcDbEntity
  8
0
 62
     1
100
AcDbLine
 10
250.7158905535996
 20
232.9385609112235
 30
0.0
 11
250.7158905535996
 21
210.0083037497651
 31
0.0
1001
PHOENIX7010
1002
{
1070
    41
1040
1.5
1002
}
  0
LINE
  5
A2E
330
18
100
AcDbEntity
  8
0
 62
     1
100
AcDbLine
 10
120.7159719338078
 20
236.7126494528901
 30
0.0
 11
120.7159719338078
 21
224.193321653411
 31
0.0
1001
PHOENIX7010
1002
{
1070
    41
1040
1.5
1002
}
  0
LINE
  5
A2F
330
18
100
AcDbEntity
  8
0
 62
     1
100
AcDbLine
 10
130.7159719338078
 20
236.7126494528901
 30
0.0
 11
130.7159719338078
 21
210.0083444398693
 31
0.0
1001
PHOENIX7010
1002
{
1070
    41
1040
1.5
1002
}
  0
LINE
  5
A30
330
18
100
AcDbEntity
  8
0
 62
     1
100
AcDbLine
 10
140.7159719338078
 20
236.7126494528901
 30
0.0
 11
140.7159719338078
 21
224.193321653411
 31
0.0
1001
PHOENIX7010
1002
{
1070
    41
1040
1.5
1002
}
  0
LINE
  5
A31
330
18
100
AcDbEntity
  8
0
  6
Continuous
 62
     1
100
AcDbLine
 10
102.3826386004746
 20
249.6052275778902
 30
0.0
 11
95.44252426128185
 21
250.5189238669526
 31
0.0
1001
PHOENIX7010
1002
{
1070
    41
1040
1.5
1002
}
  0
LINE
  5
A32
330
18
100
AcDbEntity
  8
0
  6
Continuous
 62
     1
100
AcDbLine
 10
102.3826386004746
 20
249.6052275778902
 30
0.0
 11
95.44252426128185
 21
248.6915312888277
 31
0.0
1001
PHOENIX7010
1002
{
1070
    41
1040
1.5
1002
}
  0
LINE
  5
A33
330
18
100
AcDbEntity
  8
0
  6
Continuous
 62
     1
100
AcDbLine
 10
110.7159719338078
 20
249.6052275778902
 30
0.0
 11
117.6560862730006
 21
250.5189238669526
 31
0.0
1001
PHOENIX7010
1002
{
1070
    41
1040
1.5
1002
}
  0
LINE
  5
A34
330
18
100
AcDbEntity
  8
0
  6
Continuous
 62
     1
100
AcDbLine
 10
110.7159719338078
 20
249.6052275778902
 30
0.0
 11
117.6560862730006
 21
248.6915312888277
 31
0.0
1001
PHOENIX7010
1002
{
1070
    41
1040
1.5
1002
}
  0
LINE
  5
A35
330
18
100
AcDbEntity
  8
0
  6
Continuous
 62
     1
100
AcDbLine
 10
78.82200017274022
 20
249.6052275778902
 30
0.0
 11
124.2427460223496
 21
249.6052275778902
 31
0.0
1001
PHOENIX7010
1002
{
1070
    41
1040
1.5
1002
}
  0
LINE
  5
A36
330
18
100
AcDbEntity
  8
0
  6
Continuous
 62
     1
100
AcDbLine
 10
250.7158905535996
 20
249.6053089580984
 30
0.0
 11
250.7158905535996
 21
245.6052275778901
 31
0.0
1001
PHOENIX7010
1002
{
1070
    41
1040
1.5
1002
}
  0
LINE
  5
A37
330
18
100
AcDbEntity
  8
0
  6
Continuous
 62
     1
100
AcDbLine
 10
259.0492238869329
 20
249.6052275778902
 30
0.0
 11
259.0492238869329
 21
245.6051461976818
 31
0.0
1001
PHOENIX7010
1002
{
1070
    41
1040
1.5
1002
}
  0
LINE
  5
A38
330
18
100
AcDbEntity
  8
0
  6
Continuous
 62
     1
100
AcDbLine
 10
250.7158905535996
 20
249.6052275778902
 30
0.0
 11
243.7757660418808
 21
250.5190052471609
 31
0.0
1001
PHOENIX7010
1002
{
1070
    41
1040
1.5
1002
}
  0
LINE
  5
A39
330
18
100
AcDbEntity
  8
0
  6
Continuous
 62
     1
100
AcDbLine
 10
250.7158905535996
 20
249.6052275778902
 30
0.0
 11
243.7757660418808
 21
248.6916126690359
 31
0.0
1001
PHOENIX7010
1002
{
1070
    41
1040
1.5
1002
}
  0
LINE
  5
A3A
330
18
100
AcDbEntity
  8
0
  6
Continuous
 62
     1
100
AcDbLine
 10
259.0492238869329
 20
249.6051461976818
 30
0.0
 11
265.9893483986516
 21
250.5187611065359
 31
0.0
1001
PHOENIX7010
1002
{
1070
    41
1040
1.5
1002
}
  0
LINE
  5
A3B
330
18
100
AcDbEntity
  8
0
  6
Continuous
 62
     1
100
AcDbLine
 10
259.0492238869329
 20
249.6051461976818
 30
0.0
 11
265.9893483986516
 21
248.6913685284109
 31
0.0
1001
PHOENIX7010
1002
{
1070
    41
1040
1.5
1002
}
  0
TEXT
  5
A3C
330
18
100
AcDbEntity
  8
0
 62
     5
100
AcDbText
 10
269.049244231985
 20
251.6050648174734
 30
0.0
 40
7.0
  1
12.5
 50
359.9994506835915
100
AcDbText
1001
PHOENIX7010
1002
{
1070
    41
1040
1.5
1002
}
  0
LINE
  5
A3D
330
18
100
AcDbEntity
  8
0
  6
Continuous
 62
     1
100
AcDbLine
 10
236.7158905535996
 20
249.6053496482026
 30
0.0
 11
283.5469859312037
 21
249.6053496482026
 31
0.0
1001
PHOENIX7010
1002
{
1070
    41
1040
1.5
1002
}
  0
LINE
  5
A3E
330
18
100
AcDbEntity
  8
0
  6
Continuous
 62
     1
100
AcDbLine
 10
110.7159719338078
 20
249.6053496482026
 30
0.0
 11
250.7158905535996
 21
249.6054717185152
 31
0.0
1001
PHOENIX7010
1002
{
1070
    41
1040
1.5
1002
}
  0
LINE
  5
A3F
330
18
100
AcDbEntity
  8
0
  6
Continuous
 62
     1
100
AcDbLine
 10
110.7159719338078
 20
249.6052275778902
 30
0.0
 11
110.7159719338078
 21
253.6053496482026
 31
0.0
1001
PHOENIX7010
1002
{
1070
    41
1040
1.5
1002
}
  0
LINE
  5
A40
330
18
100
AcDbEntity
  8
0
  6
Continuous
 62
     1
100
AcDbLine
 10
250.7158905535996
 20
249.6053496482026
 30
0.0
 11
250.7158905535996
 21
253.6054717185152
 31
0.0
1001
PHOENIX7010
1002
{
1070
    41
1040
1.5
1002
}
  0
LINE
  5
A41
330
18
100
AcDbEntity
  8
0
  6
Continuous
 62
     1
100
AcDbLine
 10
110.7159719338078
 20
249.6053496482026
 30
0.0
 11
117.6560862730006
 21
250.5190459372652
 31
0.0
1001
PHOENIX7010
1002
{
1070
    41
1040
1.5
1002
}
  0
LINE
  5
A42
330
18
100
AcDbEntity
  8
0
  6
Continuous
 62
     1
100
AcDbLine
 10
110.7159719338078
 20
249.6053496482026
 30
0.0
 11
117.6560862730006
 21
248.6916533591402
 31
0.0
1001
PHOENIX7010
1002
{
1070
    41
1040
1.5
1002
}
  0
LINE
  5
A43
330
18
100
AcDbEntity
  8
0
  6
Continuous
 62
     1
100
AcDbLine
 10
250.7158905535996
 20
249.6054717185152
 30
0.0
 11
243.7757863869328
 21
250.5191680075776
 31
0.0
1001
PHOENIX7010
1002
{
1070
    41
1040
1.5
1002
}
  0
LINE
  5
A44
330
18
100
AcDbEntity
  8
0
  6
Continuous
 62
     1
100
AcDbLine
 10
250.7158905535996
 20
249.6054717185152
 30
0.0
 11
243.7757863869328
 21
248.6917754294527
 31
0.0
1001
PHOENIX7010
1002
{
1070
    41
1040
1.5
1002
}
  0
TEXT
  5
A45
330
18
100
AcDbEntity
  8
0
 62
     5
100
AcDbText
 10
168.6709564968777
 20
251.6054205260202
 30
0.0
 40
7.0
  1
n x 15
 50
0.0000499579846633
 72
     1
 11
180.7159312437037
 21
251.6054310284109
 31
0.0
100
AcDbText
1001
PHOENIX7010
1002
{
1070
    41
1040
1.5
1002
}
  0
LINE
  5
A46
330
18
100
AcDbEntity
  8
0
  6
Continuous
 62
     1
100
AcDbLine
 10
102.3826386004746
 20
266.2718942445568
 30
0.0
 11
259.0492238869329
 21
266.2718942445568
 31
0.0
1001
PHOENIX7010
1002
{
1070
    41
1040
1.5
1002
}
  0
LINE
  5
A47
330
18
100
AcDbEntity
  8
0
  6
Continuous
 62
     1
100
AcDbLine
 10
102.3826386004746
 20
249.6052275778902
 30
0.0
 11
102.3826386004746
 21
270.2718942445568
 31
0.0
1001
PHOENIX7010
1002
{
1070
    41
1040
1.5
1002
}
  0
LINE
  5
A48
330
18
100
AcDbEntity
  8
0
  6
Continuous
 62
     1
100
AcDbLine
 10
259.0492238869329
 20
249.6052275778902
 30
0.0
 11
259.0492238869329
 21
270.2718942445568
 31
0.0
1001
PHOENIX7010
1002
{
1070
    41
1040
1.5
1002
}
  0
LINE
  5
A49
330
18
100
AcDbEntity
  8
0
  6
Continuous
 62
     1
100
AcDbLine
 10
102.3826386004746
 20
266.2718942445568
 30
0.0
 11
109.3227529396672
 21
267.1855905336193
 31
0.0
1001
PHOENIX7010
1002
{
1070
    41
1040
1.5
1002
}
  0
LINE
  5
A4A
330
18
100
AcDbEntity
  8
0
  6
Continuous
 62
     1
100
AcDbLine
 10
102.3826386004746
 20
266.2718942445568
 30
0.0
 11
109.3227529396672
 21
265.3581979554943
 31
0.0
1001
PHOENIX7010
1002
{
1070
    41
1040
1.5
1002
}
  0
LINE
  5
A4B
330
18
100
AcDbEntity
  8
0
  6
Continuous
 62
     1
100
AcDbLine
 10
259.0492238869329
 20
266.2718942445568
 30
0.0
 11
252.1090993752141
 21
267.1855905336193
 31
0.0
1001
PHOENIX7010
1002
{
1070
    41
1040
1.5
1002
}
  0
LINE
  5
A4C
330
18
100
AcDbEntity
  8
0
  6
Continuous
 62
     1
100
AcDbLine
 10
259.0492238869329
 20
266.2718942445568
 30
0.0
 11
252.1090993752141
 21
265.3581979554943
 31
0.0
1001
PHOENIX7010
1002
{
1070
    41
1040
1.5
1002
}
  0
TEXT
  5
A4D
330
18
100
AcDbEntity
  8
0
 62
     5
100
AcDbText
 10
172.3159312437037
 20
268.2718942445568
 30
0.0
 40
7.0
  1
  T  
 72
     1
 11
180.7159312437037
 21
268.2718942445568
 31
0.0
100
AcDbText
1001
PHOENIX7010
1002
{
1070
    41
1040
1.5
1002
}
  0
LINE
  5
A4E
102
{ACAD_REACTORS
330
A0B
102
}
330
18
100
AcDbEntity
  8
0
  6
Continuous
 62
     1
100
AcDbLine
 10
130.7158905535996
 20
59.33858532528597
 30
0.0
 11
144.1545705666203
 21
39.00525199195266
 31
0.0
1001
PHOENIX7010
1002
{
1070
    41
1040
1.5
1002
}
  0
TEXT
  5
A4F
102
{ACAD_REACTORS
330
A0B
102
}
330
18
100
AcDbEntity
  8
0
 62
     5
100
AcDbText
 10
147.5499563088078
 20
40.90965059221304
 30
0.0
 40
7.0
  1
ø 4.6
100
AcDbText
1001
PHOENIX7010
1002
{
1070
    41
1040
1.5
1002
}
  0
LINE
  5
A50
102
{ACAD_REACTORS
330
A0B
102
}
330
18
100
AcDbEntity
  8
0
  6
Continuous
 62
     1
100
AcDbLine
 10
144.1545705666203
 20
39.00525199195266
 30
0.0
 11
168.0060923765162
 21
39.00525199195266
 31
0.0
1001
PHOENIX7010
1002
{
1070
    41
1040
1.5
1002
}
  0
LINE
  5
A51
102
{ACAD_REACTORS
330
A0C
102
}
330
18
100
AcDbEntity
  8
0
  6
Continuous
 62
     1
100
AcDbLine
 10
190.7158905535996
 20
70.22526338518179
 30
0.0
 11
211.3498016864121
 21
39.00525199195266
 31
0.0
1001
PHOENIX7010
1002
{
1070
    41
1040
1.5
1002
}
  0
LINE
  5
A52
102
{ACAD_REACTORS
330
A0C
102
}
330
18
100
AcDbEntity
  8
0
  6
Continuous
 62
     1
100
AcDbLine
 10
211.3498220314641
 20
39.00525199195266
 30
0.0
 11
226.2705983986516
 21
39.00525199195266
 31
0.0
1001
PHOENIX7010
1002
{
1070
    41
1040
1.5
1002
}
  0
TEXT
  5
A53
102
{ACAD_REACTORS
330
A0D
102
}
330
18
100
AcDbEntity
  8
0
 62
     5
100
AcDbText
 10
220.3009735614121
 20
41.04771211565053
 30
0.0
 40
7.0
  1
6
100
AcDbText
1001
PHOENIX7010
1002
{
1070
    41
1040
1.5
1002
}
  0
LINE
  5
A54
330
18
100
AcDbEntity
  8
0
  6
Continuous
 62
     5
100
AcDbLine
 10
212.8727712502141
 20
42.39054658830679
 30
0.0
 11
216.8727712502141
 21
42.39054658830679
 31
0.0
1001
PHOENIX7010
1002
{
1070
    41
1040
1.5
1002
}
  0
LINE
  5
A55
330
18
100
AcDbEntity
  8
0
  6
Continuous
 62
     5
100
AcDbLine
 10
216.8727712502141
 20
42.39054658830679
 30
0.0
 11
216.8727712502141
 21
46.39054658830679
 31
0.0
1001
PHOENIX7010
1002
{
1070
    41
1040
1.5
1002
}
  0
LINE
  5
A56
330
18
100
AcDbEntity
  8
0
  6
Continuous
 62
     5
100
AcDbLine
 10
216.8727712502141
 20
46.39054658830679
 30
0.0
 11
212.8727712502141
 21
46.39054658830679
 31
0.0
1001
PHOENIX7010
1002
{
1070
    41
1040
1.5
1002
}
  0
LINE
  5
A57
330
18
100
AcDbEntity
  8
0
  6
Continuous
 62
     5
100
AcDbLine
 10
212.8727712502141
 20
46.39054658830679
 30
0.0
 11
212.8727712502141
 21
42.39054658830679
 31
0.0
1001
PHOENIX7010
1002
{
1070
    41
1040
1.5
1002
}
  0
LINE
  5
A58
330
18
100
AcDbEntity
  8
0
  6
Continuous
 62
     1
100
AcDbLine
 10
292.3824758400579
 20
70.22526338518179
 30
0.0
 11
292.3824758400579
 21
129.4519276104422
 31
0.0
1001
PHOENIX7010
1002
{
1070
    41
1040
1.5
1002
}
  0
LINE
  5
A59
330
18
100
AcDbEntity
  8
0
  6
Continuous
 62
     1
100
AcDbLine
 10
275.7158091733912
 20
70.22526338518179
 30
0.0
 11
296.3824758400578
 21
70.22526338518179
 31
0.0
1001
PHOENIX7010
1002
{
1070
    41
1040
1.5
1002
}
  0
LINE
  5
A5A
330
18
100
AcDbEntity
  8
0
  6
Continuous
 62
     1
100
AcDbLine
 10
250.7158091733912
 20
129.4519276104422
 30
0.0
 11
296.3824758400578
 21
129.4519276104422
 31
0.0
1001
PHOENIX7010
1002
{
1070
    41
1040
1.5
1002
}
  0
LINE
  5
A5B
330
18
100
AcDbEntity
  8
0
  6
Continuous
 62
     1
100
AcDbLine
 10
292.3824758400579
 20
70.22526338518179
 30
0.0
 11
291.4687998960475
 21
77.16536755184847
 31
0.0
1001
PHOENIX7010
1002
{
1070
    41
1040
1.5
1002
}
  0
LINE
  5
A5C
330
18
100
AcDbEntity
  8
0
  6
Continuous
 62
     1
100
AcDbLine
 10
292.3824758400579
 20
70.22526338518179
 30
0.0
 11
293.2961517840683
 21
77.16536755184847
 31
0.0
1001
PHOENIX7010
1002
{
1070
    41
1040
1.5
1002
}
  0
LINE
  5
A5D
330
18
100
AcDbEntity
  8
0
  6
Continuous
 62
     1
100
AcDbLine
 10
292.3824758400579
 20
129.4519276104422
 30
0.0
 11
291.4687998960475
 21
122.5118234437755
 31
0.0
1001
PHOENIX7010
1002
{
1070
    41
1040
1.5
1002
}
  0
LINE
  5
A5E
330
18
100
AcDbEntity
  8
0
  6
Continuous
 62
     1
100
AcDbLine
 10
292.3824758400579
 20
129.4519276104422
 30
0.0
 11
293.2961517840683
 21
122.5118234437755
 31
0.0
1001
PHOENIX7010
1002
{
1070
    41
1040
1.5
1002
}
  0
TEXT
  5
A5F
330
18
100
AcDbEntity
  8
0
 62
     5
100
AcDbText
 10
290.3824758400578
 20
91.18800814877983
 30
0.0
 40
7.0
  1
88.9
 50
90.0
 72
     1
 11
290.3824758400578
 21
99.83858532528598
 31
0.0
100
AcDbText
1001
PHOENIX7010
1002
{
1070
    41
1040
1.5
1002
}
  0
LINE
  5
A60
330
18
100
AcDbEntity
  8
0
  6
Continuous
 62
     1
100
AcDbLine
 10
275.7158091733912
 20
70.22526338518179
 30
0.0
 11
275.7158091733912
 21
99.83858532528598
 31
0.0
1001
PHOENIX7010
1002
{
1070
    41
1040
1.5
1002
}
  0
LINE
  5
A61
330
18
100
AcDbEntity
  8
0
  6
Continuous
 62
     1
100
AcDbLine
 10
250.7158091733912
 20
70.22526338518179
 30
0.0
 11
279.7158091733912
 21
70.22526338518179
 31
0.0
1001
PHOENIX7010
1002
{
1070
    41
1040
1.5
1002
}
  0
LINE
  5
A62
330
18
100
AcDbEntity
  8
0
  6
Continuous
 62
     1
100
AcDbLine
 10
250.7158091733912
 20
99.83858532528598
 30
0.0
 11
279.7158091733912
 21
99.83858532528598
 31
0.0
1001
PHOENIX7010
1002
{
1070
    41
1040
1.5
1002
}
  0
LINE
  5
A63
330
18
100
AcDbEntity
  8
0
  6
Continuous
 62
     1
100
AcDbLine
 10
275.7158091733912
 20
70.22526338518179
 30
0.0
 11
274.8021332293808
 21
77.16536755184847
 31
0.0
1001
PHOENIX7010
1002
{
1070
    41
1040
1.5
1002
}
  0
LINE
  5
A64
330
18
100
AcDbEntity
  8
0
  6
Continuous
 62
     1
100
AcDbLine
 10
275.7158091733912
 20
70.22526338518179
 30
0.0
 11
276.6294851174016
 21
77.16536755184847
 31
0.0
1001
PHOENIX7010
1002
{
1070
    41
1040
1.5
1002
}
  0
LINE
  5
A65
330
18
100
AcDbEntity
  8
0
  6
Continuous
 62
     1
100
AcDbLine
 10
275.7158091733912
 20
99.83858532528598
 30
0.0
 11
274.8021332293808
 21
92.89848115861929
 31
0.0
1001
PHOENIX7010
1002
{
1070
    41
1040
1.5
1002
}
  0
LINE
  5
A66
330
18
100
AcDbEntity
  8
0
  6
Continuous
 62
     1
100
AcDbLine
 10
275.7158091733912
 20
99.83858532528598
 30
0.0
 11
276.6294851174016
 21
92.89848115861929
 31
0.0
1001
PHOENIX7010
1002
{
1070
    41
1040
1.5
1002
}
  0
TEXT
  5
A67
330
18
100
AcDbEntity
  8
0
 62
     5
100
AcDbText
 10
273.7158091733912
 20
72.9869292633512
 30
0.0
 40
7.0
  1
44.45
 50
90.0
 72
     1
 11
273.7158091733912
 21
85.03190401018178
 31
0.0
100
AcDbText
1001
PHOENIX7010
1002
{
1070
    41
1040
1.5
1002
}
  0
LINE
  5
A68
330
18
100
AcDbEntity
  8
0
  6
Continuous
 62
     1
100
AcDbLine
 10
292.3825572202662
 20
159.1586129945568
 30
0.0
 11
292.3825572202662
 21
218.3852568747651
 31
0.0
1001
PHOENIX7010
1002
{
1070
    41
1040
1.5
1002
}
  0
LINE
  5
A69
330
18
100
AcDbEntity
  8
0
  6
Continuous
 62
     1
100
AcDbLine
 10
275.7158905535996
 20
159.1586129945568
 30
0.0
 11
296.3825572202662
 21
159.1586129945568
 31
0.0
1001
PHOENIX7010
1002
{
1070
    41
1040
1.5
1002
}
  0
LINE
  5
A6A
330
18
100
AcDbEntity
  8
0
  6
Continuous
 62
     1
100
AcDbLine
 10
250.7158905535996
 20
218.3852568747651
 30
0.0
 11
296.3825572202662
 21
218.3852568747651
 31
0.0
1001
PHOENIX7010
1002
{
1070
    41
1040
1.5
1002
}
  0
LINE
  5
A6B
330
18
100
AcDbEntity
  8
0
  6
Continuous
 62
     1
100
AcDbLine
 10
292.3825572202662
 20
159.1586129945568
 30
0.0
 11
291.4688812762559
 21
166.0987171612235
 31
0.0
1001
PHOENIX7010
1002
{
1070
    41
1040
1.5
1002
}
  0
LINE
  5
A6C
330
18
100
AcDbEntity
  8
0
  6
Continuous
 62
     1
100
AcDbLine
 10
292.3825572202662
 20
159.1586129945568
 30
0.0
 11
293.2962331642766
 21
166.0987171612235
 31
0.0
1001
PHOENIX7010
1002
{
1070
    41
1040
1.5
1002
}
  0
LINE
  5
A6D
330
18
100
AcDbEntity
  8
0
  6
Continuous
 62
     1
100
AcDbLine
 10
292.3825572202662
 20
218.3852568747651
 30
0.0
 11
291.4688812762559
 21
211.4451527080985
 31
0.0
1001
PHOENIX7010
1002
{
1070
    41
1040
1.5
1002
}
  0
LINE
  5
A6E
330
18
100
AcDbEntity
  8
0
  6
Continuous
 62
     1
100
AcDbLine
 10
292.3825572202662
 20
218.3852568747651
 30
0.0
 11
293.2962331642766
 21
211.4451527080985
 31
0.0
1001
PHOENIX7010
1002
{
1070
    41
1040
1.5
1002
}
  0
TEXT
  5
A6F
330
18
100
AcDbEntity
  8
0
 62
     5
100
AcDbText
 10
290.3825572202662
 20
180.1213577581548
 30
0.0
 40
7.0
  1
88.9
 50
90.0
 72
     1
 11
290.3825572202662
 21
188.771934934661
 31
0.0
100
AcDbText
1001
PHOENIX7010
1002
{
1070
    41
1040
1.5
1002
}
  0
LINE
  5
A70
330
18
100
AcDbEntity
  8
0
  6
Continuous
 62
     1
100
AcDbLine
 10
275.7158905535996
 20
159.1586129945568
 30
0.0
 11
275.7158905535996
 21
188.771934934661
 31
0.0
1001
PHOENIX7010
1002
{
1070
    41
1040
1.5
1002
}
  0
LINE
  5
A71
330
18
100
AcDbEntity
  8
0
  6
Continuous
 62
     1
100
AcDbLine
 10
250.7158905535996
 20
159.1586129945568
 30
0.0
 11
279.7158905535996
 21
159.1586129945568
 31
0.0
1001
PHOENIX7010
1002
{
1070
    41
1040
1.5
1002
}
  0
LINE
  5
A72
330
18
100
AcDbEntity
  8
0
  6
Continuous
 62
     1
100
AcDbLine
 10
250.7158905535996
 20
188.771934934661
 30
0.0
 11
279.7158905535996
 21
188.771934934661
 31
0.0
1001
PHOENIX7010
1002
{
1070
    41
1040
1.5
1002
}
  0
LINE
  5
A73
330
18
100
AcDbEntity
  8
0
  6
Continuous
 62
     1
100
AcDbLine
 10
275.7158905535996
 20
159.1586129945568
 30
0.0
 11
274.8022146095891
 21
166.0987171612235
 31
0.0
1001
PHOENIX7010
1002
{
1070
    41
1040
1.5
1002
}
  0
LINE
  5
A74
330
18
100
AcDbEntity
  8
0
  6
Continuous
 62
     1
100
AcDbLine
 10
275.7158905535996
 20
159.1586129945568
 30
0.0
 11
276.62956649761
 21
166.0987171612235
 31
0.0
1001
PHOENIX7010
1002
{
1070
    41
1040
1.5
1002
}
  0
LINE
  5
A75
330
18
100
AcDbEntity
  8
0
  6
Continuous
 62
     1
100
AcDbLine
 10
275.7158905535996
 20
188.771934934661
 30
0.0
 11
274.8022146095891
 21
181.8318307679943
 31
0.0
1001
PHOENIX7010
1002
{
1070
    41
1040
1.5
1002
}
  0
LINE
  5
A76
330
18
100
AcDbEntity
  8
0
  6
Continuous
 62
     1
100
AcDbLine
 10
275.7158905535996
 20
188.771934934661
 30
0.0
 11
276.62956649761
 21
181.8318307679943
 31
0.0
1001
PHOENIX7010
1002
{
1070
    41
1040
1.5
1002
}
  0
TEXT
  5
A77
330
18
100
AcDbEntity
  8
0
 62
     5
100
AcDbText
 10
273.7158905535996
 20
161.9202788727262
 30
0.0
 40
7.0
  1
44.45
 50
90.0
 72
     1
 11
273.7158905535996
 21
173.9652536195568
 31
0.0
100
AcDbText
1001
PHOENIX7010
1002
{
1070
    41
1040
1.5
1002
}
  0
LINE
  5
A78
330
18
100
AcDbEntity
  8
0
  6
Continuous
 62
     1
100
AcDbLine
 10
292.3825572202662
 20
129.5452910544526
 30
0.0
 11
292.3825572202662
 21
159.1586129945568
 31
0.0
1001
PHOENIX7010
1002
{
1070
    41
1040
1.5
1002
}
  0
LINE
  5
A79
330
18
100
AcDbEntity
  8
0
  6
Continuous
 62
     1
100
AcDbLine
 10
292.3825572202662
 20
129.5452910544526
 30
0.0
 11
291.4689016213078
 21
136.4853952211193
 31
0.0
1001
PHOENIX7010
1002
{
1070
    41
1040
1.5
1002
}
  0
LINE
  5
A7A
330
18
100
AcDbEntity
  8
0
  6
Continuous
 62
     1
100
AcDbLine
 10
292.3825572202662
 20
129.5452910544526
 30
0.0
 11
293.2962128192246
 21
136.4853952211193
 31
0.0
1001
PHOENIX7010
1002
{
1070
    41
1040
1.5
1002
}
  0
LINE
  5
A7B
330
18
100
AcDbEntity
  8
0
  6
Continuous
 62
     1
100
AcDbLine
 10
292.3825572202662
 20
159.1586129945568
 30
0.0
 11
291.4689016213078
 21
152.2185088278901
 31
0.0
1001
PHOENIX7010
1002
{
1070
    41
1040
1.5
1002
}
  0
LINE
  5
A7C
330
18
100
AcDbEntity
  8
0
  6
Continuous
 62
     1
100
AcDbLine
 10
292.3825572202662
 20
159.1586129945568
 30
0.0
 11
293.2962128192246
 21
152.2185088278901
 31
0.0
1001
PHOENIX7010
1002
{
1070
    41
1040
1.5
1002
}
  0
TEXT
  5
A7D
330
18
100
AcDbEntity
  8
0
 62
     5
100
AcDbText
 10
290.3825572202662
 20
132.306956932622
 30
0.0
 40
7.0
  1
44.45
 50
90.0
 72
     1
 11
290.3825572202662
 21
144.3519316794526
 31
0.0
100
AcDbText
1001
PHOENIX7010
1002
{
1070
    41
1040
1.5
1002
}
  0
LINE
  5
A7E
330
18
100
AcDbEntity
  8
0
  6
Continuous
 62
     1
100
AcDbLine
 10
259.0492238869329
 20
27.67191865861929
 30
0.0
 11
279.7158091733912
 21
27.67191865861929
 31
0.0
1001
PHOENIX7010
1002
{
1070
    41
1040
1.5
1002
}
  0
LINE
  5
A7F
330
18
100
AcDbEntity
  8
0
  6
Continuous
 62
     1
100
AcDbLine
 10
259.0492238869329
 20
29.00525199195266
 30
0.0
 11
279.7158091733912
 21
29.00525199195266
 31
0.0
1001
PHOENIX7010
1002
{
1070
    41
1040
1.5
1002
}
  0
LINE
  5
A80
330
18
100
AcDbEntity
  8
0
  6
Continuous
 62
     1
100
AcDbLine
 10
275.7158091733912
 20
27.67191865861929
 30
0.0
 11
274.8021332293808
 21
20.73181449195266
 31
0.0
1001
PHOENIX7010
1002
{
1070
    41
1040
1.5
1002
}
  0
LINE
  5
A81
330
18
100
AcDbEntity
  8
0
  6
Continuous
 62
     1
100
AcDbLine
 10
275.7158091733912
 20
27.67191865861929
 30
0.0
 11
276.6294851174016
 21
20.73181449195266
 31
0.0
1001
PHOENIX7010
1002
{
1070
    41
1040
1.5
1002
}
  0
LINE
  5
A82
330
18
100
AcDbEntity
  8
0
  6
Continuous
 62
     1
100
AcDbLine
 10
275.7158091733912
 20
29.00525199195266
 30
0.0
 11
274.8021332293808
 21
35.94535615861929
 31
0.0
1001
PHOENIX7010
1002
{
1070
    41
1040
1.5
1002
}
  0
LINE
  5
A83
330
18
100
AcDbEntity
  8
0
  6
Continuous
 62
     1
100
AcDbLine
 10
275.7158091733912
 20
29.00525199195266
 30
0.0
 11
276.6294851174016
 21
35.94535615861929
 31
0.0
1001
PHOENIX7010
1002
{
1070
    41
1040
1.5
1002
}
  0
TEXT
  5
A84
330
18
100
AcDbEntity
  8
0
 62
     5
100
AcDbText
 10
273.7158091733912
 20
39.00525199195266
 30
0.0
 40
7.0
  1
2  
 50
90.0
100
AcDbText
1001
PHOENIX7010
1002
{
1070
    41
1040
1.5
1002
}
  0
LINE
  5
A85
330
18
100
AcDbEntity
  8
0
  6
Continuous
 62
     1
100
AcDbLine
 10
275.7158091733912
 20
13.67191865861929
 30
0.0
 11
275.7158091733912
 21
46.07458792945266
 31
0.0
1001
PHOENIX7010
1002
{
1070
    41
1040
1.5
1002
}
  0
LINE
  5
A86
102
{ACAD_REACTORS
330
A0F
102
}
330
18
100
AcDbEntity
  8
0
  6
Continuous
 62
     7
100
AcDbLine
 10
259.0492238869329
 20
29.00525199195266
 30
0.0
 11
259.0492238869329
 21
27.67191865861929
 31
0.0
1001
PHOENIX7010
1002
{
1070
    41
1040
1.5
1002
}
  0
LINE
  5
A87
102
{ACAD_REACTORS
330
A0F
102
}
330
18
100
AcDbEntity
  8
0
  6
Continuous
 62
     7
100
AcDbLine
 10
102.3826386004746
 20
29.00525199195266
 30
0.0
 11
259.0492238869329
 21
29.00525199195266
 31
0.0
1001
PHOENIX7010
1002
{
1070
    41
1040
1.5
1002
}
  0
LINE
  5
A88
102
{ACAD_REACTORS
330
A0F
102
}
330
18
100
AcDbEntity
  8
0
  6
Continuous
 62
     7
100
AcDbLine
 10
259.0492238869329
 20
27.67191865861929
 30
0.0
 11
102.3826386004746
 21
27.67191865861929
 31
0.0
1001
PHOENIX7010
1002
{
1070
    41
1040
1.5
1002
}
  0
LINE
  5
A89
102
{ACAD_REACTORS
330
A0F
102
}
330
18
100
AcDbEntity
  8
0
  6
Continuous
 62
     7
100
AcDbLine
 10
102.3826386004746
 20
29.00525199195266
 30
0.0
 11
102.3826386004746
 21
27.67191865861929
 31
0.0
1001
PHOENIX7010
1002
{
1070
    41
1040
1.5
1002
}
  0
LINE
  5
A8A
330
18
100
AcDbEntity
  8
0
  6
Continuous
 62
     1
100
AcDbLine
 10
85.71589055359959
 20
59.33858532528597
 30
0.0
 11
85.71589055359959
 21
140.3384836000255
 31
0.0
1001
PHOENIX7010
1002
{
1070
    41
1040
1.5
1002
}
  0
LINE
  5
A8B
330
18
100
AcDbEntity
  8
0
  6
Continuous
 62
     1
100
AcDbLine
 10
85.71589055359959
 20
59.33858532528597
 30
0.0
 11
84.8022044370631
 21
66.27868949195266
 31
0.0
1001
PHOENIX7010
1002
{
1070
    41
1040
1.5
1002
}
  0
LINE
  5
A8C
330
18
100
AcDbEntity
  8
0
  6
Continuous
 62
     1
100
AcDbLine
 10
85.71589055359959
 20
59.33858532528597
 30
0.0
 11
86.62957667013598
 21
66.27868949195266
 31
0.0
1001
PHOENIX7010
1002
{
1070
    41
1040
1.5
1002
}
  0
LINE
  5
A8D
330
18
100
AcDbEntity
  8
0
  6
Continuous
 62
     1
100
AcDbLine
 10
85.71589055359959
 20
140.3384836000255
 30
0.0
 11
84.8022044370631
 21
133.3983794333588
 31
0.0
1001
PHOENIX7010
1002
{
1070
    41
1040
1.5
1002
}
  0
LINE
  5
A8E
330
18
100
AcDbEntity
  8
0
  6
Continuous
 62
     1
100
AcDbLine
 10
85.71589055359959
 20
140.3384836000255
 30
0.0
 11
86.62957667013598
 21
133.3983794333588
 31
0.0
1001
PHOENIX7010
1002
{
1070
    41
1040
1.5
1002
}
  0
TEXT
  5
A8F
330
18
100
AcDbEntity
  8
0
 62
     5
100
AcDbText
 10
83.7158905535996
 20
90.21492258793768
 30
0.0
 40
7.0
  1
121.6
 50
90.0
 72
     1
 11
83.7158905535996
 21
99.83854463518179
 31
0.0
100
AcDbText
1001
PHOENIX7010
1002
{
1070
    41
1040
1.5
1002
}
  0
LINE
  5
A90
330
18
100
AcDbEntity
  8
0
  6
Continuous
 62
     1
100
AcDbLine
 10
110.7158905535996
 20
140.3384836000255
 30
0.0
 11
81.71589055359959
 21
140.3384836000255
 31
0.0
1001
PHOENIX7010
1002
{
1070
    41
1040
1.5
1002
}
  0
LINE
  5
A91
330
18
100
AcDbEntity
  8
0
  6
Continuous
 62
     1
100
AcDbLine
 10
110.7158905535996
 20
59.33858532528597
 30
0.0
 11
81.71589055359959
 21
59.33858532528597
 31
0.0
1001
PHOENIX7010
1002
{
1070
    41
1040
1.5
1002
}
  0
LINE
  5
A92
330
18
100
AcDbEntity
  8
0
  6
Continuous
 62
     1
100
AcDbLine
 10
85.71597193380785
 20
148.2719349346609
 30
0.0
 11
85.71597193380785
 21
229.2718128643485
 31
0.0
1001
PHOENIX7010
1002
{
1070
    41
1040
1.5
1002
}
  0
LINE
  5
A93
330
18
100
AcDbEntity
  8
0
  6
Continuous
 62
     1
100
AcDbLine
 10
85.71597193380785
 20
148.2719349346609
 30
0.0
 11
84.80228581727146
 21
155.2120391013276
 31
0.0
1001
PHOENIX7010
1002
{
1070
    41
1040
1.5
1002
}
  0
LINE
  5
A94
330
18
100
AcDbEntity
  8
0
  6
Continuous
 62
     1
100
AcDbLine
 10
85.71597193380785
 20
148.2719349346609
 30
0.0
 11
86.62965805034435
 21
155.2120391013276
 31
0.0
1001
PHOENIX7010
1002
{
1070
    41
1040
1.5
1002
}
  0
LINE
  5
A95
330
18
100
AcDbEntity
  8
0
  6
Continuous
 62
     1
100
AcDbLine
 10
85.71597193380785
 20
229.2718128643485
 30
0.0
 11
84.80228581727146
 21
222.3317086976818
 31
0.0
1001
PHOENIX7010
1002
{
1070
    41
1040
1.5
1002
}
  0
LINE
  5
A96
330
18
100
AcDbEntity
  8
0
  6
Continuous
 62
     1
100
AcDbLine
 10
85.71597193380785
 20
229.2718128643485
 30
0.0
 11
86.62965805034435
 21
222.3317086976818
 31
0.0
1001
PHOENIX7010
1002
{
1070
    41
1040
1.5
1002
}
  0
TEXT
  5
A97
330
18
100
AcDbEntity
  8
0
 62
     5
100
AcDbText
 10
83.71597193380784
 20
179.1482721973127
 30
0.0
 40
7.0
  1
121.6
 50
90.0
 72
     1
 11
83.71597193380784
 21
188.7718942445568
 31
0.0
100
AcDbText
1001
PHOENIX7010
1002
{
1070
    41
1040
1.5
1002
}
  0
LINE
  5
A98
330
18
100
AcDbEntity
  8
0
  6
Continuous
 62
     1
100
AcDbLine
 10
110.7159719338078
 20
148.2719349346609
 30
0.0
 11
81.71597193380785
 21
148.2719349346609
 31
0.0
1001
PHOENIX7010
1002
{
1070
    41
1040
1.5
1002
}
  0
LINE
  5
A99
330
18
100
AcDbEntity
  8
0
  6
Continuous
 62
     1
100
AcDbLine
 10
110.7159719338078
 20
229.2718128643485
 30
0.0
 11
81.71597193380785
 21
229.2718128643485
 31
0.0
1001
PHOENIX7010
1002
{
1070
    41
1040
1.5
1002
}
  0
LINE
  5
A9A
330
18
100
AcDbEntity
  8
0
  6
Continuous
 62
     1
100
AcDbLine
 10
69.04930526714122
 20
59.33858532528597
 30
0.0
 11
69.04930526714122
 21
229.2718128643485
 31
0.0
1001
PHOENIX7010
1002
{
1070
    41
1040
1.5
1002
}
  0
LINE
  5
A9B
330
18
100
AcDbEntity
  8
0
  6
Continuous
 62
     1
100
AcDbLine
 10
85.71589055359959
 20
59.33858532528597
 30
0.0
 11
65.04930526714122
 21
59.33858532528597
 31
0.0
1001
PHOENIX7010
1002
{
1070
    41
1040
1.5
1002
}
  0
LINE
  5
A9C
330
18
100
AcDbEntity
  8
0
  6
Continuous
 62
     1
100
AcDbLine
 10
85.71597193380785
 20
229.2718128643485
 30
0.0
 11
65.04930526714122
 21
229.2718128643485
 31
0.0
1001
PHOENIX7010
1002
{
1070
    41
1040
1.5
1002
}
  0
LINE
  5
A9D
330
18
100
AcDbEntity
  8
0
  6
Continuous
 62
     1
100
AcDbLine
 10
69.04930526714122
 20
59.33858532528597
 30
0.0
 11
68.13562932313084
 21
66.27870983700472
 31
0.0
1001
PHOENIX7010
1002
{
1070
    41
1040
1.5
1002
}
  0
LINE
  5
A9E
330
18
100
AcDbEntity
  8
0
  6
Continuous
 62
     1
100
AcDbLine
 10
69.04930526714122
 20
59.33858532528597
 30
0.0
 11
69.9629812111516
 21
66.27870983700472
 31
0.0
1001
PHOENIX7010
1002
{
1070
    41
1040
1.5
1002
}
  0
LINE
  5
A9F
330
18
100
AcDbEntity
  8
0
  6
Continuous
 62
     1
100
AcDbLine
 10
69.04930526714122
 20
229.2718128643485
 30
0.0
 11
68.13562932313084
 21
222.3317086976818
 31
0.0
1001
PHOENIX7010
1002
{
1070
    41
1040
1.5
1002
}
  0
LINE
  5
AA0
330
18
100
AcDbEntity
  8
0
  6
Continuous
 62
     1
100
AcDbLine
 10
69.04930526714122
 20
229.2718128643485
 30
0.0
 11
69.9629812111516
 21
222.3317086976818
 31
0.0
1001
PHOENIX7010
1002
{
1070
    41
1040
1.5
1002
}
  0
TEXT
  5
AA1
330
18
100
AcDbEntity
  8
0
 62
     5
100
AcDbText
 10
67.04930526714122
 20
132.943499871067
 30
0.0
 40
7.0
  1
254.9
 50
90.0
 72
     1
 11
67.04930526714122
 21
144.3051990948172
 31
0.0
100
AcDbText
1001
PHOENIX7010
1002
{
1070
    41
1040
1.5
1002
}
  0
LINE
  5
AA2
102
{ACAD_REACTORS
330
A07
102
}
330
18
100
AcDbEntity
  8
0
  6
Continuous
 62
     1
100
AcDbLine
 10
52.38255722026622
 20
55.67191865861929
 30
0.0
 11
52.38255722026622
 21
232.9385609112235
 31
0.0
1001
PHOENIX7010
1002
{
1070
    41
1040
1.5
1002
}
  0
LINE
  5
AA3
102
{ACAD_REACTORS
330
A07
102
}
330
18
100
AcDbEntity
  8
0
  6
Continuous
 62
     1
100
AcDbLine
 10
102.3825572202662
 20
55.67191865861929
 30
0.0
 11
48.38255722026622
 21
55.67191865861929
 31
0.0
1001
PHOENIX7010
1002
{
1070
    41
1040
1.5
1002
}
  0
LINE
  5
AA4
102
{ACAD_REACTORS
330
A07
102
}
330
18
100
AcDbEntity
  8
0
  6
Continuous
 62
     1
100
AcDbLine
 10
102.3825572202662
 20
232.9385609112235
 30
0.0
 11
48.38255722026622
 21
232.9385609112235
 31
0.0
1001
PHOENIX7010
1002
{
1070
    41
1040
1.5
1002
}
  0
LINE
  5
AA5
102
{ACAD_REACTORS
330
A07
102
}
330
18
100
AcDbEntity
  8
0
  6
Continuous
 62
     1
100
AcDbLine
 10
52.38255722026622
 20
55.67191865861929
 30
0.0
 11
51.46888127625584
 21
62.61204317033804
 31
0.0
1001
PHOENIX7010
1002
{
1070
    41
1040
1.5
1002
}
  0
LINE
  5
AA6
102
{ACAD_REACTORS
330
A07
102
}
330
18
100
AcDbEntity
  8
0
  6
Continuous
 62
     1
100
AcDbLine
 10
52.38255722026622
 20
55.67191865861929
 30
0.0
 11
53.2962331642766
 21
62.61204317033804
 31
0.0
1001
PHOENIX7010
1002
{
1070
    41
1040
1.5
1002
}
  0
LINE
  5
AA7
102
{ACAD_REACTORS
330
A07
102
}
330
18
100
AcDbEntity
  8
0
  6
Continuous
 62
     1
100
AcDbLine
 10
52.38255722026622
 20
232.9385609112235
 30
0.0
 11
51.46888127625584
 21
225.9984567445568
 31
0.0
1001
PHOENIX7010
1002
{
1070
    41
1040
1.5
1002
}
  0
LINE
  5
AA8
102
{ACAD_REACTORS
330
A07
102
}
330
18
100
AcDbEntity
  8
0
  6
Continuous
 62
     1
100
AcDbLine
 10
52.38255722026622
 20
232.9385609112235
 30
0.0
 11
53.2962331642766
 21
225.9984567445568
 31
0.0
1001
PHOENIX7010
1002
{
1070
    41
1040
1.5
1002
}
  0
TEXT
  5
AA9
102
{ACAD_REACTORS
330
A07
102
}
330
18
100
AcDbEntity
  8
0
 62
     5
100
AcDbText
 10
50.38255722026622
 20
133.2935405611711
 30
0.0
 40
7.0
  1
265.9
 50
90.0
 72
     1
 11
50.38255722026622
 21
144.3052397849213
 31
0.0
100
AcDbText
1001
PHOENIX7010
1002
{
1070
    41
1040
1.5
1002
}
  0
CIRCLE
  5
AAA
330
18
100
AcDbEntity
  8
0
  6
Continuous
 62
     7
100
AcDbCircle
 10
105.7158498634953
 20
144.3051990948172
 30
0.0
 40
1.533333301544189
1001
PHOENIX7010
1002
{
1070
    41
1040
1.5
1002
}
  0
LINE
  5
AAB
102
{ACAD_REACTORS
330
A10
102
}
330
18
100
AcDbEntity
  8
0
  6
Continuous
 62
     7
100
AcDbLine
 10
102.3824758400578
 20
55.67191865861929
 30
0.0
 11
259.0490611265162
 21
55.67191865861929
 31
0.0
1001
PHOENIX7010
1002
{
1070
    41
1040
1.5
1002
}
  0
LINE
  5
AAC
102
{ACAD_REACTORS
330
A10
102
}
330
18
100
AcDbEntity
  8
0
  6
Continuous
 62
     7
100
AcDbLine
 10
102.3825572202662
 20
55.67191865861929
 30
0.0
 11
102.3825572202662
 21
232.9385609112235
 31
0.0
1001
PHOENIX7010
1002
{
1070
    41
1040
1.5
1002
}
  0
LINE
  5
AAD
102
{ACAD_REACTORS
330
A10
102
}
330
18
100
AcDbEntity
  8
0
  6
Continuous
 62
     7
100
AcDbLine
 10
259.0491425067246
 20
232.9385609112235
 30
0.0
 11
102.3825572202662
 21
232.9385609112235
 31
0.0
1001
PHOENIX7010
1002
{
1070
    41
1040
1.5
1002
}
  0
LINE
  5
AAE
102
{ACAD_REACTORS
330
A10
102
}
330
18
100
AcDbEntity
  8
0
  6
Continuous
 62
     7
100
AcDbLine
 10
259.0491425067246
 20
55.67191865861929
 30
0.0
 11
259.0491425067246
 21
232.9385609112235
 31
0.0
1001
PHOENIX7010
1002
{
1070
    41
1040
1.5
1002
}
  0
CIRCLE
  5
AAF
102
{ACAD_REACTORS
330
A11
102
}
330
18
100
AcDbEntity
  8
0
  6
Continuous
 62
     7
100
AcDbCircle
 10
115.7158498634953
 20
144.3051990948172
 30
0.0
 40
1.533333301544189
1001
PHOENIX7010
1002
{
1070
    41
1040
1.5
1002
}
  0
CIRCLE
  5
AB0
102
{ACAD_REACTORS
330
A11
102
}
330
18
100
AcDbEntity
  8
0
  6
Continuous
 62
     7
100
AcDbCircle
 10
125.7158498634953
 20
144.3051990948172
 30
0.0
 40
1.533333301544189
1001
PHOENIX7010
1002
{
1070
    41
1040
1.5
1002
}
  0
CIRCLE
  5
AB1
102
{ACAD_REACTORS
330
A11
102
}
330
18
100
AcDbEntity
  8
0
  6
Continuous
 62
     7
100
AcDbCircle
 10
135.7158498634953
 20
144.3051990948172
 30
0.0
 40
1.533333301544189
1001
PHOENIX7010
1002
{
1070
    41
1040
1.5
1002
}
  0
CIRCLE
  5
AB2
102
{ACAD_REACTORS
330
A11
102
}
330
18
100
AcDbEntity
  8
0
  6
Continuous
 62
     7
100
AcDbCircle
 10
145.7158498634953
 20
144.3051990948172
 30
0.0
 40
1.533333301544189
1001
PHOENIX7010
1002
{
1070
    41
1040
1.5
1002
}
  0
CIRCLE
  5
AB3
102
{ACAD_REACTORS
330
A11
102
}
330
18
100
AcDbEntity
  8
0
  6
Continuous
 62
     7
100
AcDbCircle
 10
155.7158498634953
 20
144.3051990948172
 30
0.0
 40
1.533333301544189
1001
PHOENIX7010
1002
{
1070
    41
1040
1.5
1002
}
  0
CIRCLE
  5
AB4
102
{ACAD_REACTORS
330
A11
102
}
330
18
100
AcDbEntity
  8
0
  6
Continuous
 62
     7
100
AcDbCircle
 10
165.7158498634953
 20
144.3051990948172
 30
0.0
 40
1.533333301544189
1001
PHOENIX7010
1002
{
1070
    41
1040
1.5
1002
}
  0
CIRCLE
  5
AB5
102
{ACAD_REACTORS
330
A11
102
}
330
18
100
AcDbEntity
  8
0
  6
Continuous
 62
     7
100
AcDbCircle
 10
175.7158498634953
 20
144.3051990948172
 30
0.0
 40
1.533333301544189
1001
PHOENIX7010
1002
{
1070
    41
1040
1.5
1002
}
  0
CIRCLE
  5
AB6
102
{ACAD_REACTORS
330
A11
102
}
330
18
100
AcDbEntity
  8
0
  6
Continuous
 62
     7
100
AcDbCircle
 10
185.7158498634953
 20
144.3051990948172
 30
0.0
 40
1.533333301544189
1001
PHOENIX7010
1002
{
1070
    41
1040
1.5
1002
}
  0
CIRCLE
  5
AB7
102
{ACAD_REACTORS
330
A11
102
}
330
18
100
AcDbEntity
  8
0
  6
Continuous
 62
     7
100
AcDbCircle
 10
195.7158498634953
 20
144.3051990948172
 30
0.0
 40
1.533333301544189
1001
PHOENIX7010
1002
{
1070
    41
1040
1.5
1002
}
  0
CIRCLE
  5
AB8
102
{ACAD_REACTORS
330
A11
102
}
330
18
100
AcDbEntity
  8
0
  6
Continuous
 62
     7
100
AcDbCircle
 10
205.7158498634954
 20
144.3051990948172
 30
0.0
 40
1.533333301544189
1001
PHOENIX7010
1002
{
1070
    41
1040
1.5
1002
}
  0
CIRCLE
  5
AB9
102
{ACAD_REACTORS
330
A11
102
}
330
18
100
AcDbEntity
  8
0
  6
Continuous
 62
     7
100
AcDbCircle
 10
215.7158498634954
 20
144.3051990948172
 30
0.0
 40
1.533333301544189
1001
PHOENIX7010
1002
{
1070
    41
1040
1.5
1002
}
  0
CIRCLE
  5
ABA
102
{ACAD_REACTORS
330
A11
102
}
330
18
100
AcDbEntity
  8
0
  6
Continuous
 62
     7
100
AcDbCircle
 10
225.7158498634954
 20
144.3051990948172
 30
0.0
 40
1.533333301544189
1001
PHOENIX7010
1002
{
1070
    41
1040
1.5
1002
}
  0
CIRCLE
  5
ABB
102
{ACAD_REACTORS
330
A11
102
}
330
18
100
AcDbEntity
  8
0
  6
Continuous
 62
     7
100
AcDbCircle
 10
235.7158498634953
 20
144.3051990948172
 30
0.0
 40
1.533333301544189
1001
PHOENIX7010
1002
{
1070
    41
1040
1.5
1002
}
  0
CIRCLE
  5
ABC
102
{ACAD_REACTORS
330
A11
102
}
330
18
100
AcDbEntity
  8
0
  6
Continuous
 62
     7
100
AcDbCircle
 10
245.7158498634953
 20
144.3051990948172
 30
0.0
 40
1.533333301544189
1001
PHOENIX7010
1002
{
1070
    41
1040
1.5
1002
}
  0
CIRCLE
  5
ABD
102
{ACAD_REACTORS
330
A11
102
}
330
18
100
AcDbEntity
  8
0
  6
Continuous
 62
     7
100
AcDbCircle
 10
255.7158498634954
 20
144.3051990948172
 30
0.0
 40
1.533333301544189
1001
PHOENIX7010
1002
{
1070
    41
1040
1.5
1002
}
  0
CIRCLE
  5
B59
102
{ACAD_REACTORS
330
A16
102
}
330
18
100
AcDbEntity
  8
0
  6
Continuous
 62
     7
100
AcDbCircle
 10
110.7158091733912
 20
59.33858532528597
 30
0.0
 40
1.533333301544189
1001
PHOENIX7010
1002
{
1070
    41
1040
1.5
1002
}
  0
CIRCLE
  5
B5A
102
{ACAD_REACTORS
330
A16
102
}
330
18
100
AcDbEntity
  8
0
  6
Continuous
 62
     7
100
AcDbCircle
 10
120.7158091733912
 20
59.33858532528597
 30
0.0
 40
1.533333301544189
1001
PHOENIX7010
1002
{
1070
    41
1040
1.5
1002
}
  0
CIRCLE
  5
B5B
102
{ACAD_REACTORS
330
A16
102
}
330
18
100
AcDbEntity
  8
0
  6
Continuous
 62
     7
100
AcDbCircle
 10
130.7158091733912
 20
59.33858532528597
 30
0.0
 40
1.533333301544189
1001
PHOENIX7010
1002
{
1070
    41
1040
1.5
1002
}
  0
CIRCLE
  5
B5C
102
{ACAD_REACTORS
330
A16
102
}
330
18
100
AcDbEntity
  8
0
  6
Continuous
 62
     7
100
AcDbCircle
 10
140.7158091733912
 20
59.33858532528597
 30
0.0
 40
1.533333301544189
1001
PHOENIX7010
1002
{
1070
    41
1040
1.5
1002
}
  0
CIRCLE
  5
B5D
102
{ACAD_REACTORS
330
A16
102
}
330
18
100
AcDbEntity
  8
0
  6
Continuous
 62
     7
100
AcDbCircle
 10
150.7158091733912
 20
59.33858532528597
 30
0.0
 40
1.533333301544189
1001
PHOENIX7010
1002
{
1070
    41
1040
1.5
1002
}
  0
CIRCLE
  5
B5E
102
{ACAD_REACTORS
330
A16
102
}
330
18
100
AcDbEntity
  8
0
  6
Continuous
 62
     7
100
AcDbCircle
 10
160.7158091733912
 20
59.33858532528597
 30
0.0
 40
1.533333301544189
1001
PHOENIX7010
1002
{
1070
    41
1040
1.5
1002
}
  0
CIRCLE
  5
B5F
102
{ACAD_REACTORS
330
A16
102
}
330
18
100
AcDbEntity
  8
0
  6
Continuous
 62
     7
100
AcDbCircle
 10
170.7158091733912
 20
59.33858532528597
 30
0.0
 40
1.533333301544189
1001
PHOENIX7010
1002
{
1070
    41
1040
1.5
1002
}
  0
CIRCLE
  5
B60
102
{ACAD_REACTORS
330
A16
102
}
330
18
100
AcDbEntity
  8
0
  6
Continuous
 62
     7
100
AcDbCircle
 10
180.7158091733912
 20
59.33858532528597
 30
0.0
 40
1.533333301544189
1001
PHOENIX7010
1002
{
1070
    41
1040
1.5
1002
}
  0
CIRCLE
  5
B61
102
{ACAD_REACTORS
330
A16
102
}
330
18
100
AcDbEntity
  8
0
  6
Continuous
 62
     7
100
AcDbCircle
 10
190.7158091733912
 20
59.33858532528597
 30
0.0
 40
1.533333301544189
1001
PHOENIX7010
1002
{
1070
    41
1040
1.5
1002
}
  0
CIRCLE
  5
B62
102
{ACAD_REACTORS
330
A16
102
}
330
18
100
AcDbEntity
  8
0
  6
Continuous
 62
     7
100
AcDbCircle
 10
200.7158091733912
 20
59.33858532528597
 30
0.0
 40
1.533333301544189
1001
PHOENIX7010
1002
{
1070
    41
1040
1.5
1002
}
  0
CIRCLE
  5
B63
102
{ACAD_REACTORS
330
A16
102
}
330
18
100
AcDbEntity
  8
0
  6
Continuous
 62
     7
100
AcDbCircle
 10
210.7158091733912
 20
59.33858532528597
 30
0.0
 40
1.533333301544189
1001
PHOENIX7010
1002
{
1070
    41
1040
1.5
1002
}
  0
CIRCLE
  5
B64
102
{ACAD_REACTORS
330
A16
102
}
330
18
100
AcDbEntity
  8
0
  6
Continuous
 62
     7
100
AcDbCircle
 10
220.7158091733912
 20
59.33858532528597
 30
0.0
 40
1.533333301544189
1001
PHOENIX7010
1002
{
1070
    41
1040
1.5
1002
}
  0
CIRCLE
  5
B65
102
{ACAD_REACTORS
330
A16
102
}
330
18
100
AcDbEntity
  8
0
  6
Continuous
 62
     7
100
AcDbCircle
 10
230.7158091733912
 20
59.33858532528597
 30
0.0
 40
1.533333301544189
1001
PHOENIX7010
1002
{
1070
    41
1040
1.5
1002
}
  0
CIRCLE
  5
B66
102
{ACAD_REACTORS
330
A16
102
}
330
18
100
AcDbEntity
  8
0
  6
Continuous
 62
     7
100
AcDbCircle
 10
240.7158091733912
 20
59.33858532528597
 30
0.0
 40
1.533333301544189
1001
PHOENIX7010
1002
{
1070
    41
1040
1.5
1002
}
  0
CIRCLE
  5
B67
102
{ACAD_REACTORS
330
A16
102
}
330
18
100
AcDbEntity
  8
0
  6
Continuous
 62
     7
100
AcDbCircle
 10
250.7157277931828
 20
59.33858532528597
 30
0.0
 40
1.533333301544189
1001
PHOENIX7010
1002
{
1070
    41
1040
1.5
1002
}
  0
LINE
  5
B68
330
18
100
AcDbEntity
  8
0
  6
Continuous
 62
     7
100
AcDbLine
 10
104.0491425067246
 20
64.67191865861929
 30
0.0
 11
104.0491425067246
 21
62.00525199195266
 31
0.0
1001
PHOENIX7010
1002
{
1070
    41
1040
1.5
1002
}
  0
LINE
  5
B69
330
18
100
AcDbEntity
  8
0
  6
Continuous
 62
     7
100
AcDbLine
 10
104.0491425067246
 20
62.00525199195266
 30
0.0
 11
107.3824758400578
 21
62.00525199195266
 31
0.0
1001
PHOENIX7010
1002
{
1070
    41
1040
1.5
1002
}
  0
LINE
  5
B6A
330
18
100
AcDbEntity
  8
0
  6
Continuous
 62
     7
100
AcDbLine
 10
107.3824758400578
 20
62.00525199195266
 30
0.0
 11
107.3824758400578
 21
64.67191865861929
 31
0.0
1001
PHOENIX7010
1002
{
1070
    41
1040
1.5
1002
}
  0
LINE
  5
B6B
330
18
100
AcDbEntity
  8
0
  6
Continuous
 62
     7
100
AcDbLine
 10
114.0491425067246
 20
64.67191865861929
 30
0.0
 11
114.0491425067246
 21
62.00525199195266
 31
0.0
1001
PHOENIX7010
1002
{
1070
    41
1040
1.5
1002
}
  0
LINE
  5
B6C
330
18
100
AcDbEntity
  8
0
  6
Continuous
 62
     7
100
AcDbLine
 10
114.0491425067246
 20
62.00525199195266
 30
0.0
 11
117.3824758400578
 21
62.00525199195266
 31
0.0
1001
PHOENIX7010
1002
{
1070
    41
1040
1.5
1002
}
  0
LINE
  5
B6D
330
18
100
AcDbEntity
  8
0
  6
Continuous
 62
     7
100
AcDbLine
 10
117.3824758400578
 20
62.00525199195266
 30
0.0
 11
117.3824758400578
 21
64.67191865861929
 31
0.0
1001
PHOENIX7010
1002
{
1070
    41
1040
1.5
1002
}
  0
LINE
  5
B6E
330
18
100
AcDbEntity
  8
0
  6
Continuous
 62
     7
100
AcDbLine
 10
124.0491425067246
 20
64.67191865861929
 30
0.0
 11
124.0491425067246
 21
62.00525199195266
 31
0.0
1001
PHOENIX7010
1002
{
1070
    41
1040
1.5
1002
}
  0
LINE
  5
B6F
330
18
100
AcDbEntity
  8
0
  6
Continuous
 62
     7
100
AcDbLine
 10
124.0491425067246
 20
62.00525199195266
 30
0.0
 11
127.3824758400578
 21
62.00525199195266
 31
0.0
1001
PHOENIX7010
1002
{
1070
    41
1040
1.5
1002
}
  0
LINE
  5
B70
330
18
100
AcDbEntity
  8
0
  6
Continuous
 62
     7
100
AcDbLine
 10
127.3824758400578
 20
62.00525199195266
 30
0.0
 11
127.3824758400578
 21
64.67191865861929
 31
0.0
1001
PHOENIX7010
1002
{
1070
    41
1040
1.5
1002
}
  0
LINE
  5
B71
330
18
100
AcDbEntity
  8
0
  6
Continuous
 62
     7
100
AcDbLine
 10
134.0491425067246
 20
64.67191865861929
 30
0.0
 11
134.0491425067246
 21
62.00525199195266
 31
0.0
1001
PHOENIX7010
1002
{
1070
    41
1040
1.5
1002
}
  0
LINE
  5
B72
330
18
100
AcDbEntity
  8
0
  6
Continuous
 62
     7
100
AcDbLine
 10
134.0491425067246
 20
62.00525199195266
 30
0.0
 11
137.3824758400578
 21
62.00525199195266
 31
0.0
1001
PHOENIX7010
1002
{
1070
    41
1040
1.5
1002
}
  0
LINE
  5
B73
330
18
100
AcDbEntity
  8
0
  6
Continuous
 62
     7
100
AcDbLine
 10
137.3824758400578
 20
62.00525199195266
 30
0.0
 11
137.3824758400578
 21
64.67191865861929
 31
0.0
1001
PHOENIX7010
1002
{
1070
    41
1040
1.5
1002
}
  0
LINE
  5
B74
330
18
100
AcDbEntity
  8
0
  6
Continuous
 62
     7
100
AcDbLine
 10
144.0491425067246
 20
64.67191865861929
 30
0.0
 11
144.0491425067246
 21
62.00525199195266
 31
0.0
1001
PHOENIX7010
1002
{
1070
    41
1040
1.5
1002
}
  0
LINE
  5
B75
330
18
100
AcDbEntity
  8
0
  6
Continuous
 62
     7
100
AcDbLine
 10
144.0491425067246
 20
62.00525199195266
 30
0.0
 11
147.3824758400578
 21
62.00525199195266
 31
0.0
1001
PHOENIX7010
1002
{
1070
    41
1040
1.5
1002
}
  0
LINE
  5
B76
330
18
100
AcDbEntity
  8
0
  6
Continuous
 62
     7
100
AcDbLine
 10
147.3824758400578
 20
62.00525199195266
 30
0.0
 11
147.3824758400578
 21
64.67191865861929
 31
0.0
1001
PHOENIX7010
1002
{
1070
    41
1040
1.5
1002
}
  0
LINE
  5
B77
330
18
100
AcDbEntity
  8
0
  6
Continuous
 62
     7
100
AcDbLine
 10
154.0491425067246
 20
64.67191865861929
 30
0.0
 11
154.0491425067246
 21
62.00525199195266
 31
0.0
1001
PHOENIX7010
1002
{
1070
    41
1040
1.5
1002
}
  0
LINE
  5
B78
330
18
100
AcDbEntity
  8
0
  6
Continuous
 62
     7
100
AcDbLine
 10
154.0491425067246
 20
62.00525199195266
 30
0.0
 11
157.3824758400578
 21
62.00525199195266
 31
0.0
1001
PHOENIX7010
1002
{
1070
    41
1040
1.5
1002
}
  0
LINE
  5
B79
330
18
100
AcDbEntity
  8
0
  6
Continuous
 62
     7
100
AcDbLine
 10
157.3824758400578
 20
62.00525199195266
 30
0.0
 11
157.3824758400578
 21
64.67191865861929
 31
0.0
1001
PHOENIX7010
1002
{
1070
    41
1040
1.5
1002
}
  0
LINE
  5
B7A
330
18
100
AcDbEntity
  8
0
  6
Continuous
 62
     7
100
AcDbLine
 10
164.0491425067246
 20
64.67191865861929
 30
0.0
 11
164.0491425067246
 21
62.00525199195266
 31
0.0
1001
PHOENIX7010
1002
{
1070
    41
1040
1.5
1002
}
  0
LINE
  5
B7B
330
18
100
AcDbEntity
  8
0
  6
Continuous
 62
     7
100
AcDbLine
 10
164.0491425067246
 20
62.00525199195266
 30
0.0
 11
167.3824758400578
 21
62.00525199195266
 31
0.0
1001
PHOENIX7010
1002
{
1070
    41
1040
1.5
1002
}
  0
LINE
  5
B7C
330
18
100
AcDbEntity
  8
0
  6
Continuous
 62
     7
100
AcDbLine
 10
167.3824758400578
 20
62.00525199195266
 30
0.0
 11
167.3824758400578
 21
64.67191865861929
 31
0.0
1001
PHOENIX7010
1002
{
1070
    41
1040
1.5
1002
}
  0
LINE
  5
B7D
330
18
100
AcDbEntity
  8
0
  6
Continuous
 62
     7
100
AcDbLine
 10
174.0491425067246
 20
64.67191865861929
 30
0.0
 11
174.0491425067246
 21
62.00525199195266
 31
0.0
1001
PHOENIX7010
1002
{
1070
    41
1040
1.5
1002
}
  0
LINE
  5
B7E
330
18
100
AcDbEntity
  8
0
  6
Continuous
 62
     7
100
AcDbLine
 10
174.0491425067246
 20
62.00525199195266
 30
0.0
 11
177.3824758400578
 21
62.00525199195266
 31
0.0
1001
PHOENIX7010
1002
{
1070
    41
1040
1.5
1002
}
  0
LINE
  5
B7F
330
18
100
AcDbEntity
  8
0
  6
Continuous
 62
     7
100
AcDbLine
 10
177.3824758400578
 20
62.00525199195266
 30
0.0
 11
177.3824758400578
 21
64.67191865861929
 31
0.0
1001
PHOENIX7010
1002
{
1070
    41
1040
1.5
1002
}
  0
LINE
  5
B80
330
18
100
AcDbEntity
  8
0
  6
Continuous
 62
     7
100
AcDbLine
 10
184.0491425067246
 20
64.67191865861929
 30
0.0
 11
184.0491425067246
 21
62.00525199195266
 31
0.0
1001
PHOENIX7010
1002
{
1070
    41
1040
1.5
1002
}
  0
LINE
  5
B81
330
18
100
AcDbEntity
  8
0
  6
Continuous
 62
     7
100
AcDbLine
 10
184.0491425067246
 20
62.00525199195266
 30
0.0
 11
187.3824758400578
 21
62.00525199195266
 31
0.0
1001
PHOENIX7010
1002
{
1070
    41
1040
1.5
1002
}
  0
LINE
  5
B82
330
18
100
AcDbEntity
  8
0
  6
Continuous
 62
     7
100
AcDbLine
 10
187.3824758400578
 20
62.00525199195266
 30
0.0
 11
187.3824758400578
 21
64.67191865861929
 31
0.0
1001
PHOENIX7010
1002
{
1070
    41
1040
1.5
1002
}
  0
LINE
  5
B83
330
18
100
AcDbEntity
  8
0
  6
Continuous
 62
     7
100
AcDbLine
 10
194.0491425067246
 20
64.67191865861929
 30
0.0
 11
194.0491425067246
 21
62.00525199195266
 31
0.0
1001
PHOENIX7010
1002
{
1070
    41
1040
1.5
1002
}
  0
LINE
  5
B84
330
18
100
AcDbEntity
  8
0
  6
Continuous
 62
     7
100
AcDbLine
 10
194.0491425067246
 20
62.00525199195266
 30
0.0
 11
197.3824758400578
 21
62.00525199195266
 31
0.0
1001
PHOENIX7010
1002
{
1070
    41
1040
1.5
1002
}
  0
LINE
  5
B85
330
18
100
AcDbEntity
  8
0
  6
Continuous
 62
     7
100
AcDbLine
 10
197.3824758400578
 20
62.00525199195266
 30
0.0
 11
197.3824758400578
 21
64.67191865861929
 31
0.0
1001
PHOENIX7010
1002
{
1070
    41
1040
1.5
1002
}
  0
LINE
  5
B86
330
18
100
AcDbEntity
  8
0
  6
Continuous
 62
     7
100
AcDbLine
 10
204.0491425067246
 20
64.67191865861929
 30
0.0
 11
204.0491425067246
 21
62.00525199195266
 31
0.0
1001
PHOENIX7010
1002
{
1070
    41
1040
1.5
1002
}
  0
LINE
  5
B87
330
18
100
AcDbEntity
  8
0
  6
Continuous
 62
     7
100
AcDbLine
 10
204.0491425067246
 20
62.00525199195266
 30
0.0
 11
207.3824758400578
 21
62.00525199195266
 31
0.0
1001
PHOENIX7010
1002
{
1070
    41
1040
1.5
1002
}
  0
LINE
  5
B88
330
18
100
AcDbEntity
  8
0
  6
Continuous
 62
     7
100
AcDbLine
 10
207.3824758400578
 20
62.00525199195266
 30
0.0
 11
207.3824758400578
 21
64.67191865861929
 31
0.0
1001
PHOENIX7010
1002
{
1070
    41
1040
1.5
1002
}
  0
LINE
  5
B89
330
18
100
AcDbEntity
  8
0
  6
Continuous
 62
     7
100
AcDbLine
 10
214.0491425067246
 20
64.67191865861929
 30
0.0
 11
214.0491425067246
 21
62.00525199195266
 31
0.0
1001
PHOENIX7010
1002
{
1070
    41
1040
1.5
1002
}
  0
LINE
  5
B8A
330
18
100
AcDbEntity
  8
0
  6
Continuous
 62
     7
100
AcDbLine
 10
214.0491425067246
 20
62.00525199195266
 30
0.0
 11
217.3824758400578
 21
62.00525199195266
 31
0.0
1001
PHOENIX7010
1002
{
1070
    41
1040
1.5
1002
}
  0
LINE
  5
B8B
330
18
100
AcDbEntity
  8
0
  6
Continuous
 62
     7
100
AcDbLine
 10
217.3824758400578
 20
62.00525199195266
 30
0.0
 11
217.3824758400578
 21
64.67191865861929
 31
0.0
1001
PHOENIX7010
1002
{
1070
    41
1040
1.5
1002
}
  0
LINE
  5
B8C
330
18
100
AcDbEntity
  8
0
  6
Continuous
 62
     7
100
AcDbLine
 10
224.0491425067246
 20
64.67191865861929
 30
0.0
 11
224.0491425067246
 21
62.00525199195266
 31
0.0
1001
PHOENIX7010
1002
{
1070
    41
1040
1.5
1002
}
  0
LINE
  5
B8D
330
18
100
AcDbEntity
  8
0
  6
Continuous
 62
     7
100
AcDbLine
 10
224.0491425067246
 20
62.00525199195266
 30
0.0
 11
227.3824758400579
 21
62.00525199195266
 31
0.0
1001
PHOENIX7010
1002
{
1070
    41
1040
1.5
1002
}
  0
LINE
  5
B8E
330
18
100
AcDbEntity
  8
0
  6
Continuous
 62
     7
100
AcDbLine
 10
227.3824758400579
 20
62.00525199195266
 30
0.0
 11
227.3824758400579
 21
64.67191865861929
 31
0.0
1001
PHOENIX7010
1002
{
1070
    41
1040
1.5
1002
}
  0
LINE
  5
B8F
330
18
100
AcDbEntity
  8
0
  6
Continuous
 62
     7
100
AcDbLine
 10
234.0491425067246
 20
64.67191865861929
 30
0.0
 11
234.0491425067246
 21
62.00525199195266
 31
0.0
1001
PHOENIX7010
1002
{
1070
    41
1040
1.5
1002
}
  0
LINE
  5
B90
330
18
100
AcDbEntity
  8
0
  6
Continuous
 62
     7
100
AcDbLine
 10
234.0491425067246
 20
62.00525199195266
 30
0.0
 11
237.3824758400579
 21
62.00525199195266
 31
0.0
1001
PHOENIX7010
1002
{
1070
    41
1040
1.5
1002
}
  0
LINE
  5
B91
330
18
100
AcDbEntity
  8
0
  6
Continuous
 62
     7
100
AcDbLine
 10
237.3824758400579
 20
62.00525199195266
 30
0.0
 11
237.3824758400579
 21
64.67191865861929
 31
0.0
1001
PHOENIX7010
1002
{
1070
    41
1040
1.5
1002
}
  0
LINE
  5
B92
330
18
100
AcDbEntity
  8
0
  6
Continuous
 62
     7
100
AcDbLine
 10
244.0490611265162
 20
64.67191865861929
 30
0.0
 11
244.0490611265162
 21
62.00525199195266
 31
0.0
1001
PHOENIX7010
1002
{
1070
    41
1040
1.5
1002
}
  0
LINE
  5
B93
330
18
100
AcDbEntity
  8
0
  6
Continuous
 62
     7
100
AcDbLine
 10
244.0490611265162
 20
62.00525199195266
 30
0.0
 11
247.3823944598496
 21
62.00525199195266
 31
0.0
1001
PHOENIX7010
1002
{
1070
    41
1040
1.5
1002
}
  0
LINE
  5
B94
330
18
100
AcDbEntity
  8
0
  6
Continuous
 62
     7
100
AcDbLine
 10
247.3823944598496
 20
62.00525199195266
 30
0.0
 11
247.3823944598496
 21
64.67191865861929
 31
0.0
1001
PHOENIX7010
1002
{
1070
    41
1040
1.5
1002
}
  0
LINE
  5
B95
330
18
100
AcDbEntity
  8
0
  6
Continuous
 62
     7
100
AcDbLine
 10
254.0490611265162
 20
64.67191865861929
 30
0.0
 11
254.0490611265162
 21
62.00525199195266
 31
0.0
1001
PHOENIX7010
1002
{
1070
    41
1040
1.5
1002
}
  0
LINE
  5
B96
330
18
100
AcDbEntity
  8
0
  6
Continuous
 62
     7
100
AcDbLine
 10
254.0490611265162
 20
62.00525199195266
 30
0.0
 11
257.3823944598496
 21
62.00525199195266
 31
0.0
1001
PHOENIX7010
1002
{
1070
    41
1040
1.5
1002
}
  0
LINE
  5
B97
330
18
100
AcDbEntity
  8
0
  6
Continuous
 62
     7
100
AcDbLine
 10
257.3823944598496
 20
62.00525199195266
 30
0.0
 11
257.3823944598496
 21
64.67191865861929
 31
0.0
1001
PHOENIX7010
1002
{
1070
    41
1040
1.5
1002
}
  0
LINE
  5
B98
330
18
100
AcDbEntity
  8
0
  6
Continuous
 62
     7
100
AcDbLine
 10
108.7158091733912
 20
68.22526338518179
 30
0.0
 11
112.7158091733912
 21
68.22526338518179
 31
0.0
1001
PHOENIX7010
1002
{
1070
    41
1040
1.5
1002
}
  0
LINE
  5
B99
330
18
100
AcDbEntity
  8
0
  6
Continuous
 62
     7
100
AcDbLine
 10
112.7158091733912
 20
68.22526338518179
 30
0.0
 11
112.7158091733912
 21
72.22526338518179
 31
0.0
1001
PHOENIX7010
1002
{
1070
    41
1040
1.5
1002
}
  0
LINE
  5
B9A
330
18
100
AcDbEntity
  8
0
  6
Continuous
 62
     7
100
AcDbLine
 10
112.7158091733912
 20
72.22526338518179
 30
0.0
 11
108.7158091733912
 21
72.22526338518179
 31
0.0
1001
PHOENIX7010
1002
{
1070
    41
1040
1.5
1002
}
  0
LINE
  5
B9B
330
18
100
AcDbEntity
  8
0
  6
Continuous
 62
     7
100
AcDbLine
 10
108.7158091733912
 20
72.22526338518179
 30
0.0
 11
108.7158091733912
 21
68.22526338518179
 31
0.0
1001
PHOENIX7010
1002
{
1070
    41
1040
1.5
1002
}
  0
LINE
  5
B9C
330
18
100
AcDbEntity
  8
0
  6
Continuous
 62
     7
100
AcDbLine
 10
128.7158091733912
 20
68.22526338518179
 30
0.0
 11
132.7158091733912
 21
68.22526338518179
 31
0.0
1001
PHOENIX7010
1002
{
1070
    41
1040
1.5
1002
}
  0
LINE
  5
B9D
330
18
100
AcDbEntity
  8
0
  6
Continuous
 62
     7
100
AcDbLine
 10
132.7158091733912
 20
68.22526338518179
 30
0.0
 11
132.7158091733912
 21
72.22526338518179
 31
0.0
1001
PHOENIX7010
1002
{
1070
    41
1040
1.5
1002
}
  0
LINE
  5
B9E
330
18
100
AcDbEntity
  8
0
  6
Continuous
 62
     7
100
AcDbLine
 10
132.7158091733912
 20
72.22526338518179
 30
0.0
 11
128.7158091733912
 21
72.22526338518179
 31
0.0
1001
PHOENIX7010
1002
{
1070
    41
1040
1.5
1002
}
  0
LINE
  5
B9F
330
18
100
AcDbEntity
  8
0
  6
Continuous
 62
     7
100
AcDbLine
 10
128.7158091733912
 20
72.22526338518179
 30
0.0
 11
128.7158091733912
 21
68.22526338518179
 31
0.0
1001
PHOENIX7010
1002
{
1070
    41
1040
1.5
1002
}
  0
LINE
  5
BA0
330
18
100
AcDbEntity
  8
0
  6
Continuous
 62
     7
100
AcDbLine
 10
148.7158091733912
 20
68.22526338518179
 30
0.0
 11
152.7158091733912
 21
68.22526338518179
 31
0.0
1001
PHOENIX7010
1002
{
1070
    41
1040
1.5
1002
}
  0
LINE
  5
BA1
330
18
100
AcDbEntity
  8
0
  6
Continuous
 62
     7
100
AcDbLine
 10
152.7158091733912
 20
68.22526338518179
 30
0.0
 11
152.7158091733912
 21
72.22526338518179
 31
0.0
1001
PHOENIX7010
1002
{
1070
    41
1040
1.5
1002
}
  0
LINE
  5
BA2
330
18
100
AcDbEntity
  8
0
  6
Continuous
 62
     7
100
AcDbLine
 10
152.7158091733912
 20
72.22526338518179
 30
0.0
 11
148.7158091733912
 21
72.22526338518179
 31
0.0
1001
PHOENIX7010
1002
{
1070
    41
1040
1.5
1002
}
  0
LINE
  5
BA3
330
18
100
AcDbEntity
  8
0
  6
Continuous
 62
     7
100
AcDbLine
 10
148.7158091733912
 20
72.22526338518179
 30
0.0
 11
148.7158091733912
 21
68.22526338518179
 31
0.0
1001
PHOENIX7010
1002
{
1070
    41
1040
1.5
1002
}
  0
LINE
  5
BA4
330
18
100
AcDbEntity
  8
0
  6
Continuous
 62
     7
100
AcDbLine
 10
168.7158091733912
 20
68.22526338518179
 30
0.0
 11
172.7158091733912
 21
68.22526338518179
 31
0.0
1001
PHOENIX7010
1002
{
1070
    41
1040
1.5
1002
}
  0
LINE
  5
BA5
330
18
100
AcDbEntity
  8
0
  6
Continuous
 62
     7
100
AcDbLine
 10
172.7158091733912
 20
68.22526338518179
 30
0.0
 11
172.7158091733912
 21
72.22526338518179
 31
0.0
1001
PHOENIX7010
1002
{
1070
    41
1040
1.5
1002
}
  0
LINE
  5
BA6
330
18
100
AcDbEntity
  8
0
  6
Continuous
 62
     7
100
AcDbLine
 10
172.7158091733912
 20
72.22526338518179
 30
0.0
 11
168.7158091733912
 21
72.22526338518179
 31
0.0
1001
PHOENIX7010
1002
{
1070
    41
1040
1.5
1002
}
  0
LINE
  5
BA7
330
18
100
AcDbEntity
  8
0
  6
Continuous
 62
     7
100
AcDbLine
 10
168.7158091733912
 20
72.22526338518179
 30
0.0
 11
168.7158091733912
 21
68.22526338518179
 31
0.0
1001
PHOENIX7010
1002
{
1070
    41
1040
1.5
1002
}
  0
LINE
  5
BA8
330
18
100
AcDbEntity
  8
0
  6
Continuous
 62
     7
100
AcDbLine
 10
188.7158091733912
 20
68.22526338518179
 30
0.0
 11
192.7158091733912
 21
68.22526338518179
 31
0.0
1001
PHOENIX7010
1002
{
1070
    41
1040
1.5
1002
}
  0
LINE
  5
BA9
330
18
100
AcDbEntity
  8
0
  6
Continuous
 62
     7
100
AcDbLine
 10
192.7158091733912
 20
68.22526338518179
 30
0.0
 11
192.7158091733912
 21
72.22526338518179
 31
0.0
1001
PHOENIX7010
1002
{
1070
    41
1040
1.5
1002
}
  0
LINE
  5
BAA
330
18
100
AcDbEntity
  8
0
  6
Continuous
 62
     7
100
AcDbLine
 10
192.7158091733912
 20
72.22526338518179
 30
0.0
 11
188.7158091733912
 21
72.22526338518179
 31
0.0
1001
PHOENIX7010
1002
{
1070
    41
1040
1.5
1002
}
  0
LINE
  5
BAB
330
18
100
AcDbEntity
  8
0
  6
Continuous
 62
     7
100
AcDbLine
 10
188.7158091733912
 20
72.22526338518179
 30
0.0
 11
188.7158091733912
 21
68.22526338518179
 31
0.0
1001
PHOENIX7010
1002
{
1070
    41
1040
1.5
1002
}
  0
LINE
  5
BAC
330
18
100
AcDbEntity
  8
0
  6
Continuous
 62
     7
100
AcDbLine
 10
208.7158091733912
 20
68.22526338518179
 30
0.0
 11
212.7158091733912
 21
68.22526338518179
 31
0.0
1001
PHOENIX7010
1002
{
1070
    41
1040
1.5
1002
}
  0
LINE
  5
BAD
330
18
100
AcDbEntity
  8
0
  6
Continuous
 62
     7
100
AcDbLine
 10
212.7158091733912
 20
68.22526338518179
 30
0.0
 11
212.7158091733912
 21
72.22526338518179
 31
0.0
1001
PHOENIX7010
1002
{
1070
    41
1040
1.5
1002
}
  0
LINE
  5
BAE
330
18
100
AcDbEntity
  8
0
  6
Continuous
 62
     7
100
AcDbLine
 10
212.7158091733912
 20
72.22526338518179
 30
0.0
 11
208.7158091733912
 21
72.22526338518179
 31
0.0
1001
PHOENIX7010
1002
{
1070
    41
1040
1.5
1002
}
  0
LINE
  5
BAF
330
18
100
AcDbEntity
  8
0
  6
Continuous
 62
     7
100
AcDbLine
 10
208.7158091733912
 20
72.22526338518179
 30
0.0
 11
208.7158091733912
 21
68.22526338518179
 31
0.0
1001
PHOENIX7010
1002
{
1070
    41
1040
1.5
1002
}
  0
LINE
  5
BB0
330
18
100
AcDbEntity
  8
0
  6
Continuous
 62
     7
100
AcDbLine
 10
228.7158091733912
 20
68.22526338518179
 30
0.0
 11
232.7158091733912
 21
68.22526338518179
 31
0.0
1001
PHOENIX7010
1002
{
1070
    41
1040
1.5
1002
}
  0
LINE
  5
BB1
330
18
100
AcDbEntity
  8
0
  6
Continuous
 62
     7
100
AcDbLine
 10
232.7158091733912
 20
68.22526338518179
 30
0.0
 11
232.7158091733912
 21
72.22526338518179
 31
0.0
1001
PHOENIX7010
1002
{
1070
    41
1040
1.5
1002
}
  0
LINE
  5
BB2
330
18
100
AcDbEntity
  8
0
  6
Continuous
 62
     7
100
AcDbLine
 10
232.7158091733912
 20
72.22526338518179
 30
0.0
 11
228.7158091733912
 21
72.22526338518179
 31
0.0
1001
PHOENIX7010
1002
{
1070
    41
1040
1.5
1002
}
  0
LINE
  5
BB3
330
18
100
AcDbEntity
  8
0
  6
Continuous
 62
     7
100
AcDbLine
 10
228.7158091733912
 20
72.22526338518179
 30
0.0
 11
228.7158091733912
 21
68.22526338518179
 31
0.0
1001
PHOENIX7010
1002
{
1070
    41
1040
1.5
1002
}
  0
LINE
  5
BB4
330
18
100
AcDbEntity
  8
0
  6
Continuous
 62
     7
100
AcDbLine
 10
248.7157277931828
 20
68.22526338518179
 30
0.0
 11
252.7157277931828
 21
68.22526338518179
 31
0.0
1001
PHOENIX7010
1002
{
1070
    41
1040
1.5
1002
}
  0
LINE
  5
BB5
330
18
100
AcDbEntity
  8
0
  6
Continuous
 62
     7
100
AcDbLine
 10
252.7157277931828
 20
68.22526338518179
 30
0.0
 11
252.7157277931828
 21
72.22526338518179
 31
0.0
1001
PHOENIX7010
1002
{
1070
    41
1040
1.5
1002
}
  0
LINE
  5
BB6
330
18
100
AcDbEntity
  8
0
  6
Continuous
 62
     7
100
AcDbLine
 10
252.7157277931828
 20
72.22526338518179
 30
0.0
 11
248.7157277931828
 21
72.22526338518179
 31
0.0
1001
PHOENIX7010
1002
{
1070
    41
1040
1.5
1002
}
  0
LINE
  5
BB7
330
18
100
AcDbEntity
  8
0
  6
Continuous
 62
     7
100
AcDbLine
 10
248.7157277931828
 20
72.22526338518179
 30
0.0
 11
248.7157277931828
 21
68.22526338518179
 31
0.0
1001
PHOENIX7010
1002
{
1070
    41
1040
1.5
1002
}
  0
LINE
  5
BB8
330
18
100
AcDbEntity
  8
0
  6
Continuous
 62
     7
100
AcDbLine
 10
108.7158091733912
 20
97.83858532528597
 30
0.0
 11
112.7158091733912
 21
97.83858532528597
 31
0.0
1001
PHOENIX7010
1002
{
1070
    41
1040
1.5
1002
}
  0
LINE
  5
BB9
330
18
100
AcDbEntity
  8
0
  6
Continuous
 62
     7
100
AcDbLine
 10
112.7158091733912
 20
97.83858532528597
 30
0.0
 11
112.7158091733912
 21
101.838585325286
 31
0.0
1001
PHOENIX7010
1002
{
1070
    41
1040
1.5
1002
}
  0
LINE
  5
BBA
330
18
100
AcDbEntity
  8
0
  6
Continuous
 62
     7
100
AcDbLine
 10
112.7158091733912
 20
101.838585325286
 30
0.0
 11
108.7158091733912
 21
101.838585325286
 31
0.0
1001
PHOENIX7010
1002
{
1070
    41
1040
1.5
1002
}
  0
LINE
  5
BBB
330
18
100
AcDbEntity
  8
0
  6
Continuous
 62
     7
100
AcDbLine
 10
108.7158091733912
 20
101.838585325286
 30
0.0
 11
108.7158091733912
 21
97.83858532528597
 31
0.0
1001
PHOENIX7010
1002
{
1070
    41
1040
1.5
1002
}
  0
LINE
  5
BBC
330
18
100
AcDbEntity
  8
0
  6
Continuous
 62
     7
100
AcDbLine
 10
128.7158091733912
 20
97.83858532528597
 30
0.0
 11
132.7158091733912
 21
97.83858532528597
 31
0.0
1001
PHOENIX7010
1002
{
1070
    41
1040
1.5
1002
}
  0
LINE
  5
BBD
330
18
100
AcDbEntity
  8
0
  6
Continuous
 62
     7
100
AcDbLine
 10
132.7158091733912
 20
97.83858532528597
 30
0.0
 11
132.7158091733912
 21
101.838585325286
 31
0.0
1001
PHOENIX7010
1002
{
1070
    41
1040
1.5
1002
}
  0
LINE
  5
BBE
330
18
100
AcDbEntity
  8
0
  6
Continuous
 62
     7
100
AcDbLine
 10
132.7158091733912
 20
101.838585325286
 30
0.0
 11
128.7158091733912
 21
101.838585325286
 31
0.0
1001
PHOENIX7010
1002
{
1070
    41
1040
1.5
1002
}
  0
LINE
  5
BBF
330
18
100
AcDbEntity
  8
0
  6
Continuous
 62
     7
100
AcDbLine
 10
128.7158091733912
 20
101.838585325286
 30
0.0
 11
128.7158091733912
 21
97.83858532528597
 31
0.0
1001
PHOENIX7010
1002
{
1070
    41
1040
1.5
1002
}
  0
LINE
  5
BC0
330
18
100
AcDbEntity
  8
0
  6
Continuous
 62
     7
100
AcDbLine
 10
148.7158091733912
 20
97.83858532528597
 30
0.0
 11
152.7158091733912
 21
97.83858532528597
 31
0.0
1001
PHOENIX7010
1002
{
1070
    41
1040
1.5
1002
}
  0
LINE
  5
BC1
330
18
100
AcDbEntity
  8
0
  6
Continuous
 62
     7
100
AcDbLine
 10
152.7158091733912
 20
97.83858532528597
 30
0.0
 11
152.7158091733912
 21
101.838585325286
 31
0.0
1001
PHOENIX7010
1002
{
1070
    41
1040
1.5
1002
}
  0
LINE
  5
BC2
330
18
100
AcDbEntity
  8
0
  6
Continuous
 62
     7
100
AcDbLine
 10
152.7158091733912
 20
101.838585325286
 30
0.0
 11
148.7158091733912
 21
101.838585325286
 31
0.0
1001
PHOENIX7010
1002
{
1070
    41
1040
1.5
1002
}
  0
LINE
  5
BC3
330
18
100
AcDbEntity
  8
0
  6
Continuous
 62
     7
100
AcDbLine
 10
148.7158091733912
 20
101.838585325286
 30
0.0
 11
148.7158091733912
 21
97.83858532528597
 31
0.0
1001
PHOENIX7010
1002
{
1070
    41
1040
1.5
1002
}
  0
LINE
  5
BC4
330
18
100
AcDbEntity
  8
0
  6
Continuous
 62
     7
100
AcDbLine
 10
168.7158091733912
 20
97.83858532528597
 30
0.0
 11
172.7158091733912
 21
97.83858532528597
 31
0.0
1001
PHOENIX7010
1002
{
1070
    41
1040
1.5
1002
}
  0
LINE
  5
BC5
330
18
100
AcDbEntity
  8
0
  6
Continuous
 62
     7
100
AcDbLine
 10
172.7158091733912
 20
97.83858532528597
 30
0.0
 11
172.7158091733912
 21
101.838585325286
 31
0.0
1001
PHOENIX7010
1002
{
1070
    41
1040
1.5
1002
}
  0
LINE
  5
BC6
330
18
100
AcDbEntity
  8
0
  6
Continuous
 62
     7
100
AcDbLine
 10
172.7158091733912
 20
101.838585325286
 30
0.0
 11
168.7158091733912
 21
101.838585325286
 31
0.0
1001
PHOENIX7010
1002
{
1070
    41
1040
1.5
1002
}
  0
LINE
  5
BC7
330
18
100
AcDbEntity
  8
0
  6
Continuous
 62
     7
100
AcDbLine
 10
168.7158091733912
 20
101.838585325286
 30
0.0
 11
168.7158091733912
 21
97.83858532528597
 31
0.0
1001
PHOENIX7010
1002
{
1070
    41
1040
1.5
1002
}
  0
LINE
  5
BC8
330
18
100
AcDbEntity
  8
0
  6
Continuous
 62
     7
100
AcDbLine
 10
188.7158091733912
 20
97.83858532528597
 30
0.0
 11
192.7158091733912
 21
97.83858532528597
 31
0.0
1001
PHOENIX7010
1002
{
1070
    41
1040
1.5
1002
}
  0
LINE
  5
BC9
330
18
100
AcDbEntity
  8
0
  6
Continuous
 62
     7
100
AcDbLine
 10
192.7158091733912
 20
97.83858532528597
 30
0.0
 11
192.7158091733912
 21
101.838585325286
 31
0.0
1001
PHOENIX7010
1002
{
1070
    41
1040
1.5
1002
}
  0
LINE
  5
BCA
330
18
100
AcDbEntity
  8
0
  6
Continuous
 62
     7
100
AcDbLine
 10
192.7158091733912
 20
101.838585325286
 30
0.0
 11
188.7158091733912
 21
101.838585325286
 31
0.0
1001
PHOENIX7010
1002
{
1070
    41
1040
1.5
1002
}
  0
LINE
  5
BCB
330
18
100
AcDbEntity
  8
0
  6
Continuous
 62
     7
100
AcDbLine
 10
188.7158091733912
 20
101.838585325286
 30
0.0
 11
188.7158091733912
 21
97.83858532528597
 31
0.0
1001
PHOENIX7010
1002
{
1070
    41
1040
1.5
1002
}
  0
LINE
  5
BCC
330
18
100
AcDbEntity
  8
0
  6
Continuous
 62
     7
100
AcDbLine
 10
208.7158091733912
 20
97.83858532528597
 30
0.0
 11
212.7158091733912
 21
97.83858532528597
 31
0.0
1001
PHOENIX7010
1002
{
1070
    41
1040
1.5
1002
}
  0
LINE
  5
BCD
330
18
100
AcDbEntity
  8
0
  6
Continuous
 62
     7
100
AcDbLine
 10
212.7158091733912
 20
97.83858532528597
 30
0.0
 11
212.7158091733912
 21
101.838585325286
 31
0.0
1001
PHOENIX7010
1002
{
1070
    41
1040
1.5
1002
}
  0
LINE
  5
BCE
330
18
100
AcDbEntity
  8
0
  6
Continuous
 62
     7
100
AcDbLine
 10
212.7158091733912
 20
101.838585325286
 30
0.0
 11
208.7158091733912
 21
101.838585325286
 31
0.0
1001
PHOENIX7010
1002
{
1070
    41
1040
1.5
1002
}
  0
LINE
  5
BCF
330
18
100
AcDbEntity
  8
0
  6
Continuous
 62
     7
100
AcDbLine
 10
208.7158091733912
 20
101.838585325286
 30
0.0
 11
208.7158091733912
 21
97.83858532528597
 31
0.0
1001
PHOENIX7010
1002
{
1070
    41
1040
1.5
1002
}
  0
LINE
  5
BD0
330
18
100
AcDbEntity
  8
0
  6
Continuous
 62
     7
100
AcDbLine
 10
228.7158091733912
 20
97.83858532528597
 30
0.0
 11
232.7158091733912
 21
97.83858532528597
 31
0.0
1001
PHOENIX7010
1002
{
1070
    41
1040
1.5
1002
}
  0
LINE
  5
BD1
330
18
100
AcDbEntity
  8
0
  6
Continuous
 62
     7
100
AcDbLine
 10
232.7158091733912
 20
97.83858532528597
 30
0.0
 11
232.7158091733912
 21
101.838585325286
 31
0.0
1001
PHOENIX7010
1002
{
1070
    41
1040
1.5
1002
}
  0
LINE
  5
BD2
330
18
100
AcDbEntity
  8
0
  6
Continuous
 62
     7
100
AcDbLine
 10
232.7158091733912
 20
101.838585325286
 30
0.0
 11
228.7158091733912
 21
101.838585325286
 31
0.0
1001
PHOENIX7010
1002
{
1070
    41
1040
1.5
1002
}
  0
LINE
  5
BD3
330
18
100
AcDbEntity
  8
0
  6
Continuous
 62
     7
100
AcDbLine
 10
228.7158091733912
 20
101.838585325286
 30
0.0
 11
228.7158091733912
 21
97.83858532528597
 31
0.0
1001
PHOENIX7010
1002
{
1070
    41
1040
1.5
1002
}
  0
LINE
  5
BD4
330
18
100
AcDbEntity
  8
0
  6
Continuous
 62
     7
100
AcDbLine
 10
248.7157277931828
 20
97.83858532528597
 30
0.0
 11
252.7157277931828
 21
97.83858532528597
 31
0.0
1001
PHOENIX7010
1002
{
1070
    41
1040
1.5
1002
}
  0
LINE
  5
BD5
330
18
100
AcDbEntity
  8
0
  6
Continuous
 62
     7
100
AcDbLine
 10
252.7157277931828
 20
97.83858532528597
 30
0.0
 11
252.7157277931828
 21
101.838585325286
 31
0.0
1001
PHOENIX7010
1002
{
1070
    41
1040
1.5
1002
}
  0
LINE
  5
BD6
330
18
100
AcDbEntity
  8
0
  6
Continuous
 62
     7
100
AcDbLine
 10
252.7157277931828
 20
101.838585325286
 30
0.0
 11
248.7157277931828
 21
101.838585325286
 31
0.0
1001
PHOENIX7010
1002
{
1070
    41
1040
1.5
1002
}
  0
LINE
  5
BD7
330
18
100
AcDbEntity
  8
0
  6
Continuous
 62
     7
100
AcDbLine
 10
248.7157277931828
 20
101.838585325286
 30
0.0
 11
248.7157277931828
 21
97.83858532528597
 31
0.0
1001
PHOENIX7010
1002
{
1070
    41
1040
1.5
1002
}
  0
CIRCLE
  5
BD8
102
{ACAD_REACTORS
330
A1B
102
}
330
18
100
AcDbEntity
  8
0
  6
Continuous
 62
     7
100
AcDbCircle
 10
110.7158091733912
 20
140.3384836000255
 30
0.0
 40
1.533333301544189
1001
PHOENIX7010
1002
{
1070
    41
1040
1.5
1002
}
  0
CIRCLE
  5
BD9
102
{ACAD_REACTORS
330
A1B
102
}
330
18
100
AcDbEntity
  8
0
  6
Continuous
 62
     7
100
AcDbCircle
 10
120.7158091733912
 20
140.3384836000255
 30
0.0
 40
1.533333301544189
1001
PHOENIX7010
1002
{
1070
    41
1040
1.5
1002
}
  0
CIRCLE
  5
BDA
102
{ACAD_REACTORS
330
A1B
102
}
330
18
100
AcDbEntity
  8
0
  6
Continuous
 62
     7
100
AcDbCircle
 10
130.7158091733912
 20
140.3384836000255
 30
0.0
 40
1.533333301544189
1001
PHOENIX7010
1002
{
1070
    41
1040
1.5
1002
}
  0
CIRCLE
  5
BDB
102
{ACAD_REACTORS
330
A1B
102
}
330
18
100
AcDbEntity
  8
0
  6
Continuous
 62
     7
100
AcDbCircle
 10
140.7158091733912
 20
140.3384836000255
 30
0.0
 40
1.533333301544189
1001
PHOENIX7010
1002
{
1070
    41
1040
1.5
1002
}
  0
CIRCLE
  5
BDC
102
{ACAD_REACTORS
330
A1B
102
}
330
18
100
AcDbEntity
  8
0
  6
Continuous
 62
     7
100
AcDbCircle
 10
150.7158091733912
 20
140.3385649802338
 30
0.0
 40
1.533333301544189
1001
PHOENIX7010
1002
{
1070
    41
1040
1.5
1002
}
  0
CIRCLE
  5
BDD
102
{ACAD_REACTORS
330
A1B
102
}
330
18
100
AcDbEntity
  8
0
  6
Continuous
 62
     7
100
AcDbCircle
 10
160.7158091733912
 20
140.3385649802338
 30
0.0
 40
1.533333301544189
1001
PHOENIX7010
1002
{
1070
    41
1040
1.5
1002
}
  0
CIRCLE
  5
BDE
102
{ACAD_REACTORS
330
A1B
102
}
330
18
100
AcDbEntity
  8
0
  6
Continuous
 62
     7
100
AcDbCircle
 10
170.7158091733912
 20
140.3385649802338
 30
0.0
 40
1.533333301544189
1001
PHOENIX7010
1002
{
1070
    41
1040
1.5
1002
}
  0
CIRCLE
  5
BDF
102
{ACAD_REACTORS
330
A1B
102
}
330
18
100
AcDbEntity
  8
0
  6
Continuous
 62
     7
100
AcDbCircle
 10
180.7158091733912
 20
140.3385649802338
 30
0.0
 40
1.533333301544189
1001
PHOENIX7010
1002
{
1070
    41
1040
1.5
1002
}
  0
CIRCLE
  5
BE0
102
{ACAD_REACTORS
330
A1B
102
}
330
18
100
AcDbEntity
  8
0
  6
Continuous
 62
     7
100
AcDbCircle
 10
190.7158091733912
 20
140.3385649802338
 30
0.0
 40
1.533333301544189
1001
PHOENIX7010
1002
{
1070
    41
1040
1.5
1002
}
  0
CIRCLE
  5
BE1
102
{ACAD_REACTORS
330
A1B
102
}
330
18
100
AcDbEntity
  8
0
  6
Continuous
 62
     7
100
AcDbCircle
 10
200.7158091733912
 20
140.3385649802338
 30
0.0
 40
1.533333301544189
1001
PHOENIX7010
1002
{
1070
    41
1040
1.5
1002
}
  0
CIRCLE
  5
BE2
102
{ACAD_REACTORS
330
A1B
102
}
330
18
100
AcDbEntity
  8
0
  6
Continuous
 62
     7
100
AcDbCircle
 10
210.7158091733912
 20
140.3385649802338
 30
0.0
 40
1.533333301544189
1001
PHOENIX7010
1002
{
1070
    41
1040
1.5
1002
}
  0
CIRCLE
  5
BE3
102
{ACAD_REACTORS
330
A1B
102
}
330
18
100
AcDbEntity
  8
0
  6
Continuous
 62
     7
100
AcDbCircle
 10
220.7158091733912
 20
140.3385649802338
 30
0.0
 40
1.533333301544189
1001
PHOENIX7010
1002
{
1070
    41
1040
1.5
1002
}
  0
CIRCLE
  5
BE4
102
{ACAD_REACTORS
330
A1B
102
}
330
18
100
AcDbEntity
  8
0
  6
Continuous
 62
     7
100
AcDbCircle
 10
230.7158091733912
 20
140.3385649802338
 30
0.0
 40
1.533333301544189
1001
PHOENIX7010
1002
{
1070
    41
1040
1.5
1002
}
  0
CIRCLE
  5
BE5
102
{ACAD_REACTORS
330
A1B
102
}
330
18
100
AcDbEntity
  8
0
  6
Continuous
 62
     7
100
AcDbCircle
 10
240.7158091733912
 20
140.3385649802338
 30
0.0
 40
1.533333301544189
1001
PHOENIX7010
1002
{
1070
    41
1040
1.5
1002
}
  0
CIRCLE
  5
BE6
102
{ACAD_REACTORS
330
A1B
102
}
330
18
100
AcDbEntity
  8
0
  6
Continuous
 62
     7
100
AcDbCircle
 10
250.7157277931828
 20
140.3385649802338
 30
0.0
 40
1.533333301544189
1001
PHOENIX7010
1002
{
1070
    41
1040
1.5
1002
}
  0
LINE
  5
BE7
330
18
100
AcDbEntity
  8
0
  6
Continuous
 62
     7
100
AcDbLine
 10
104.0491425067246
 20
135.0052316469005
 30
0.0
 11
104.0491425067246
 21
137.6718983135672
 31
0.0
1001
PHOENIX7010
1002
{
1070
    41
1040
1.5
1002
}
  0
LINE
  5
BE8
330
18
100
AcDbEntity
  8
0
  6
Continuous
 62
     7
100
AcDbLine
 10
104.0491425067246
 20
137.6718983135672
 30
0.0
 11
107.3824758400578
 21
137.6718983135672
 31
0.0
1001
PHOENIX7010
1002
{
1070
    41
1040
1.5
1002
}
  0
LINE
  5
BE9
330
18
100
AcDbEntity
  8
0
  6
Continuous
 62
     7
100
AcDbLine
 10
107.3824758400578
 20
137.6718983135672
 30
0.0
 11
107.3824758400578
 21
135.0052316469005
 31
0.0
1001
PHOENIX7010
1002
{
1070
    41
1040
1.5
1002
}
  0
LINE
  5
BEA
330
18
100
AcDbEntity
  8
0
  6
Continuous
 62
     7
100
AcDbLine
 10
114.0491425067246
 20
135.0052316469005
 30
0.0
 11
114.0491425067246
 21
137.6718983135672
 31
0.0
1001
PHOENIX7010
1002
{
1070
    41
1040
1.5
1002
}
  0
LINE
  5
BEB
330
18
100
AcDbEntity
  8
0
  6
Continuous
 62
     7
100
AcDbLine
 10
114.0491425067246
 20
137.6718983135672
 30
0.0
 11
117.3824758400578
 21
137.6718983135672
 31
0.0
1001
PHOENIX7010
1002
{
1070
    41
1040
1.5
1002
}
  0
LINE
  5
BEC
330
18
100
AcDbEntity
  8
0
  6
Continuous
 62
     7
100
AcDbLine
 10
117.3824758400578
 20
137.6718983135672
 30
0.0
 11
117.3824758400578
 21
135.0052316469005
 31
0.0
1001
PHOENIX7010
1002
{
1070
    41
1040
1.5
1002
}
  0
LINE
  5
BED
330
18
100
AcDbEntity
  8
0
  6
Continuous
 62
     7
100
AcDbLine
 10
124.0491425067246
 20
135.0052316469005
 30
0.0
 11
124.0491425067246
 21
137.6718983135672
 31
0.0
1001
PHOENIX7010
1002
{
1070
    41
1040
1.5
1002
}
  0
LINE
  5
BEE
330
18
100
AcDbEntity
  8
0
  6
Continuous
 62
     7
100
AcDbLine
 10
124.0491425067246
 20
137.6718983135672
 30
0.0
 11
127.3824758400578
 21
137.6718983135672
 31
0.0
1001
PHOENIX7010
1002
{
1070
    41
1040
1.5
1002
}
  0
LINE
  5
BEF
330
18
100
AcDbEntity
  8
0
  6
Continuous
 62
     7
100
AcDbLine
 10
127.3824758400578
 20
137.6718983135672
 30
0.0
 11
127.3824758400578
 21
135.0052316469005
 31
0.0
1001
PHOENIX7010
1002
{
1070
    41
1040
1.5
1002
}
  0
LINE
  5
BF0
330
18
100
AcDbEntity
  8
0
  6
Continuous
 62
     7
100
AcDbLine
 10
134.0491425067246
 20
135.0052316469005
 30
0.0
 11
134.0491425067246
 21
137.6718983135672
 31
0.0
1001
PHOENIX7010
1002
{
1070
    41
1040
1.5
1002
}
  0
LINE
  5
BF1
330
18
100
AcDbEntity
  8
0
  6
Continuous
 62
     7
100
AcDbLine
 10
134.0491425067246
 20
137.6718983135672
 30
0.0
 11
137.3824758400578
 21
137.6718983135672
 31
0.0
1001
PHOENIX7010
1002
{
1070
    41
1040
1.5
1002
}
  0
LINE
  5
BF2
330
18
100
AcDbEntity
  8
0
  6
Continuous
 62
     7
100
AcDbLine
 10
137.3824758400578
 20
137.6718983135672
 30
0.0
 11
137.3824758400578
 21
135.0052316469005
 31
0.0
1001
PHOENIX7010
1002
{
1070
    41
1040
1.5
1002
}
  0
LINE
  5
BF3
330
18
100
AcDbEntity
  8
0
  6
Continuous
 62
     7
100
AcDbLine
 10
144.0491425067246
 20
135.0052316469005
 30
0.0
 11
144.0491425067246
 21
137.6718983135672
 31
0.0
1001
PHOENIX7010
1002
{
1070
    41
1040
1.5
1002
}
  0
LINE
  5
BF4
330
18
100
AcDbEntity
  8
0
  6
Continuous
 62
     7
100
AcDbLine
 10
144.0491425067246
 20
137.6718983135672
 30
0.0
 11
147.3824758400578
 21
137.6718983135672
 31
0.0
1001
PHOENIX7010
1002
{
1070
    41
1040
1.5
1002
}
  0
LINE
  5
BF5
330
18
100
AcDbEntity
  8
0
  6
Continuous
 62
     7
100
AcDbLine
 10
147.3824758400578
 20
137.6718983135672
 30
0.0
 11
147.3824758400578
 21
135.0052316469005
 31
0.0
1001
PHOENIX7010
1002
{
1070
    41
1040
1.5
1002
}
  0
LINE
  5
BF6
330
18
100
AcDbEntity
  8
0
  6
Continuous
 62
     7
100
AcDbLine
 10
154.0491425067246
 20
135.0052316469005
 30
0.0
 11
154.0491425067246
 21
137.6718983135672
 31
0.0
1001
PHOENIX7010
1002
{
1070
    41
1040
1.5
1002
}
  0
LINE
  5
BF7
330
18
100
AcDbEntity
  8
0
  6
Continuous
 62
     7
100
AcDbLine
 10
154.0491425067246
 20
137.6718983135672
 30
0.0
 11
157.3824758400578
 21
137.6718983135672
 31
0.0
1001
PHOENIX7010
1002
{
1070
    41
1040
1.5
1002
}
  0
LINE
  5
BF8
330
18
100
AcDbEntity
  8
0
  6
Continuous
 62
     7
100
AcDbLine
 10
157.3824758400578
 20
137.6718983135672
 30
0.0
 11
157.3824758400578
 21
135.0052316469005
 31
0.0
1001
PHOENIX7010
1002
{
1070
    41
1040
1.5
1002
}
  0
LINE
  5
BF9
330
18
100
AcDbEntity
  8
0
  6
Continuous
 62
     7
100
AcDbLine
 10
164.0491425067246
 20
135.0052316469005
 30
0.0
 11
164.0491425067246
 21
137.6718983135672
 31
0.0
1001
PHOENIX7010
1002
{
1070
    41
1040
1.5
1002
}
  0
LINE
  5
BFA
330
18
100
AcDbEntity
  8
0
  6
Continuous
 62
     7
100
AcDbLine
 10
164.0491425067246
 20
137.6718983135672
 30
0.0
 11
167.3824758400578
 21
137.6718983135672
 31
0.0
1001
PHOENIX7010
1002
{
1070
    41
1040
1.5
1002
}
  0
LINE
  5
BFB
330
18
100
AcDbEntity
  8
0
  6
Continuous
 62
     7
100
AcDbLine
 10
167.3824758400578
 20
137.6718983135672
 30
0.0
 11
167.3824758400578
 21
135.0052316469005
 31
0.0
1001
PHOENIX7010
1002
{
1070
    41
1040
1.5
1002
}
  0
LINE
  5
BFC
330
18
100
AcDbEntity
  8
0
  6
Continuous
 62
     7
100
AcDbLine
 10
174.0491425067246
 20
135.0052316469005
 30
0.0
 11
174.0491425067246
 21
137.6718983135672
 31
0.0
1001
PHOENIX7010
1002
{
1070
    41
1040
1.5
1002
}
  0
LINE
  5
BFD
330
18
100
AcDbEntity
  8
0
  6
Continuous
 62
     7
100
AcDbLine
 10
174.0491425067246
 20
137.6718983135672
 30
0.0
 11
177.3824758400578
 21
137.6718983135672
 31
0.0
1001
PHOENIX7010
1002
{
1070
    41
1040
1.5
1002
}
  0
LINE
  5
BFE
330
18
100
AcDbEntity
  8
0
  6
Continuous
 62
     7
100
AcDbLine
 10
177.3824758400578
 20
137.6718983135672
 30
0.0
 11
177.3824758400578
 21
135.0052316469005
 31
0.0
1001
PHOENIX7010
1002
{
1070
    41
1040
1.5
1002
}
  0
LINE
  5
BFF
330
18
100
AcDbEntity
  8
0
  6
Continuous
 62
     7
100
AcDbLine
 10
184.0491425067246
 20
135.0052316469005
 30
0.0
 11
184.0491425067246
 21
137.6718983135672
 31
0.0
1001
PHOENIX7010
1002
{
1070
    41
1040
1.5
1002
}
  0
LINE
  5
C00
330
18
100
AcDbEntity
  8
0
  6
Continuous
 62
     7
100
AcDbLine
 10
184.0491425067246
 20
137.6718983135672
 30
0.0
 11
187.3824758400578
 21
137.6718983135672
 31
0.0
1001
PHOENIX7010
1002
{
1070
    41
1040
1.5
1002
}
  0
LINE
  5
C01
330
18
100
AcDbEntity
  8
0
  6
Continuous
 62
     7
100
AcDbLine
 10
187.3824758400578
 20
137.6718983135672
 30
0.0
 11
187.3824758400578
 21
135.0052316469005
 31
0.0
1001
PHOENIX7010
1002
{
1070
    41
1040
1.5
1002
}
  0
LINE
  5
C02
330
18
100
AcDbEntity
  8
0
  6
Continuous
 62
     7
100
AcDbLine
 10
194.0491425067246
 20
135.0052316469005
 30
0.0
 11
194.0491425067246
 21
137.6718983135672
 31
0.0
1001
PHOENIX7010
1002
{
1070
    41
1040
1.5
1002
}
  0
LINE
  5
C03
330
18
100
AcDbEntity
  8
0
  6
Continuous
 62
     7
100
AcDbLine
 10
194.0491425067246
 20
137.6718983135672
 30
0.0
 11
197.3824758400578
 21
137.6718983135672
 31
0.0
1001
PHOENIX7010
1002
{
1070
    41
1040
1.5
1002
}
  0
LINE
  5
C04
330
18
100
AcDbEntity
  8
0
  6
Continuous
 62
     7
100
AcDbLine
 10
197.3824758400578
 20
137.6718983135672
 30
0.0
 11
197.3824758400578
 21
135.0052316469005
 31
0.0
1001
PHOENIX7010
1002
{
1070
    41
1040
1.5
1002
}
  0
LINE
  5
C05
330
18
100
AcDbEntity
  8
0
  6
Continuous
 62
     7
100
AcDbLine
 10
204.0491425067246
 20
135.0052316469005
 30
0.0
 11
204.0491425067246
 21
137.6718983135672
 31
0.0
1001
PHOENIX7010
1002
{
1070
    41
1040
1.5
1002
}
  0
LINE
  5
C06
330
18
100
AcDbEntity
  8
0
  6
Continuous
 62
     7
100
AcDbLine
 10
204.0491425067246
 20
137.6718983135672
 30
0.0
 11
207.3824758400578
 21
137.6718983135672
 31
0.0
1001
PHOENIX7010
1002
{
1070
    41
1040
1.5
1002
}
  0
LINE
  5
C07
330
18
100
AcDbEntity
  8
0
  6
Continuous
 62
     7
100
AcDbLine
 10
207.3824758400578
 20
137.6718983135672
 30
0.0
 11
207.3824758400578
 21
135.0052316469005
 31
0.0
1001
PHOENIX7010
1002
{
1070
    41
1040
1.5
1002
}
  0
LINE
  5
C08
330
18
100
AcDbEntity
  8
0
  6
Continuous
 62
     7
100
AcDbLine
 10
214.0491425067246
 20
135.0052316469005
 30
0.0
 11
214.0491425067246
 21
137.6718983135672
 31
0.0
1001
PHOENIX7010
1002
{
1070
    41
1040
1.5
1002
}
  0
LINE
  5
C09
330
18
100
AcDbEntity
  8
0
  6
Continuous
 62
     7
100
AcDbLine
 10
214.0491425067246
 20
137.6718983135672
 30
0.0
 11
217.3824758400578
 21
137.6718983135672
 31
0.0
1001
PHOENIX7010
1002
{
1070
    41
1040
1.5
1002
}
  0
LINE
  5
C0A
330
18
100
AcDbEntity
  8
0
  6
Continuous
 62
     7
100
AcDbLine
 10
217.3824758400578
 20
137.6718983135672
 30
0.0
 11
217.3824758400578
 21
135.0052316469005
 31
0.0
1001
PHOENIX7010
1002
{
1070
    41
1040
1.5
1002
}
  0
LINE
  5
C0B
330
18
100
AcDbEntity
  8
0
  6
Continuous
 62
     7
100
AcDbLine
 10
224.0491425067246
 20
135.0052316469005
 30
0.0
 11
224.0491425067246
 21
137.6718983135672
 31
0.0
1001
PHOENIX7010
1002
{
1070
    41
1040
1.5
1002
}
  0
LINE
  5
C0C
330
18
100
AcDbEntity
  8
0
  6
Continuous
 62
     7
100
AcDbLine
 10
224.0491425067246
 20
137.6718983135672
 30
0.0
 11
227.3824758400579
 21
137.6718983135672
 31
0.0
1001
PHOENIX7010
1002
{
1070
    41
1040
1.5
1002
}
  0
LINE
  5
C0D
330
18
100
AcDbEntity
  8
0
  6
Continuous
 62
     7
100
AcDbLine
 10
227.3824758400579
 20
137.6718983135672
 30
0.0
 11
227.3824758400579
 21
135.0052316469005
 31
0.0
1001
PHOENIX7010
1002
{
1070
    41
1040
1.5
1002
}
  0
LINE
  5
C0E
330
18
100
AcDbEntity
  8
0
  6
Continuous
 62
     7
100
AcDbLine
 10
234.0491425067246
 20
135.0052316469005
 30
0.0
 11
234.0491425067246
 21
137.6718983135672
 31
0.0
1001
PHOENIX7010
1002
{
1070
    41
1040
1.5
1002
}
  0
LINE
  5
C0F
330
18
100
AcDbEntity
  8
0
  6
Continuous
 62
     7
100
AcDbLine
 10
234.0491425067246
 20
137.6718983135672
 30
0.0
 11
237.3824758400579
 21
137.6718983135672
 31
0.0
1001
PHOENIX7010
1002
{
1070
    41
1040
1.5
1002
}
  0
LINE
  5
C10
330
18
100
AcDbEntity
  8
0
  6
Continuous
 62
     7
100
AcDbLine
 10
237.3824758400579
 20
137.6718983135672
 30
0.0
 11
237.3824758400579
 21
135.0052316469005
 31
0.0
1001
PHOENIX7010
1002
{
1070
    41
1040
1.5
1002
}
  0
LINE
  5
C11
330
18
100
AcDbEntity
  8
0
  6
Continuous
 62
     7
100
AcDbLine
 10
244.0490611265162
 20
135.0052316469005
 30
0.0
 11
244.0490611265162
 21
137.6718983135672
 31
0.0
1001
PHOENIX7010
1002
{
1070
    41
1040
1.5
1002
}
  0
LINE
  5
C12
330
18
100
AcDbEntity
  8
0
  6
Continuous
 62
     7
100
AcDbLine
 10
244.0490611265162
 20
137.6718983135672
 30
0.0
 11
247.3823944598496
 21
137.6718983135672
 31
0.0
1001
PHOENIX7010
1002
{
1070
    41
1040
1.5
1002
}
  0
LINE
  5
C13
330
18
100
AcDbEntity
  8
0
  6
Continuous
 62
     7
100
AcDbLine
 10
247.3823944598496
 20
137.6718983135672
 30
0.0
 11
247.3823944598496
 21
135.0052316469005
 31
0.0
1001
PHOENIX7010
1002
{
1070
    41
1040
1.5
1002
}
  0
LINE
  5
C14
330
18
100
AcDbEntity
  8
0
  6
Continuous
 62
     7
100
AcDbLine
 10
254.0490611265162
 20
135.0052316469005
 30
0.0
 11
254.0490611265162
 21
137.6718983135672
 31
0.0
1001
PHOENIX7010
1002
{
1070
    41
1040
1.5
1002
}
  0
LINE
  5
C15
330
18
100
AcDbEntity
  8
0
  6
Continuous
 62
     7
100
AcDbLine
 10
254.0490611265162
 20
137.6718983135672
 30
0.0
 11
257.3823944598496
 21
137.6718983135672
 31
0.0
1001
PHOENIX7010
1002
{
1070
    41
1040
1.5
1002
}
  0
LINE
  5
C16
330
18
100
AcDbEntity
  8
0
  6
Continuous
 62
     7
100
AcDbLine
 10
257.3823944598496
 20
137.6718983135672
 30
0.0
 11
257.3823944598496
 21
135.0052316469005
 31
0.0
1001
PHOENIX7010
1002
{
1070
    41
1040
1.5
1002
}
  0
LINE
  5
C17
330
18
100
AcDbEntity
  8
0
  6
Continuous
 62
     7
100
AcDbLine
 10
108.7158091733912
 20
131.4519276104422
 30
0.0
 11
112.7158091733912
 21
131.4519276104422
 31
0.0
1001
PHOENIX7010
1002
{
1070
    41
1040
1.5
1002
}
  0
LINE
  5
C18
330
18
100
AcDbEntity
  8
0
  6
Continuous
 62
     7
100
AcDbLine
 10
112.7158091733912
 20
131.4519276104422
 30
0.0
 11
112.7158091733912
 21
127.4519276104422
 31
0.0
1001
PHOENIX7010
1002
{
1070
    41
1040
1.5
1002
}
  0
LINE
  5
C19
330
18
100
AcDbEntity
  8
0
  6
Continuous
 62
     7
100
AcDbLine
 10
112.7158091733912
 20
127.4519276104422
 30
0.0
 11
108.7158091733912
 21
127.4519276104422
 31
0.0
1001
PHOENIX7010
1002
{
1070
    41
1040
1.5
1002
}
  0
LINE
  5
C1A
330
18
100
AcDbEntity
  8
0
  6
Continuous
 62
     7
100
AcDbLine
 10
108.7158091733912
 20
127.4519276104422
 30
0.0
 11
108.7158091733912
 21
131.4519276104422
 31
0.0
1001
PHOENIX7010
1002
{
1070
    41
1040
1.5
1002
}
  0
LINE
  5
C1B
330
18
100
AcDbEntity
  8
0
  6
Continuous
 62
     7
100
AcDbLine
 10
128.7158091733912
 20
131.4519276104422
 30
0.0
 11
132.7158091733912
 21
131.4519276104422
 31
0.0
1001
PHOENIX7010
1002
{
1070
    41
1040
1.5
1002
}
  0
LINE
  5
C1C
330
18
100
AcDbEntity
  8
0
  6
Continuous
 62
     7
100
AcDbLine
 10
132.7158091733912
 20
131.4519276104422
 30
0.0
 11
132.7158091733912
 21
127.4519276104422
 31
0.0
1001
PHOENIX7010
1002
{
1070
    41
1040
1.5
1002
}
  0
LINE
  5
C1D
330
18
100
AcDbEntity
  8
0
  6
Continuous
 62
     7
100
AcDbLine
 10
132.7158091733912
 20
127.4519276104422
 30
0.0
 11
128.7158091733912
 21
127.4519276104422
 31
0.0
1001
PHOENIX7010
1002
{
1070
    41
1040
1.5
1002
}
  0
LINE
  5
C1E
330
18
100
AcDbEntity
  8
0
  6
Continuous
 62
     7
100
AcDbLine
 10
128.7158091733912
 20
127.4519276104422
 30
0.0
 11
128.7158091733912
 21
131.4519276104422
 31
0.0
1001
PHOENIX7010
1002
{
1070
    41
1040
1.5
1002
}
  0
LINE
  5
C1F
330
18
100
AcDbEntity
  8
0
  6
Continuous
 62
     7
100
AcDbLine
 10
148.7158091733912
 20
131.4519276104422
 30
0.0
 11
152.7158091733912
 21
131.4519276104422
 31
0.0
1001
PHOENIX7010
1002
{
1070
    41
1040
1.5
1002
}
  0
LINE
  5
C20
330
18
100
AcDbEntity
  8
0
  6
Continuous
 62
     7
100
AcDbLine
 10
152.7158091733912
 20
131.4519276104422
 30
0.0
 11
152.7158091733912
 21
127.4519276104422
 31
0.0
1001
PHOENIX7010
1002
{
1070
    41
1040
1.5
1002
}
  0
LINE
  5
C21
330
18
100
AcDbEntity
  8
0
  6
Continuous
 62
     7
100
AcDbLine
 10
152.7158091733912
 20
127.4519276104422
 30
0.0
 11
148.7158091733912
 21
127.4519276104422
 31
0.0
1001
PHOENIX7010
1002
{
1070
    41
1040
1.5
1002
}
  0
LINE
  5
C22
330
18
100
AcDbEntity
  8
0
  6
Continuous
 62
     7
100
AcDbLine
 10
148.7158091733912
 20
127.4519276104422
 30
0.0
 11
148.7158091733912
 21
131.4519276104422
 31
0.0
1001
PHOENIX7010
1002
{
1070
    41
1040
1.5
1002
}
  0
LINE
  5
C23
330
18
100
AcDbEntity
  8
0
  6
Continuous
 62
     7
100
AcDbLine
 10
168.7158091733912
 20
131.4519276104422
 30
0.0
 11
172.7158091733912
 21
131.4519276104422
 31
0.0
1001
PHOENIX7010
1002
{
1070
    41
1040
1.5
1002
}
  0
LINE
  5
C24
330
18
100
AcDbEntity
  8
0
  6
Continuous
 62
     7
100
AcDbLine
 10
172.7158091733912
 20
131.4519276104422
 30
0.0
 11
172.7158091733912
 21
127.4519276104422
 31
0.0
1001
PHOENIX7010
1002
{
1070
    41
1040
1.5
1002
}
  0
LINE
  5
C25
330
18
100
AcDbEntity
  8
0
  6
Continuous
 62
     7
100
AcDbLine
 10
172.7158091733912
 20
127.4519276104422
 30
0.0
 11
168.7158091733912
 21
127.4519276104422
 31
0.0
1001
PHOENIX7010
1002
{
1070
    41
1040
1.5
1002
}
  0
LINE
  5
C26
330
18
100
AcDbEntity
  8
0
  6
Continuous
 62
     7
100
AcDbLine
 10
168.7158091733912
 20
127.4519276104422
 30
0.0
 11
168.7158091733912
 21
131.4519276104422
 31
0.0
1001
PHOENIX7010
1002
{
1070
    41
1040
1.5
1002
}
  0
LINE
  5
C27
330
18
100
AcDbEntity
  8
0
  6
Continuous
 62
     7
100
AcDbLine
 10
188.7158091733912
 20
131.4519276104422
 30
0.0
 11
192.7158091733912
 21
131.4519276104422
 31
0.0
1001
PHOENIX7010
1002
{
1070
    41
1040
1.5
1002
}
  0
LINE
  5
C28
330
18
100
AcDbEntity
  8
0
  6
Continuous
 62
     7
100
AcDbLine
 10
192.7158091733912
 20
131.4519276104422
 30
0.0
 11
192.7158091733912
 21
127.4519276104422
 31
0.0
1001
PHOENIX7010
1002
{
1070
    41
1040
1.5
1002
}
  0
LINE
  5
C29
330
18
100
AcDbEntity
  8
0
  6
Continuous
 62
     7
100
AcDbLine
 10
192.7158091733912
 20
127.4519276104422
 30
0.0
 11
188.7158091733912
 21
127.4519276104422
 31
0.0
1001
PHOENIX7010
1002
{
1070
    41
1040
1.5
1002
}
  0
LINE
  5
C2A
330
18
100
AcDbEntity
  8
0
  6
Continuous
 62
     7
100
AcDbLine
 10
188.7158091733912
 20
127.4519276104422
 30
0.0
 11
188.7158091733912
 21
131.4519276104422
 31
0.0
1001
PHOENIX7010
1002
{
1070
    41
1040
1.5
1002
}
  0
LINE
  5
C2B
330
18
100
AcDbEntity
  8
0
  6
Continuous
 62
     7
100
AcDbLine
 10
208.7158091733912
 20
131.4519276104422
 30
0.0
 11
212.7158091733912
 21
131.4519276104422
 31
0.0
1001
PHOENIX7010
1002
{
1070
    41
1040
1.5
1002
}
  0
LINE
  5
C2C
330
18
100
AcDbEntity
  8
0
  6
Continuous
 62
     7
100
AcDbLine
 10
212.7158091733912
 20
131.4519276104422
 30
0.0
 11
212.7158091733912
 21
127.4519276104422
 31
0.0
1001
PHOENIX7010
1002
{
1070
    41
1040
1.5
1002
}
  0
LINE
  5
C2D
330
18
100
AcDbEntity
  8
0
  6
Continuous
 62
     7
100
AcDbLine
 10
212.7158091733912
 20
127.4519276104422
 30
0.0
 11
208.7158091733912
 21
127.4519276104422
 31
0.0
1001
PHOENIX7010
1002
{
1070
    41
1040
1.5
1002
}
  0
LINE
  5
C2E
330
18
100
AcDbEntity
  8
0
  6
Continuous
 62
     7
100
AcDbLine
 10
208.7158091733912
 20
127.4519276104422
 30
0.0
 11
208.7158091733912
 21
131.4519276104422
 31
0.0
1001
PHOENIX7010
1002
{
1070
    41
1040
1.5
1002
}
  0
LINE
  5
C2F
330
18
100
AcDbEntity
  8
0
  6
Continuous
 62
     7
100
AcDbLine
 10
228.7158091733912
 20
131.4519276104422
 30
0.0
 11
232.7158091733912
 21
131.4519276104422
 31
0.0
1001
PHOENIX7010
1002
{
1070
    41
1040
1.5
1002
}
  0
LINE
  5
C30
330
18
100
AcDbEntity
  8
0
  6
Continuous
 62
     7
100
AcDbLine
 10
232.7158091733912
 20
131.4519276104422
 30
0.0
 11
232.7158091733912
 21
127.4519276104422
 31
0.0
1001
PHOENIX7010
1002
{
1070
    41
1040
1.5
1002
}
  0
LINE
  5
C31
330
18
100
AcDbEntity
  8
0
  6
Continuous
 62
     7
100
AcDbLine
 10
232.7158091733912
 20
127.4519276104422
 30
0.0
 11
228.7158091733912
 21
127.4519276104422
 31
0.0
1001
PHOENIX7010
1002
{
1070
    41
1040
1.5
1002
}
  0
LINE
  5
C32
330
18
100
AcDbEntity
  8
0
  6
Continuous
 62
     7
100
AcDbLine
 10
228.7158091733912
 20
127.4519276104422
 30
0.0
 11
228.7158091733912
 21
131.4519276104422
 31
0.0
1001
PHOENIX7010
1002
{
1070
    41
1040
1.5
1002
}
  0
LINE
  5
C33
330
18
100
AcDbEntity
  8
0
  6
Continuous
 62
     7
100
AcDbLine
 10
248.7157277931828
 20
131.4519276104422
 30
0.0
 11
252.7157277931828
 21
131.4519276104422
 31
0.0
1001
PHOENIX7010
1002
{
1070
    41
1040
1.5
1002
}
  0
LINE
  5
C34
330
18
100
AcDbEntity
  8
0
  6
Continuous
 62
     7
100
AcDbLine
 10
252.7157277931828
 20
131.4519276104422
 30
0.0
 11
252.7157277931828
 21
127.4519276104422
 31
0.0
1001
PHOENIX7010
1002
{
1070
    41
1040
1.5
1002
}
  0
LINE
  5
C35
330
18
100
AcDbEntity
  8
0
  6
Continuous
 62
     7
100
AcDbLine
 10
252.7157277931828
 20
127.4519276104422
 30
0.0
 11
248.7157277931828
 21
127.4519276104422
 31
0.0
1001
PHOENIX7010
1002
{
1070
    41
1040
1.5
1002
}
  0
LINE
  5
C36
330
18
100
AcDbEntity
  8
0
  6
Continuous
 62
     7
100
AcDbLine
 10
248.7157277931828
 20
127.4519276104422
 30
0.0
 11
248.7157277931828
 21
131.4519276104422
 31
0.0
1001
PHOENIX7010
1002
{
1070
    41
1040
1.5
1002
}
  0
CIRCLE
  5
C37
102
{ACAD_REACTORS
330
A1F
102
}
330
18
100
AcDbEntity
  8
0
  6
Continuous
 62
     7
100
AcDbCircle
 10
110.7158905535996
 20
148.2719349346609
 30
0.0
 40
1.533333301544189
1001
PHOENIX7010
1002
{
1070
    41
1040
1.5
1002
}
  0
CIRCLE
  5
C38
102
{ACAD_REACTORS
330
A1F
102
}
330
18
100
AcDbEntity
  8
0
  6
Continuous
 62
     7
100
AcDbCircle
 10
120.7158905535996
 20
148.2719349346609
 30
0.0
 40
1.533333301544189
1001
PHOENIX7010
1002
{
1070
    41
1040
1.5
1002
}
  0
CIRCLE
  5
C39
102
{ACAD_REACTORS
330
A1F
102
}
330
18
100
AcDbEntity
  8
0
  6
Continuous
 62
     7
100
AcDbCircle
 10
130.7158905535996
 20
148.2719349346609
 30
0.0
 40
1.533333301544189
1001
PHOENIX7010
1002
{
1070
    41
1040
1.5
1002
}
  0
CIRCLE
  5
C3A
102
{ACAD_REACTORS
330
A1F
102
}
330
18
100
AcDbEntity
  8
0
  6
Continuous
 62
     7
100
AcDbCircle
 10
140.7158905535996
 20
148.2719349346609
 30
0.0
 40
1.533333301544189
1001
PHOENIX7010
1002
{
1070
    41
1040
1.5
1002
}
  0
CIRCLE
  5
C3B
102
{ACAD_REACTORS
330
A1F
102
}
330
18
100
AcDbEntity
  8
0
  6
Continuous
 62
     7
100
AcDbCircle
 10
150.7158905535996
 20
148.2719349346609
 30
0.0
 40
1.533333301544189
1001
PHOENIX7010
1002
{
1070
    41
1040
1.5
1002
}
  0
CIRCLE
  5
C3C
102
{ACAD_REACTORS
330
A1F
102
}
330
18
100
AcDbEntity
  8
0
  6
Continuous
 62
     7
100
AcDbCircle
 10
160.7158905535996
 20
148.2719349346609
 30
0.0
 40
1.533333301544189
1001
PHOENIX7010
1002
{
1070
    41
1040
1.5
1002
}
  0
CIRCLE
  5
C3D
102
{ACAD_REACTORS
330
A1F
102
}
330
18
100
AcDbEntity
  8
0
  6
Continuous
 62
     7
100
AcDbCircle
 10
170.7158905535996
 20
148.2719349346609
 30
0.0
 40
1.533333301544189
1001
PHOENIX7010
1002
{
1070
    41
1040
1.5
1002
}
  0
CIRCLE
  5
C3E
102
{ACAD_REACTORS
330
A1F
102
}
330
18
100
AcDbEntity
  8
0
  6
Continuous
 62
     7
100
AcDbCircle
 10
180.7158905535996
 20
148.2719349346609
 30
0.0
 40
1.533333301544189
1001
PHOENIX7010
1002
{
1070
    41
1040
1.5
1002
}
  0
CIRCLE
  5
C3F
102
{ACAD_REACTORS
330
A1F
102
}
330
18
100
AcDbEntity
  8
0
  6
Continuous
 62
     7
100
AcDbCircle
 10
190.7158905535996
 20
148.2719349346609
 30
0.0
 40
1.533333301544189
1001
PHOENIX7010
1002
{
1070
    41
1040
1.5
1002
}
  0
CIRCLE
  5
C40
102
{ACAD_REACTORS
330
A1F
102
}
330
18
100
AcDbEntity
  8
0
  6
Continuous
 62
     7
100
AcDbCircle
 10
200.7158905535996
 20
148.2719349346609
 30
0.0
 40
1.533333301544189
1001
PHOENIX7010
1002
{
1070
    41
1040
1.5
1002
}
  0
CIRCLE
  5
C41
102
{ACAD_REACTORS
330
A1F
102
}
330
18
100
AcDbEntity
  8
0
  6
Continuous
 62
     7
100
AcDbCircle
 10
210.7158905535996
 20
148.2719349346609
 30
0.0
 40
1.533333301544189
1001
PHOENIX7010
1002
{
1070
    41
1040
1.5
1002
}
  0
CIRCLE
  5
C42
102
{ACAD_REACTORS
330
A1F
102
}
330
18
100
AcDbEntity
  8
0
  6
Continuous
 62
     7
100
AcDbCircle
 10
220.7158905535996
 20
148.2719349346609
 30
0.0
 40
1.533333301544189
1001
PHOENIX7010
1002
{
1070
    41
1040
1.5
1002
}
  0
CIRCLE
  5
C43
102
{ACAD_REACTORS
330
A1F
102
}
330
18
100
AcDbEntity
  8
0
  6
Continuous
 62
     7
100
AcDbCircle
 10
230.7158905535996
 20
148.2719349346609
 30
0.0
 40
1.533333301544189
1001
PHOENIX7010
1002
{
1070
    41
1040
1.5
1002
}
  0
CIRCLE
  5
C44
102
{ACAD_REACTORS
330
A1F
102
}
330
18
100
AcDbEntity
  8
0
  6
Continuous
 62
     7
100
AcDbCircle
 10
240.7158905535996
 20
148.2719349346609
 30
0.0
 40
1.533333301544189
1001
PHOENIX7010
1002
{
1070
    41
1040
1.5
1002
}
  0
CIRCLE
  5
C45
102
{ACAD_REACTORS
330
A1F
102
}
330
18
100
AcDbEntity
  8
0
  6
Continuous
 62
     7
100
AcDbCircle
 10
250.7158091733912
 20
148.2719349346609
 30
0.0
 40
1.533333301544189
1001
PHOENIX7010
1002
{
1070
    41
1040
1.5
1002
}
  0
LINE
  5
C46
330
18
100
AcDbEntity
  8
0
  6
Continuous
 62
     7
100
AcDbLine
 10
104.0492238869328
 20
153.6052682679943
 30
0.0
 11
104.0492238869328
 21
150.9386016013276
 31
0.0
1001
PHOENIX7010
1002
{
1070
    41
1040
1.5
1002
}
  0
LINE
  5
C47
330
18
100
AcDbEntity
  8
0
  6
Continuous
 62
     7
100
AcDbLine
 10
104.0492238869328
 20
150.9386016013276
 30
0.0
 11
107.3825572202662
 21
150.9386016013276
 31
0.0
1001
PHOENIX7010
1002
{
1070
    41
1040
1.5
1002
}
  0
LINE
  5
C48
330
18
100
AcDbEntity
  8
0
  6
Continuous
 62
     7
100
AcDbLine
 10
107.3825572202662
 20
150.9386016013276
 30
0.0
 11
107.3825572202662
 21
153.6052682679943
 31
0.0
1001
PHOENIX7010
1002
{
1070
    41
1040
1.5
1002
}
  0
LINE
  5
C49
330
18
100
AcDbEntity
  8
0
  6
Continuous
 62
     7
100
AcDbLine
 10
114.0492238869328
 20
153.6052682679943
 30
0.0
 11
114.0492238869328
 21
150.9386016013276
 31
0.0
1001
PHOENIX7010
1002
{
1070
    41
1040
1.5
1002
}
  0
LINE
  5
C4A
330
18
100
AcDbEntity
  8
0
  6
Continuous
 62
     7
100
AcDbLine
 10
114.0492238869328
 20
150.9386016013276
 30
0.0
 11
117.3825572202662
 21
150.9386016013276
 31
0.0
1001
PHOENIX7010
1002
{
1070
    41
1040
1.5
1002
}
  0
LINE
  5
C4B
330
18
100
AcDbEntity
  8
0
  6
Continuous
 62
     7
100
AcDbLine
 10
117.3825572202662
 20
150.9386016013276
 30
0.0
 11
117.3825572202662
 21
153.6052682679943
 31
0.0
1001
PHOENIX7010
1002
{
1070
    41
1040
1.5
1002
}
  0
LINE
  5
C4C
330
18
100
AcDbEntity
  8
0
  6
Continuous
 62
     7
100
AcDbLine
 10
124.0492238869328
 20
153.6052682679943
 30
0.0
 11
124.0492238869328
 21
150.9386016013276
 31
0.0
1001
PHOENIX7010
1002
{
1070
    41
1040
1.5
1002
}
  0
LINE
  5
C4D
330
18
100
AcDbEntity
  8
0
  6
Continuous
 62
     7
100
AcDbLine
 10
124.0492238869328
 20
150.9386016013276
 30
0.0
 11
127.3825572202662
 21
150.9386016013276
 31
0.0
1001
PHOENIX7010
1002
{
1070
    41
1040
1.5
1002
}
  0
LINE
  5
C4E
330
18
100
AcDbEntity
  8
0
  6
Continuous
 62
     7
100
AcDbLine
 10
127.3825572202662
 20
150.9386016013276
 30
0.0
 11
127.3825572202662
 21
153.6052682679943
 31
0.0
1001
PHOENIX7010
1002
{
1070
    41
1040
1.5
1002
}
  0
LINE
  5
C4F
330
18
100
AcDbEntity
  8
0
  6
Continuous
 62
     7
100
AcDbLine
 10
134.0492238869328
 20
153.6052682679943
 30
0.0
 11
134.0492238869328
 21
150.9386016013276
 31
0.0
1001
PHOENIX7010
1002
{
1070
    41
1040
1.5
1002
}
  0
LINE
  5
C50
330
18
100
AcDbEntity
  8
0
  6
Continuous
 62
     7
100
AcDbLine
 10
134.0492238869328
 20
150.9386016013276
 30
0.0
 11
137.3825572202662
 21
150.9386016013276
 31
0.0
1001
PHOENIX7010
1002
{
1070
    41
1040
1.5
1002
}
  0
LINE
  5
C51
330
18
100
AcDbEntity
  8
0
  6
Continuous
 62
     7
100
AcDbLine
 10
137.3825572202662
 20
150.9386016013276
 30
0.0
 11
137.3825572202662
 21
153.6052682679943
 31
0.0
1001
PHOENIX7010
1002
{
1070
    41
1040
1.5
1002
}
  0
LINE
  5
C52
330
18
100
AcDbEntity
  8
0
  6
Continuous
 62
     7
100
AcDbLine
 10
144.0492238869328
 20
153.6052682679943
 30
0.0
 11
144.0492238869328
 21
150.9386016013276
 31
0.0
1001
PHOENIX7010
1002
{
1070
    41
1040
1.5
1002
}
  0
LINE
  5
C53
330
18
100
AcDbEntity
  8
0
  6
Continuous
 62
     7
100
AcDbLine
 10
144.0492238869328
 20
150.9386016013276
 30
0.0
 11
147.3825572202662
 21
150.9386016013276
 31
0.0
1001
PHOENIX7010
1002
{
1070
    41
1040
1.5
1002
}
  0
LINE
  5
C54
330
18
100
AcDbEntity
  8
0
  6
Continuous
 62
     7
100
AcDbLine
 10
147.3825572202662
 20
150.9386016013276
 30
0.0
 11
147.3825572202662
 21
153.6052682679943
 31
0.0
1001
PHOENIX7010
1002
{
1070
    41
1040
1.5
1002
}
  0
LINE
  5
C55
330
18
100
AcDbEntity
  8
0
  6
Continuous
 62
     7
100
AcDbLine
 10
154.0492238869328
 20
153.6052682679943
 30
0.0
 11
154.0492238869328
 21
150.9386016013276
 31
0.0
1001
PHOENIX7010
1002
{
1070
    41
1040
1.5
1002
}
  0
LINE
  5
C56
330
18
100
AcDbEntity
  8
0
  6
Continuous
 62
     7
100
AcDbLine
 10
154.0492238869328
 20
150.9386016013276
 30
0.0
 11
157.3825572202662
 21
150.9386016013276
 31
0.0
1001
PHOENIX7010
1002
{
1070
    41
1040
1.5
1002
}
  0
LINE
  5
C57
330
18
100
AcDbEntity
  8
0
  6
Continuous
 62
     7
100
AcDbLine
 10
157.3825572202662
 20
150.9386016013276
 30
0.0
 11
157.3825572202662
 21
153.6052682679943
 31
0.0
1001
PHOENIX7010
1002
{
1070
    41
1040
1.5
1002
}
  0
LINE
  5
C58
330
18
100
AcDbEntity
  8
0
  6
Continuous
 62
     7
100
AcDbLine
 10
164.0492238869328
 20
153.6052682679943
 30
0.0
 11
164.0492238869328
 21
150.9386016013276
 31
0.0
1001
PHOENIX7010
1002
{
1070
    41
1040
1.5
1002
}
  0
LINE
  5
C59
330
18
100
AcDbEntity
  8
0
  6
Continuous
 62
     7
100
AcDbLine
 10
164.0492238869328
 20
150.9386016013276
 30
0.0
 11
167.3825572202662
 21
150.9386016013276
 31
0.0
1001
PHOENIX7010
1002
{
1070
    41
1040
1.5
1002
}
  0
LINE
  5
C5A
330
18
100
AcDbEntity
  8
0
  6
Continuous
 62
     7
100
AcDbLine
 10
167.3825572202662
 20
150.9386016013276
 30
0.0
 11
167.3825572202662
 21
153.6052682679943
 31
0.0
1001
PHOENIX7010
1002
{
1070
    41
1040
1.5
1002
}
  0
LINE
  5
C5B
330
18
100
AcDbEntity
  8
0
  6
Continuous
 62
     7
100
AcDbLine
 10
174.0492238869328
 20
153.6052682679943
 30
0.0
 11
174.0492238869328
 21
150.9386016013276
 31
0.0
1001
PHOENIX7010
1002
{
1070
    41
1040
1.5
1002
}
  0
LINE
  5
C5C
330
18
100
AcDbEntity
  8
0
  6
Continuous
 62
     7
100
AcDbLine
 10
174.0492238869328
 20
150.9386016013276
 30
0.0
 11
177.3825572202662
 21
150.9386016013276
 31
0.0
1001
PHOENIX7010
1002
{
1070
    41
1040
1.5
1002
}
  0
LINE
  5
C5D
330
18
100
AcDbEntity
  8
0
  6
Continuous
 62
     7
100
AcDbLine
 10
177.3825572202662
 20
150.9386016013276
 30
0.0
 11
177.3825572202662
 21
153.6052682679943
 31
0.0
1001
PHOENIX7010
1002
{
1070
    41
1040
1.5
1002
}
  0
LINE
  5
C5E
330
18
100
AcDbEntity
  8
0
  6
Continuous
 62
     7
100
AcDbLine
 10
184.0492238869328
 20
153.6052682679943
 30
0.0
 11
184.0492238869328
 21
150.9386016013276
 31
0.0
1001
PHOENIX7010
1002
{
1070
    41
1040
1.5
1002
}
  0
LINE
  5
C5F
330
18
100
AcDbEntity
  8
0
  6
Continuous
 62
     7
100
AcDbLine
 10
184.0492238869328
 20
150.9386016013276
 30
0.0
 11
187.3825572202662
 21
150.9386016013276
 31
0.0
1001
PHOENIX7010
1002
{
1070
    41
1040
1.5
1002
}
  0
LINE
  5
C60
330
18
100
AcDbEntity
  8
0
  6
Continuous
 62
     7
100
AcDbLine
 10
187.3825572202662
 20
150.9386016013276
 30
0.0
 11
187.3825572202662
 21
153.6052682679943
 31
0.0
1001
PHOENIX7010
1002
{
1070
    41
1040
1.5
1002
}
  0
LINE
  5
C61
330
18
100
AcDbEntity
  8
0
  6
Continuous
 62
     7
100
AcDbLine
 10
194.0492238869328
 20
153.6052682679943
 30
0.0
 11
194.0492238869328
 21
150.9386016013276
 31
0.0
1001
PHOENIX7010
1002
{
1070
    41
1040
1.5
1002
}
  0
LINE
  5
C62
330
18
100
AcDbEntity
  8
0
  6
Continuous
 62
     7
100
AcDbLine
 10
194.0492238869328
 20
150.9386016013276
 30
0.0
 11
197.3825572202662
 21
150.9386016013276
 31
0.0
1001
PHOENIX7010
1002
{
1070
    41
1040
1.5
1002
}
  0
LINE
  5
C63
330
18
100
AcDbEntity
  8
0
  6
Continuous
 62
     7
100
AcDbLine
 10
197.3825572202662
 20
150.9386016013276
 30
0.0
 11
197.3825572202662
 21
153.6052682679943
 31
0.0
1001
PHOENIX7010
1002
{
1070
    41
1040
1.5
1002
}
  0
LINE
  5
C64
330
18
100
AcDbEntity
  8
0
  6
Continuous
 62
     7
100
AcDbLine
 10
204.0492238869329
 20
153.6052682679943
 30
0.0
 11
204.0492238869329
 21
150.9386016013276
 31
0.0
1001
PHOENIX7010
1002
{
1070
    41
1040
1.5
1002
}
  0
LINE
  5
C65
330
18
100
AcDbEntity
  8
0
  6
Continuous
 62
     7
100
AcDbLine
 10
204.0492238869329
 20
150.9386016013276
 30
0.0
 11
207.3825572202662
 21
150.9386016013276
 31
0.0
1001
PHOENIX7010
1002
{
1070
    41
1040
1.5
1002
}
  0
LINE
  5
C66
330
18
100
AcDbEntity
  8
0
  6
Continuous
 62
     7
100
AcDbLine
 10
207.3825572202662
 20
150.9386016013276
 30
0.0
 11
207.3825572202662
 21
153.6052682679943
 31
0.0
1001
PHOENIX7010
1002
{
1070
    41
1040
1.5
1002
}
  0
LINE
  5
C67
330
18
100
AcDbEntity
  8
0
  6
Continuous
 62
     7
100
AcDbLine
 10
214.0492238869328
 20
153.6052682679943
 30
0.0
 11
214.0492238869328
 21
150.9386016013276
 31
0.0
1001
PHOENIX7010
1002
{
1070
    41
1040
1.5
1002
}
  0
LINE
  5
C68
330
18
100
AcDbEntity
  8
0
  6
Continuous
 62
     7
100
AcDbLine
 10
214.0492238869328
 20
150.9386016013276
 30
0.0
 11
217.3825572202662
 21
150.9386016013276
 31
0.0
1001
PHOENIX7010
1002
{
1070
    41
1040
1.5
1002
}
  0
LINE
  5
C69
330
18
100
AcDbEntity
  8
0
  6
Continuous
 62
     7
100
AcDbLine
 10
217.3825572202662
 20
150.9386016013276
 30
0.0
 11
217.3825572202662
 21
153.6052682679943
 31
0.0
1001
PHOENIX7010
1002
{
1070
    41
1040
1.5
1002
}
  0
LINE
  5
C6A
330
18
100
AcDbEntity
  8
0
  6
Continuous
 62
     7
100
AcDbLine
 10
224.0492238869328
 20
153.6052682679943
 30
0.0
 11
224.0492238869328
 21
150.9386016013276
 31
0.0
1001
PHOENIX7010
1002
{
1070
    41
1040
1.5
1002
}
  0
LINE
  5
C6B
330
18
100
AcDbEntity
  8
0
  6
Continuous
 62
     7
100
AcDbLine
 10
224.0492238869328
 20
150.9386016013276
 30
0.0
 11
227.3825572202662
 21
150.9386016013276
 31
0.0
1001
PHOENIX7010
1002
{
1070
    41
1040
1.5
1002
}
  0
LINE
  5
C6C
330
18
100
AcDbEntity
  8
0
  6
Continuous
 62
     7
100
AcDbLine
 10
227.3825572202662
 20
150.9386016013276
 30
0.0
 11
227.3825572202662
 21
153.6052682679943
 31
0.0
1001
PHOENIX7010
1002
{
1070
    41
1040
1.5
1002
}
  0
LINE
  5
C6D
330
18
100
AcDbEntity
  8
0
  6
Continuous
 62
     7
100
AcDbLine
 10
234.0492238869329
 20
153.6052682679943
 30
0.0
 11
234.0492238869329
 21
150.9386016013276
 31
0.0
1001
PHOENIX7010
1002
{
1070
    41
1040
1.5
1002
}
  0
LINE
  5
C6E
330
18
100
AcDbEntity
  8
0
  6
Continuous
 62
     7
100
AcDbLine
 10
234.0492238869329
 20
150.9386016013276
 30
0.0
 11
237.3825572202662
 21
150.9386016013276
 31
0.0
1001
PHOENIX7010
1002
{
1070
    41
1040
1.5
1002
}
  0
LINE
  5
C6F
330
18
100
AcDbEntity
  8
0
  6
Continuous
 62
     7
100
AcDbLine
 10
237.3825572202662
 20
150.9386016013276
 30
0.0
 11
237.3825572202662
 21
153.6052682679943
 31
0.0
1001
PHOENIX7010
1002
{
1070
    41
1040
1.5
1002
}
  0
LINE
  5
C70
330
18
100
AcDbEntity
  8
0
  6
Continuous
 62
     7
100
AcDbLine
 10
244.0491425067246
 20
153.6052682679943
 30
0.0
 11
244.0491425067246
 21
150.9386016013276
 31
0.0
1001
PHOENIX7010
1002
{
1070
    41
1040
1.5
1002
}
  0
LINE
  5
C71
330
18
100
AcDbEntity
  8
0
  6
Continuous
 62
     7
100
AcDbLine
 10
244.0491425067246
 20
150.9386016013276
 30
0.0
 11
247.3824758400578
 21
150.9386016013276
 31
0.0
1001
PHOENIX7010
1002
{
1070
    41
1040
1.5
1002
}
  0
LINE
  5
C72
330
18
100
AcDbEntity
  8
0
  6
Continuous
 62
     7
100
AcDbLine
 10
247.3824758400578
 20
150.9386016013276
 30
0.0
 11
247.3824758400578
 21
153.6052682679943
 31
0.0
1001
PHOENIX7010
1002
{
1070
    41
1040
1.5
1002
}
  0
LINE
  5
C73
330
18
100
AcDbEntity
  8
0
  6
Continuous
 62
     7
100
AcDbLine
 10
254.0491425067246
 20
153.6052682679943
 30
0.0
 11
254.0491425067246
 21
150.9386016013276
 31
0.0
1001
PHOENIX7010
1002
{
1070
    41
1040
1.5
1002
}
  0
LINE
  5
C74
330
18
100
AcDbEntity
  8
0
  6
Continuous
 62
     7
100
AcDbLine
 10
254.0491425067246
 20
150.9386016013276
 30
0.0
 11
257.3824758400578
 21
150.9386016013276
 31
0.0
1001
PHOENIX7010
1002
{
1070
    41
1040
1.5
1002
}
  0
LINE
  5
C75
330
18
100
AcDbEntity
  8
0
  6
Continuous
 62
     7
100
AcDbLine
 10
257.3824758400578
 20
150.9386016013276
 30
0.0
 11
257.3824758400578
 21
153.6052682679943
 31
0.0
1001
PHOENIX7010
1002
{
1070
    41
1040
1.5
1002
}
  0
LINE
  5
C76
330
18
100
AcDbEntity
  8
0
  6
Continuous
 62
     7
100
AcDbLine
 10
108.7158905535996
 20
157.1586129945568
 30
0.0
 11
112.7158905535996
 21
157.1586129945568
 31
0.0
1001
PHOENIX7010
1002
{
1070
    41
1040
1.5
1002
}
  0
LINE
  5
C77
330
18
100
AcDbEntity
  8
0
  6
Continuous
 62
     7
100
AcDbLine
 10
112.7158905535996
 20
157.1586129945568
 30
0.0
 11
112.7158905535996
 21
161.1586129945568
 31
0.0
1001
PHOENIX7010
1002
{
1070
    41
1040
1.5
1002
}
  0
LINE
  5
C78
330
18
100
AcDbEntity
  8
0
  6
Continuous
 62
     7
100
AcDbLine
 10
112.7158905535996
 20
161.1586129945568
 30
0.0
 11
108.7158905535996
 21
161.1586129945568
 31
0.0
1001
PHOENIX7010
1002
{
1070
    41
1040
1.5
1002
}
  0
LINE
  5
C79
330
18
100
AcDbEntity
  8
0
  6
Continuous
 62
     7
100
AcDbLine
 10
108.7158905535996
 20
161.1586129945568
 30
0.0
 11
108.7158905535996
 21
157.1586129945568
 31
0.0
1001
PHOENIX7010
1002
{
1070
    41
1040
1.5
1002
}
  0
LINE
  5
C7A
330
18
100
AcDbEntity
  8
0
  6
Continuous
 62
     7
100
AcDbLine
 10
128.7158905535996
 20
157.1586129945568
 30
0.0
 11
132.7158905535996
 21
157.1586129945568
 31
0.0
1001
PHOENIX7010
1002
{
1070
    41
1040
1.5
1002
}
  0
LINE
  5
C7B
330
18
100
AcDbEntity
  8
0
  6
Continuous
 62
     7
100
AcDbLine
 10
132.7158905535996
 20
157.1586129945568
 30
0.0
 11
132.7158905535996
 21
161.1586129945568
 31
0.0
1001
PHOENIX7010
1002
{
1070
    41
1040
1.5
1002
}
  0
LINE
  5
C7C
330
18
100
AcDbEntity
  8
0
  6
Continuous
 62
     7
100
AcDbLine
 10
132.7158905535996
 20
161.1586129945568
 30
0.0
 11
128.7158905535996
 21
161.1586129945568
 31
0.0
1001
PHOENIX7010
1002
{
1070
    41
1040
1.5
1002
}
  0
LINE
  5
C7D
330
18
100
AcDbEntity
  8
0
  6
Continuous
 62
     7
100
AcDbLine
 10
128.7158905535996
 20
161.1586129945568
 30
0.0
 11
128.7158905535996
 21
157.1586129945568
 31
0.0
1001
PHOENIX7010
1002
{
1070
    41
1040
1.5
1002
}
  0
LINE
  5
C7E
330
18
100
AcDbEntity
  8
0
  6
Continuous
 62
     7
100
AcDbLine
 10
148.7158905535996
 20
157.1586129945568
 30
0.0
 11
152.7158905535996
 21
157.1586129945568
 31
0.0
1001
PHOENIX7010
1002
{
1070
    41
1040
1.5
1002
}
  0
LINE
  5
C7F
330
18
100
AcDbEntity
  8
0
  6
Continuous
 62
     7
100
AcDbLine
 10
152.7158905535996
 20
157.1586129945568
 30
0.0
 11
152.7158905535996
 21
161.1586129945568
 31
0.0
1001
PHOENIX7010
1002
{
1070
    41
1040
1.5
1002
}
  0
LINE
  5
C80
330
18
100
AcDbEntity
  8
0
  6
Continuous
 62
     7
100
AcDbLine
 10
152.7158905535996
 20
161.1586129945568
 30
0.0
 11
148.7158905535996
 21
161.1586129945568
 31
0.0
1001
PHOENIX7010
1002
{
1070
    41
1040
1.5
1002
}
  0
LINE
  5
C81
330
18
100
AcDbEntity
  8
0
  6
Continuous
 62
     7
100
AcDbLine
 10
148.7158905535996
 20
161.1586129945568
 30
0.0
 11
148.7158905535996
 21
157.1586129945568
 31
0.0
1001
PHOENIX7010
1002
{
1070
    41
1040
1.5
1002
}
  0
LINE
  5
C82
330
18
100
AcDbEntity
  8
0
  6
Continuous
 62
     7
100
AcDbLine
 10
168.7158905535996
 20
157.1586129945568
 30
0.0
 11
172.7158905535996
 21
157.1586129945568
 31
0.0
1001
PHOENIX7010
1002
{
1070
    41
1040
1.5
1002
}
  0
LINE
  5
C83
330
18
100
AcDbEntity
  8
0
  6
Continuous
 62
     7
100
AcDbLine
 10
172.7158905535996
 20
157.1586129945568
 30
0.0
 11
172.7158905535996
 21
161.1586129945568
 31
0.0
1001
PHOENIX7010
1002
{
1070
    41
1040
1.5
1002
}
  0
LINE
  5
C84
330
18
100
AcDbEntity
  8
0
  6
Continuous
 62
     7
100
AcDbLine
 10
172.7158905535996
 20
161.1586129945568
 30
0.0
 11
168.7158905535996
 21
161.1586129945568
 31
0.0
1001
PHOENIX7010
1002
{
1070
    41
1040
1.5
1002
}
  0
LINE
  5
C85
330
18
100
AcDbEntity
  8
0
  6
Continuous
 62
     7
100
AcDbLine
 10
168.7158905535996
 20
161.1586129945568
 30
0.0
 11
168.7158905535996
 21
157.1586129945568
 31
0.0
1001
PHOENIX7010
1002
{
1070
    41
1040
1.5
1002
}
  0
LINE
  5
C86
330
18
100
AcDbEntity
  8
0
  6
Continuous
 62
     7
100
AcDbLine
 10
188.7158905535996
 20
157.1586129945568
 30
0.0
 11
192.7158905535996
 21
157.1586129945568
 31
0.0
1001
PHOENIX7010
1002
{
1070
    41
1040
1.5
1002
}
  0
LINE
  5
C87
330
18
100
AcDbEntity
  8
0
  6
Continuous
 62
     7
100
AcDbLine
 10
192.7158905535996
 20
157.1586129945568
 30
0.0
 11
192.7158905535996
 21
161.1586129945568
 31
0.0
1001
PHOENIX7010
1002
{
1070
    41
1040
1.5
1002
}
  0
LINE
  5
C88
330
18
100
AcDbEntity
  8
0
  6
Continuous
 62
     7
100
AcDbLine
 10
192.7158905535996
 20
161.1586129945568
 30
0.0
 11
188.7158905535996
 21
161.1586129945568
 31
0.0
1001
PHOENIX7010
1002
{
1070
    41
1040
1.5
1002
}
  0
LINE
  5
C89
330
18
100
AcDbEntity
  8
0
  6
Continuous
 62
     7
100
AcDbLine
 10
188.7158905535996
 20
161.1586129945568
 30
0.0
 11
188.7158905535996
 21
157.1586129945568
 31
0.0
1001
PHOENIX7010
1002
{
1070
    41
1040
1.5
1002
}
  0
LINE
  5
C8A
330
18
100
AcDbEntity
  8
0
  6
Continuous
 62
     7
100
AcDbLine
 10
208.7158905535996
 20
157.1586129945568
 30
0.0
 11
212.7158905535996
 21
157.1586129945568
 31
0.0
1001
PHOENIX7010
1002
{
1070
    41
1040
1.5
1002
}
  0
LINE
  5
C8B
330
18
100
AcDbEntity
  8
0
  6
Continuous
 62
     7
100
AcDbLine
 10
212.7158905535996
 20
157.1586129945568
 30
0.0
 11
212.7158905535996
 21
161.1586129945568
 31
0.0
1001
PHOENIX7010
1002
{
1070
    41
1040
1.5
1002
}
  0
LINE
  5
C8C
330
18
100
AcDbEntity
  8
0
  6
Continuous
 62
     7
100
AcDbLine
 10
212.7158905535996
 20
161.1586129945568
 30
0.0
 11
208.7158905535996
 21
161.1586129945568
 31
0.0
1001
PHOENIX7010
1002
{
1070
    41
1040
1.5
1002
}
  0
LINE
  5
C8D
330
18
100
AcDbEntity
  8
0
  6
Continuous
 62
     7
100
AcDbLine
 10
208.7158905535996
 20
161.1586129945568
 30
0.0
 11
208.7158905535996
 21
157.1586129945568
 31
0.0
1001
PHOENIX7010
1002
{
1070
    41
1040
1.5
1002
}
  0
LINE
  5
C8E
330
18
100
AcDbEntity
  8
0
  6
Continuous
 62
     7
100
AcDbLine
 10
228.7158905535996
 20
157.1586129945568
 30
0.0
 11
232.7158905535996
 21
157.1586129945568
 31
0.0
1001
PHOENIX7010
1002
{
1070
    41
1040
1.5
1002
}
  0
LINE
  5
C8F
330
18
100
AcDbEntity
  8
0
  6
Continuous
 62
     7
100
AcDbLine
 10
232.7158905535996
 20
157.1586129945568
 30
0.0
 11
232.7158905535996
 21
161.1586129945568
 31
0.0
1001
PHOENIX7010
1002
{
1070
    41
1040
1.5
1002
}
  0
LINE
  5
C90
330
18
100
AcDbEntity
  8
0
  6
Continuous
 62
     7
100
AcDbLine
 10
232.7158905535996
 20
161.1586129945568
 30
0.0
 11
228.7158905535996
 21
161.1586129945568
 31
0.0
1001
PHOENIX7010
1002
{
1070
    41
1040
1.5
1002
}
  0
LINE
  5
C91
330
18
100
AcDbEntity
  8
0
  6
Continuous
 62
     7
100
AcDbLine
 10
228.7158905535996
 20
161.1586129945568
 30
0.0
 11
228.7158905535996
 21
157.1586129945568
 31
0.0
1001
PHOENIX7010
1002
{
1070
    41
1040
1.5
1002
}
  0
LINE
  5
C92
330
18
100
AcDbEntity
  8
0
  6
Continuous
 62
     7
100
AcDbLine
 10
248.7158091733912
 20
157.1586129945568
 30
0.0
 11
252.7158091733912
 21
157.1586129945568
 31
0.0
1001
PHOENIX7010
1002
{
1070
    41
1040
1.5
1002
}
  0
LINE
  5
C93
330
18
100
AcDbEntity
  8
0
  6
Continuous
 62
     7
100
AcDbLine
 10
252.7158091733912
 20
157.1586129945568
 30
0.0
 11
252.7158091733912
 21
161.1586129945568
 31
0.0
1001
PHOENIX7010
1002
{
1070
    41
1040
1.5
1002
}
  0
LINE
  5
C94
330
18
100
AcDbEntity
  8
0
  6
Continuous
 62
     7
100
AcDbLine
 10
252.7158091733912
 20
161.1586129945568
 30
0.0
 11
248.7158091733912
 21
161.1586129945568
 31
0.0
1001
PHOENIX7010
1002
{
1070
    41
1040
1.5
1002
}
  0
LINE
  5
C95
330
18
100
AcDbEntity
  8
0
  6
Continuous
 62
     7
100
AcDbLine
 10
248.7158091733912
 20
161.1586129945568
 30
0.0
 11
248.7158091733912
 21
157.1586129945568
 31
0.0
1001
PHOENIX7010
1002
{
1070
    41
1040
1.5
1002
}
  0
LINE
  5
C96
330
18
100
AcDbEntity
  8
0
  6
Continuous
 62
     7
100
AcDbLine
 10
108.7158905535996
 20
186.7719349346609
 30
0.0
 11
112.7158905535996
 21
186.7719349346609
 31
0.0
1001
PHOENIX7010
1002
{
1070
    41
1040
1.5
1002
}
  0
LINE
  5
C97
330
18
100
AcDbEntity
  8
0
  6
Continuous
 62
     7
100
AcDbLine
 10
112.7158905535996
 20
186.7719349346609
 30
0.0
 11
112.7158905535996
 21
190.771934934661
 31
0.0
1001
PHOENIX7010
1002
{
1070
    41
1040
1.5
1002
}
  0
LINE
  5
C98
330
18
100
AcDbEntity
  8
0
  6
Continuous
 62
     7
100
AcDbLine
 10
112.7158905535996
 20
190.771934934661
 30
0.0
 11
108.7158905535996
 21
190.771934934661
 31
0.0
1001
PHOENIX7010
1002
{
1070
    41
1040
1.5
1002
}
  0
LINE
  5
C99
330
18
100
AcDbEntity
  8
0
  6
Continuous
 62
     7
100
AcDbLine
 10
108.7158905535996
 20
190.771934934661
 30
0.0
 11
108.7158905535996
 21
186.7719349346609
 31
0.0
1001
PHOENIX7010
1002
{
1070
    41
1040
1.5
1002
}
  0
LINE
  5
C9A
330
18
100
AcDbEntity
  8
0
  6
Continuous
 62
     7
100
AcDbLine
 10
128.7158905535996
 20
186.7719349346609
 30
0.0
 11
132.7158905535996
 21
186.7719349346609
 31
0.0
1001
PHOENIX7010
1002
{
1070
    41
1040
1.5
1002
}
  0
LINE
  5
C9B
330
18
100
AcDbEntity
  8
0
  6
Continuous
 62
     7
100
AcDbLine
 10
132.7158905535996
 20
186.7719349346609
 30
0.0
 11
132.7158905535996
 21
190.771934934661
 31
0.0
1001
PHOENIX7010
1002
{
1070
    41
1040
1.5
1002
}
  0
LINE
  5
C9C
330
18
100
AcDbEntity
  8
0
  6
Continuous
 62
     7
100
AcDbLine
 10
132.7158905535996
 20
190.771934934661
 30
0.0
 11
128.7158905535996
 21
190.771934934661
 31
0.0
1001
PHOENIX7010
1002
{
1070
    41
1040
1.5
1002
}
  0
LINE
  5
C9D
330
18
100
AcDbEntity
  8
0
  6
Continuous
 62
     7
100
AcDbLine
 10
128.7158905535996
 20
190.771934934661
 30
0.0
 11
128.7158905535996
 21
186.7719349346609
 31
0.0
1001
PHOENIX7010
1002
{
1070
    41
1040
1.5
1002
}
  0
LINE
  5
C9E
330
18
100
AcDbEntity
  8
0
  6
Continuous
 62
     7
100
AcDbLine
 10
148.7158905535996
 20
186.7719349346609
 30
0.0
 11
152.7158905535996
 21
186.7719349346609
 31
0.0
1001
PHOENIX7010
1002
{
1070
    41
1040
1.5
1002
}
  0
LINE
  5
C9F
330
18
100
AcDbEntity
  8
0
  6
Continuous
 62
     7
100
AcDbLine
 10
152.7158905535996
 20
186.7719349346609
 30
0.0
 11
152.7158905535996
 21
190.771934934661
 31
0.0
1001
PHOENIX7010
1002
{
1070
    41
1040
1.5
1002
}
  0
LINE
  5
CA0
330
18
100
AcDbEntity
  8
0
  6
Continuous
 62
     7
100
AcDbLine
 10
152.7158905535996
 20
190.771934934661
 30
0.0
 11
148.7158905535996
 21
190.771934934661
 31
0.0
1001
PHOENIX7010
1002
{
1070
    41
1040
1.5
1002
}
  0
LINE
  5
CA1
330
18
100
AcDbEntity
  8
0
  6
Continuous
 62
     7
100
AcDbLine
 10
148.7158905535996
 20
190.771934934661
 30
0.0
 11
148.7158905535996
 21
186.7719349346609
 31
0.0
1001
PHOENIX7010
1002
{
1070
    41
1040
1.5
1002
}
  0
LINE
  5
CA2
330
18
100
AcDbEntity
  8
0
  6
Continuous
 62
     7
100
AcDbLine
 10
168.7158905535996
 20
186.7719349346609
 30
0.0
 11
172.7158905535996
 21
186.7719349346609
 31
0.0
1001
PHOENIX7010
1002
{
1070
    41
1040
1.5
1002
}
  0
LINE
  5
CA3
330
18
100
AcDbEntity
  8
0
  6
Continuous
 62
     7
100
AcDbLine
 10
172.7158905535996
 20
186.7719349346609
 30
0.0
 11
172.7158905535996
 21
190.771934934661
 31
0.0
1001
PHOENIX7010
1002
{
1070
    41
1040
1.5
1002
}
  0
LINE
  5
CA4
330
18
100
AcDbEntity
  8
0
  6
Continuous
 62
     7
100
AcDbLine
 10
172.7158905535996
 20
190.771934934661
 30
0.0
 11
168.7158905535996
 21
190.771934934661
 31
0.0
1001
PHOENIX7010
1002
{
1070
    41
1040
1.5
1002
}
  0
LINE
  5
CA5
330
18
100
AcDbEntity
  8
0
  6
Continuous
 62
     7
100
AcDbLine
 10
168.7158905535996
 20
190.771934934661
 30
0.0
 11
168.7158905535996
 21
186.7719349346609
 31
0.0
1001
PHOENIX7010
1002
{
1070
    41
1040
1.5
1002
}
  0
LINE
  5
CA6
330
18
100
AcDbEntity
  8
0
  6
Continuous
 62
     7
100
AcDbLine
 10
188.7158905535996
 20
186.7719349346609
 30
0.0
 11
192.7158905535996
 21
186.7719349346609
 31
0.0
1001
PHOENIX7010
1002
{
1070
    41
1040
1.5
1002
}
  0
LINE
  5
CA7
330
18
100
AcDbEntity
  8
0
  6
Continuous
 62
     7
100
AcDbLine
 10
192.7158905535996
 20
186.7719349346609
 30
0.0
 11
192.7158905535996
 21
190.771934934661
 31
0.0
1001
PHOENIX7010
1002
{
1070
    41
1040
1.5
1002
}
  0
LINE
  5
CA8
330
18
100
AcDbEntity
  8
0
  6
Continuous
 62
     7
100
AcDbLine
 10
192.7158905535996
 20
190.771934934661
 30
0.0
 11
188.7158905535996
 21
190.771934934661
 31
0.0
1001
PHOENIX7010
1002
{
1070
    41
1040
1.5
1002
}
  0
LINE
  5
CA9
330
18
100
AcDbEntity
  8
0
  6
Continuous
 62
     7
100
AcDbLine
 10
188.7158905535996
 20
190.771934934661
 30
0.0
 11
188.7158905535996
 21
186.7719349346609
 31
0.0
1001
PHOENIX7010
1002
{
1070
    41
1040
1.5
1002
}
  0
LINE
  5
CAA
330
18
100
AcDbEntity
  8
0
  6
Continuous
 62
     7
100
AcDbLine
 10
208.7158905535996
 20
186.7719349346609
 30
0.0
 11
212.7158905535996
 21
186.7719349346609
 31
0.0
1001
PHOENIX7010
1002
{
1070
    41
1040
1.5
1002
}
  0
LINE
  5
CAB
330
18
100
AcDbEntity
  8
0
  6
Continuous
 62
     7
100
AcDbLine
 10
212.7158905535996
 20
186.7719349346609
 30
0.0
 11
212.7158905535996
 21
190.771934934661
 31
0.0
1001
PHOENIX7010
1002
{
1070
    41
1040
1.5
1002
}
  0
LINE
  5
CAC
330
18
100
AcDbEntity
  8
0
  6
Continuous
 62
     7
100
AcDbLine
 10
212.7158905535996
 20
190.771934934661
 30
0.0
 11
208.7158905535996
 21
190.771934934661
 31
0.0
1001
PHOENIX7010
1002
{
1070
    41
1040
1.5
1002
}
  0
LINE
  5
CAD
330
18
100
AcDbEntity
  8
0
  6
Continuous
 62
     7
100
AcDbLine
 10
208.7158905535996
 20
190.771934934661
 30
0.0
 11
208.7158905535996
 21
186.7719349346609
 31
0.0
1001
PHOENIX7010
1002
{
1070
    41
1040
1.5
1002
}
  0
LINE
  5
CAE
330
18
100
AcDbEntity
  8
0
  6
Continuous
 62
     7
100
AcDbLine
 10
228.7158905535996
 20
186.7719349346609
 30
0.0
 11
232.7158905535996
 21
186.7719349346609
 31
0.0
1001
PHOENIX7010
1002
{
1070
    41
1040
1.5
1002
}
  0
LINE
  5
CAF
330
18
100
AcDbEntity
  8
0
  6
Continuous
 62
     7
100
AcDbLine
 10
232.7158905535996
 20
186.7719349346609
 30
0.0
 11
232.7158905535996
 21
190.771934934661
 31
0.0
1001
PHOENIX7010
1002
{
1070
    41
1040
1.5
1002
}
  0
LINE
  5
CB0
330
18
100
AcDbEntity
  8
0
  6
Continuous
 62
     7
100
AcDbLine
 10
232.7158905535996
 20
190.771934934661
 30
0.0
 11
228.7158905535996
 21
190.771934934661
 31
0.0
1001
PHOENIX7010
1002
{
1070
    41
1040
1.5
1002
}
  0
LINE
  5
CB1
330
18
100
AcDbEntity
  8
0
  6
Continuous
 62
     7
100
AcDbLine
 10
228.7158905535996
 20
190.771934934661
 30
0.0
 11
228.7158905535996
 21
186.7719349346609
 31
0.0
1001
PHOENIX7010
1002
{
1070
    41
1040
1.5
1002
}
  0
LINE
  5
CB2
330
18
100
AcDbEntity
  8
0
  6
Continuous
 62
     7
100
AcDbLine
 10
248.7158091733912
 20
186.7719349346609
 30
0.0
 11
252.7158091733912
 21
186.7719349346609
 31
0.0
1001
PHOENIX7010
1002
{
1070
    41
1040
1.5
1002
}
  0
LINE
  5
CB3
330
18
100
AcDbEntity
  8
0
  6
Continuous
 62
     7
100
AcDbLine
 10
252.7158091733912
 20
186.7719349346609
 30
0.0
 11
252.7158091733912
 21
190.771934934661
 31
0.0
1001
PHOENIX7010
1002
{
1070
    41
1040
1.5
1002
}
  0
LINE
  5
CB4
330
18
100
AcDbEntity
  8
0
  6
Continuous
 62
     7
100
AcDbLine
 10
252.7158091733912
 20
190.771934934661
 30
0.0
 11
248.7158091733912
 21
190.771934934661
 31
0.0
1001
PHOENIX7010
1002
{
1070
    41
1040
1.5
1002
}
  0
LINE
  5
CB5
330
18
100
AcDbEntity
  8
0
  6
Continuous
 62
     7
100
AcDbLine
 10
248.7158091733912
 20
190.771934934661
 30
0.0
 11
248.7158091733912
 21
186.7719349346609
 31
0.0
1001
PHOENIX7010
1002
{
1070
    41
1040
1.5
1002
}
  0
LINE
  5
CB6
330
18
100
AcDbEntity
  8
0
  6
Continuous
 62
     7
100
AcDbLine
 10
108.7158905535996
 20
220.3852568747651
 30
0.0
 11
112.7158905535996
 21
220.3852568747651
 31
0.0
1001
PHOENIX7010
1002
{
1070
    41
1040
1.5
1002
}
  0
LINE
  5
CB7
330
18
100
AcDbEntity
  8
0
  6
Continuous
 62
     7
100
AcDbLine
 10
112.7158905535996
 20
220.3852568747651
 30
0.0
 11
112.7158905535996
 21
216.3852568747651
 31
0.0
1001
PHOENIX7010
1002
{
1070
    41
1040
1.5
1002
}
  0
LINE
  5
CB8
330
18
100
AcDbEntity
  8
0
  6
Continuous
 62
     7
100
AcDbLine
 10
112.7158905535996
 20
216.3852568747651
 30
0.0
 11
108.7158905535996
 21
216.3852568747651
 31
0.0
1001
PHOENIX7010
1002
{
1070
    41
1040
1.5
1002
}
  0
LINE
  5
CB9
330
18
100
AcDbEntity
  8
0
  6
Continuous
 62
     7
100
AcDbLine
 10
108.7158905535996
 20
216.3852568747651
 30
0.0
 11
108.7158905535996
 21
220.3852568747651
 31
0.0
1001
PHOENIX7010
1002
{
1070
    41
1040
1.5
1002
}
  0
LINE
  5
CBA
330
18
100
AcDbEntity
  8
0
  6
Continuous
 62
     7
100
AcDbLine
 10
128.7158905535996
 20
220.3852568747651
 30
0.0
 11
132.7158905535996
 21
220.3852568747651
 31
0.0
1001
PHOENIX7010
1002
{
1070
    41
1040
1.5
1002
}
  0
LINE
  5
CBB
330
18
100
AcDbEntity
  8
0
  6
Continuous
 62
     7
100
AcDbLine
 10
132.7158905535996
 20
220.3852568747651
 30
0.0
 11
132.7158905535996
 21
216.3852568747651
 31
0.0
1001
PHOENIX7010
1002
{
1070
    41
1040
1.5
1002
}
  0
LINE
  5
CBC
330
18
100
AcDbEntity
  8
0
  6
Continuous
 62
     7
100
AcDbLine
 10
132.7158905535996
 20
216.3852568747651
 30
0.0
 11
128.7158905535996
 21
216.3852568747651
 31
0.0
1001
PHOENIX7010
1002
{
1070
    41
1040
1.5
1002
}
  0
LINE
  5
CBD
330
18
100
AcDbEntity
  8
0
  6
Continuous
 62
     7
100
AcDbLine
 10
128.7158905535996
 20
216.3852568747651
 30
0.0
 11
128.7158905535996
 21
220.3852568747651
 31
0.0
1001
PHOENIX7010
1002
{
1070
    41
1040
1.5
1002
}
  0
LINE
  5
CBE
330
18
100
AcDbEntity
  8
0
  6
Continuous
 62
     7
100
AcDbLine
 10
148.7158905535996
 20
220.3852568747651
 30
0.0
 11
152.7158905535996
 21
220.3852568747651
 31
0.0
1001
PHOENIX7010
1002
{
1070
    41
1040
1.5
1002
}
  0
LINE
  5
CBF
330
18
100
AcDbEntity
  8
0
  6
Continuous
 62
     7
100
AcDbLine
 10
152.7158905535996
 20
220.3852568747651
 30
0.0
 11
152.7158905535996
 21
216.3852568747651
 31
0.0
1001
PHOENIX7010
1002
{
1070
    41
1040
1.5
1002
}
  0
LINE
  5
CC0
330
18
100
AcDbEntity
  8
0
  6
Continuous
 62
     7
100
AcDbLine
 10
152.7158905535996
 20
216.3852568747651
 30
0.0
 11
148.7158905535996
 21
216.3852568747651
 31
0.0
1001
PHOENIX7010
1002
{
1070
    41
1040
1.5
1002
}
  0
LINE
  5
CC1
330
18
100
AcDbEntity
  8
0
  6
Continuous
 62
     7
100
AcDbLine
 10
148.7158905535996
 20
216.3852568747651
 30
0.0
 11
148.7158905535996
 21
220.3852568747651
 31
0.0
1001
PHOENIX7010
1002
{
1070
    41
1040
1.5
1002
}
  0
LINE
  5
CC2
330
18
100
AcDbEntity
  8
0
  6
Continuous
 62
     7
100
AcDbLine
 10
168.7158905535996
 20
220.3852568747651
 30
0.0
 11
172.7158905535996
 21
220.3852568747651
 31
0.0
1001
PHOENIX7010
1002
{
1070
    41
1040
1.5
1002
}
  0
LINE
  5
CC3
330
18
100
AcDbEntity
  8
0
  6
Continuous
 62
     7
100
AcDbLine
 10
172.7158905535996
 20
220.3852568747651
 30
0.0
 11
172.7158905535996
 21
216.3852568747651
 31
0.0
1001
PHOENIX7010
1002
{
1070
    41
1040
1.5
1002
}
  0
LINE
  5
CC4
330
18
100
AcDbEntity
  8
0
  6
Continuous
 62
     7
100
AcDbLine
 10
172.7158905535996
 20
216.3852568747651
 30
0.0
 11
168.7158905535996
 21
216.3852568747651
 31
0.0
1001
PHOENIX7010
1002
{
1070
    41
1040
1.5
1002
}
  0
LINE
  5
CC5
330
18
100
AcDbEntity
  8
0
  6
Continuous
 62
     7
100
AcDbLine
 10
168.7158905535996
 20
216.3852568747651
 30
0.0
 11
168.7158905535996
 21
220.3852568747651
 31
0.0
1001
PHOENIX7010
1002
{
1070
    41
1040
1.5
1002
}
  0
LINE
  5
CC6
330
18
100
AcDbEntity
  8
0
  6
Continuous
 62
     7
100
AcDbLine
 10
188.7158905535996
 20
220.3852568747651
 30
0.0
 11
192.7158905535996
 21
220.3852568747651
 31
0.0
1001
PHOENIX7010
1002
{
1070
    41
1040
1.5
1002
}
  0
LINE
  5
CC7
330
18
100
AcDbEntity
  8
0
  6
Continuous
 62
     7
100
AcDbLine
 10
192.7158905535996
 20
220.3852568747651
 30
0.0
 11
192.7158905535996
 21
216.3852568747651
 31
0.0
1001
PHOENIX7010
1002
{
1070
    41
1040
1.5
1002
}
  0
LINE
  5
CC8
330
18
100
AcDbEntity
  8
0
  6
Continuous
 62
     7
100
AcDbLine
 10
192.7158905535996
 20
216.3852568747651
 30
0.0
 11
188.7158905535996
 21
216.3852568747651
 31
0.0
1001
PHOENIX7010
1002
{
1070
    41
1040
1.5
1002
}
  0
LINE
  5
CC9
330
18
100
AcDbEntity
  8
0
  6
Continuous
 62
     7
100
AcDbLine
 10
188.7158905535996
 20
216.3852568747651
 30
0.0
 11
188.7158905535996
 21
220.3852568747651
 31
0.0
1001
PHOENIX7010
1002
{
1070
    41
1040
1.5
1002
}
  0
LINE
  5
CCA
330
18
100
AcDbEntity
  8
0
  6
Continuous
 62
     7
100
AcDbLine
 10
208.7158905535996
 20
220.3852568747651
 30
0.0
 11
212.7158905535996
 21
220.3852568747651
 31
0.0
1001
PHOENIX7010
1002
{
1070
    41
1040
1.5
1002
}
  0
LINE
  5
CCB
330
18
100
AcDbEntity
  8
0
  6
Continuous
 62
     7
100
AcDbLine
 10
212.7158905535996
 20
220.3852568747651
 30
0.0
 11
212.7158905535996
 21
216.3852568747651
 31
0.0
1001
PHOENIX7010
1002
{
1070
    41
1040
1.5
1002
}
  0
LINE
  5
CCC
330
18
100
AcDbEntity
  8
0
  6
Continuous
 62
     7
100
AcDbLine
 10
212.7158905535996
 20
216.3852568747651
 30
0.0
 11
208.7158905535996
 21
216.3852568747651
 31
0.0
1001
PHOENIX7010
1002
{
1070
    41
1040
1.5
1002
}
  0
LINE
  5
CCD
330
18
100
AcDbEntity
  8
0
  6
Continuous
 62
     7
100
AcDbLine
 10
208.7158905535996
 20
216.3852568747651
 30
0.0
 11
208.7158905535996
 21
220.3852568747651
 31
0.0
1001
PHOENIX7010
1002
{
1070
    41
1040
1.5
1002
}
  0
LINE
  5
CCE
330
18
100
AcDbEntity
  8
0
  6
Continuous
 62
     7
100
AcDbLine
 10
228.7158905535996
 20
220.3852568747651
 30
0.0
 11
232.7158905535996
 21
220.3852568747651
 31
0.0
1001
PHOENIX7010
1002
{
1070
    41
1040
1.5
1002
}
  0
LINE
  5
CCF
330
18
100
AcDbEntity
  8
0
  6
Continuous
 62
     7
100
AcDbLine
 10
232.7158905535996
 20
220.3852568747651
 30
0.0
 11
232.7158905535996
 21
216.3852568747651
 31
0.0
1001
PHOENIX7010
1002
{
1070
    41
1040
1.5
1002
}
  0
LINE
  5
CD0
330
18
100
AcDbEntity
  8
0
  6
Continuous
 62
     7
100
AcDbLine
 10
232.7158905535996
 20
216.3852568747651
 30
0.0
 11
228.7158905535996
 21
216.3852568747651
 31
0.0
1001
PHOENIX7010
1002
{
1070
    41
1040
1.5
1002
}
  0
LINE
  5
CD1
330
18
100
AcDbEntity
  8
0
  6
Continuous
 62
     7
100
AcDbLine
 10
228.7158905535996
 20
216.3852568747651
 30
0.0
 11
228.7158905535996
 21
220.3852568747651
 31
0.0
1001
PHOENIX7010
1002
{
1070
    41
1040
1.5
1002
}
  0
LINE
  5
CD2
102
{ACAD_REACTORS
330
A08
102
}
330
18
100
AcDbEntity
  8
0
  6
Continuous
 62
     7
100
AcDbLine
 10
248.7158091733912
 20
220.3852568747651
 30
0.0
 11
252.7158091733912
 21
220.3852568747651
 31
0.0
1001
PHOENIX7010
1002
{
1070
    41
1040
1.5
1002
}
  0
LINE
  5
CD3
102
{ACAD_REACTORS
330
A08
102
}
330
18
100
AcDbEntity
  8
0
  6
Continuous
 62
     7
100
AcDbLine
 10
252.7158091733912
 20
220.3852568747651
 30
0.0
 11
252.7158091733912
 21
216.3852568747651
 31
0.0
1001
PHOENIX7010
1002
{
1070
    41
1040
1.5
1002
}
  0
LINE
  5
CD4
102
{ACAD_REACTORS
330
A08
102
}
330
18
100
AcDbEntity
  8
0
  6
Continuous
 62
     7
100
AcDbLine
 10
252.7158091733912
 20
216.3852568747651
 30
0.0
 11
248.7158091733912
 21
216.3852568747651
 31
0.0
1001
PHOENIX7010
1002
{
1070
    41
1040
1.5
1002
}
  0
LINE
  5
CD5
102
{ACAD_REACTORS
330
A08
102
}
330
18
100
AcDbEntity
  8
0
  6
Continuous
 62
     7
100
AcDbLine
 10
248.7158091733912
 20
216.3852568747651
 30
0.0
 11
248.7158091733912
 21
220.3852568747651
 31
0.0
1001
PHOENIX7010
1002
{
1070
    41
1040
1.5
1002
}
  0
CIRCLE
  5
CD6
102
{ACAD_REACTORS
330
A25
102
}
330
18
100
AcDbEntity
  8
0
  6
Continuous
 62
     7
100
AcDbCircle
 10
110.7158905535996
 20
229.2718128643485
 30
0.0
 40
1.533333301544189
1001
PHOENIX7010
1002
{
1070
    41
1040
1.5
1002
}
  0
CIRCLE
  5
CD7
102
{ACAD_REACTORS
330
A25
102
}
330
18
100
AcDbEntity
  8
0
  6
Continuous
 62
     7
100
AcDbCircle
 10
120.7158905535996
 20
229.2718128643485
 30
0.0
 40
1.533333301544189
1001
PHOENIX7010
1002
{
1070
    41
1040
1.5
1002
}
  0
CIRCLE
  5
CD8
102
{ACAD_REACTORS
330
A25
102
}
330
18
100
AcDbEntity
  8
0
  6
Continuous
 62
     7
100
AcDbCircle
 10
130.7158905535996
 20
229.2718128643485
 30
0.0
 40
1.533333301544189
1001
PHOENIX7010
1002
{
1070
    41
1040
1.5
1002
}
  0
CIRCLE
  5
CD9
102
{ACAD_REACTORS
330
A25
102
}
330
18
100
AcDbEntity
  8
0
  6
Continuous
 62
     7
100
AcDbCircle
 10
140.7158905535996
 20
229.2718128643485
 30
0.0
 40
1.533333301544189
1001
PHOENIX7010
1002
{
1070
    41
1040
1.5
1002
}
  0
CIRCLE
  5
CDA
102
{ACAD_REACTORS
330
A25
102
}
330
18
100
AcDbEntity
  8
0
  6
Continuous
 62
     7
100
AcDbCircle
 10
150.7158905535996
 20
229.2718942445568
 30
0.0
 40
1.533333301544189
1001
PHOENIX7010
1002
{
1070
    41
1040
1.5
1002
}
  0
CIRCLE
  5
CDB
102
{ACAD_REACTORS
330
A25
102
}
330
18
100
AcDbEntity
  8
0
  6
Continuous
 62
     7
100
AcDbCircle
 10
160.7158905535996
 20
229.2718942445568
 30
0.0
 40
1.533333301544189
1001
PHOENIX7010
1002
{
1070
    41
1040
1.5
1002
}
  0
CIRCLE
  5
CDC
102
{ACAD_REACTORS
330
A25
102
}
330
18
100
AcDbEntity
  8
0
  6
Continuous
 62
     7
100
AcDbCircle
 10
170.7158905535996
 20
229.2718942445568
 30
0.0
 40
1.533333301544189
1001
PHOENIX7010
1002
{
1070
    41
1040
1.5
1002
}
  0
CIRCLE
  5
CDD
102
{ACAD_REACTORS
330
A25
102
}
330
18
100
AcDbEntity
  8
0
  6
Continuous
 62
     7
100
AcDbCircle
 10
180.7158905535996
 20
229.2718942445568
 30
0.0
 40
1.533333301544189
1001
PHOENIX7010
1002
{
1070
    41
1040
1.5
1002
}
  0
CIRCLE
  5
CDE
102
{ACAD_REACTORS
330
A25
102
}
330
18
100
AcDbEntity
  8
0
  6
Continuous
 62
     7
100
AcDbCircle
 10
190.7158905535996
 20
229.2718942445568
 30
0.0
 40
1.533333301544189
1001
PHOENIX7010
1002
{
1070
    41
1040
1.5
1002
}
  0
CIRCLE
  5
CDF
102
{ACAD_REACTORS
330
A25
102
}
330
18
100
AcDbEntity
  8
0
  6
Continuous
 62
     7
100
AcDbCircle
 10
200.7158905535996
 20
229.2718942445568
 30
0.0
 40
1.533333301544189
1001
PHOENIX7010
1002
{
1070
    41
1040
1.5
1002
}
  0
CIRCLE
  5
CE0
102
{ACAD_REACTORS
330
A25
102
}
330
18
100
AcDbEntity
  8
0
  6
Continuous
 62
     7
100
AcDbCircle
 10
210.7158905535996
 20
229.2718942445568
 30
0.0
 40
1.533333301544189
1001
PHOENIX7010
1002
{
1070
    41
1040
1.5
1002
}
  0
CIRCLE
  5
CE1
102
{ACAD_REACTORS
330
A25
102
}
330
18
100
AcDbEntity
  8
0
  6
Continuous
 62
     7
100
AcDbCircle
 10
220.7158905535996
 20
229.2718942445568
 30
0.0
 40
1.533333301544189
1001
PHOENIX7010
1002
{
1070
    41
1040
1.5
1002
}
  0
CIRCLE
  5
CE2
102
{ACAD_REACTORS
330
A25
102
}
330
18
100
AcDbEntity
  8
0
  6
Continuous
 62
     7
100
AcDbCircle
 10
230.7158905535996
 20
229.2718942445568
 30
0.0
 40
1.533333301544189
1001
PHOENIX7010
1002
{
1070
    41
1040
1.5
1002
}
  0
CIRCLE
  5
CE3
102
{ACAD_REACTORS
330
A25
102
}
330
18
100
AcDbEntity
  8
0
  6
Continuous
 62
     7
100
AcDbCircle
 10
240.7158905535996
 20
229.2718942445568
 30
0.0
 40
1.533333301544189
1001
PHOENIX7010
1002
{
1070
    41
1040
1.5
1002
}
  0
CIRCLE
  5
CE4
102
{ACAD_REACTORS
330
A25
102
}
330
18
100
AcDbEntity
  8
0
  6
Continuous
 62
     7
100
AcDbCircle
 10
250.7158091733912
 20
229.2718942445568
 30
0.0
 40
1.533333301544189
1001
PHOENIX7010
1002
{
1070
    41
1040
1.5
1002
}
  0
LINE
  5
CE5
330
18
100
AcDbEntity
  8
0
  6
Continuous
 62
     7
100
AcDbLine
 10
104.0492238869328
 20
223.9385609112235
 30
0.0
 11
104.0492238869328
 21
226.6052275778901
 31
0.0
1001
PHOENIX7010
1002
{
1070
    41
1040
1.5
1002
}
  0
LINE
  5
CE6
330
18
100
AcDbEntity
  8
0
  6
Continuous
 62
     7
100
AcDbLine
 10
104.0492238869328
 20
226.6052275778901
 30
0.0
 11
107.3825572202662
 21
226.6052275778901
 31
0.0
1001
PHOENIX7010
1002
{
1070
    41
1040
1.5
1002
}
  0
LINE
  5
CE7
330
18
100
AcDbEntity
  8
0
  6
Continuous
 62
     7
100
AcDbLine
 10
107.3825572202662
 20
226.6052275778901
 30
0.0
 11
107.3825572202662
 21
223.9385609112235
 31
0.0
1001
PHOENIX7010
1002
{
1070
    41
1040
1.5
1002
}
  0
LINE
  5
CE8
330
18
100
AcDbEntity
  8
0
  6
Continuous
 62
     7
100
AcDbLine
 10
114.0492238869328
 20
223.9385609112235
 30
0.0
 11
114.0492238869328
 21
226.6052275778901
 31
0.0
1001
PHOENIX7010
1002
{
1070
    41
1040
1.5
1002
}
  0
LINE
  5
CE9
330
18
100
AcDbEntity
  8
0
  6
Continuous
 62
     7
100
AcDbLine
 10
114.0492238869328
 20
226.6052275778901
 30
0.0
 11
117.3825572202662
 21
226.6052275778901
 31
0.0
1001
PHOENIX7010
1002
{
1070
    41
1040
1.5
1002
}
  0
LINE
  5
CEA
330
18
100
AcDbEntity
  8
0
  6
Continuous
 62
     7
100
AcDbLine
 10
117.3825572202662
 20
226.6052275778901
 30
0.0
 11
117.3825572202662
 21
223.9385609112235
 31
0.0
1001
PHOENIX7010
1002
{
1070
    41
1040
1.5
1002
}
  0
LINE
  5
CEB
330
18
100
AcDbEntity
  8
0
  6
Continuous
 62
     7
100
AcDbLine
 10
124.0492238869328
 20
223.9385609112235
 30
0.0
 11
124.0492238869328
 21
226.6052275778901
 31
0.0
1001
PHOENIX7010
1002
{
1070
    41
1040
1.5
1002
}
  0
LINE
  5
CEC
330
18
100
AcDbEntity
  8
0
  6
Continuous
 62
     7
100
AcDbLine
 10
124.0492238869328
 20
226.6052275778901
 30
0.0
 11
127.3825572202662
 21
226.6052275778901
 31
0.0
1001
PHOENIX7010
1002
{
1070
    41
1040
1.5
1002
}
  0
LINE
  5
CED
330
18
100
AcDbEntity
  8
0
  6
Continuous
 62
     7
100
AcDbLine
 10
127.3825572202662
 20
226.6052275778901
 30
0.0
 11
127.3825572202662
 21
223.9385609112235
 31
0.0
1001
PHOENIX7010
1002
{
1070
    41
1040
1.5
1002
}
  0
LINE
  5
CEE
330
18
100
AcDbEntity
  8
0
  6
Continuous
 62
     7
100
AcDbLine
 10
134.0492238869328
 20
223.9385609112235
 30
0.0
 11
134.0492238869328
 21
226.6052275778901
 31
0.0
1001
PHOENIX7010
1002
{
1070
    41
1040
1.5
1002
}
  0
LINE
  5
CEF
330
18
100
AcDbEntity
  8
0
  6
Continuous
 62
     7
100
AcDbLine
 10
134.0492238869328
 20
226.6052275778901
 30
0.0
 11
137.3825572202662
 21
226.6052275778901
 31
0.0
1001
PHOENIX7010
1002
{
1070
    41
1040
1.5
1002
}
  0
LINE
  5
CF0
330
18
100
AcDbEntity
  8
0
  6
Continuous
 62
     7
100
AcDbLine
 10
137.3825572202662
 20
226.6052275778901
 30
0.0
 11
137.3825572202662
 21
223.9385609112235
 31
0.0
1001
PHOENIX7010
1002
{
1070
    41
1040
1.5
1002
}
  0
LINE
  5
CF1
330
18
100
AcDbEntity
  8
0
  6
Continuous
 62
     7
100
AcDbLine
 10
144.0492238869328
 20
223.9385609112235
 30
0.0
 11
144.0492238869328
 21
226.6052275778901
 31
0.0
1001
PHOENIX7010
1002
{
1070
    41
1040
1.5
1002
}
  0
LINE
  5
CF2
330
18
100
AcDbEntity
  8
0
  6
Continuous
 62
     7
100
AcDbLine
 10
144.0492238869328
 20
226.6052275778901
 30
0.0
 11
147.3825572202662
 21
226.6052275778901
 31
0.0
1001
PHOENIX7010
1002
{
1070
    41
1040
1.5
1002
}
  0
LINE
  5
CF3
330
18
100
AcDbEntity
  8
0
  6
Continuous
 62
     7
100
AcDbLine
 10
147.3825572202662
 20
226.6052275778901
 30
0.0
 11
147.3825572202662
 21
223.9385609112235
 31
0.0
1001
PHOENIX7010
1002
{
1070
    41
1040
1.5
1002
}
  0
LINE
  5
CF4
330
18
100
AcDbEntity
  8
0
  6
Continuous
 62
     7
100
AcDbLine
 10
154.0492238869328
 20
223.9385609112235
 30
0.0
 11
154.0492238869328
 21
226.6052275778901
 31
0.0
1001
PHOENIX7010
1002
{
1070
    41
1040
1.5
1002
}
  0
LINE
  5
CF5
330
18
100
AcDbEntity
  8
0
  6
Continuous
 62
     7
100
AcDbLine
 10
154.0492238869328
 20
226.6052275778901
 30
0.0
 11
157.3825572202662
 21
226.6052275778901
 31
0.0
1001
PHOENIX7010
1002
{
1070
    41
1040
1.5
1002
}
  0
LINE
  5
CF6
330
18
100
AcDbEntity
  8
0
  6
Continuous
 62
     7
100
AcDbLine
 10
157.3825572202662
 20
226.6052275778901
 30
0.0
 11
157.3825572202662
 21
223.9385609112235
 31
0.0
1001
PHOENIX7010
1002
{
1070
    41
1040
1.5
1002
}
  0
LINE
  5
CF7
330
18
100
AcDbEntity
  8
0
  6
Continuous
 62
     7
100
AcDbLine
 10
164.0492238869328
 20
223.9385609112235
 30
0.0
 11
164.0492238869328
 21
226.6052275778901
 31
0.0
1001
PHOENIX7010
1002
{
1070
    41
1040
1.5
1002
}
  0
LINE
  5
CF8
330
18
100
AcDbEntity
  8
0
  6
Continuous
 62
     7
100
AcDbLine
 10
164.0492238869328
 20
226.6052275778901
 30
0.0
 11
167.3825572202662
 21
226.6052275778901
 31
0.0
1001
PHOENIX7010
1002
{
1070
    41
1040
1.5
1002
}
  0
LINE
  5
CF9
330
18
100
AcDbEntity
  8
0
  6
Continuous
 62
     7
100
AcDbLine
 10
167.3825572202662
 20
226.6052275778901
 30
0.0
 11
167.3825572202662
 21
223.9385609112235
 31
0.0
1001
PHOENIX7010
1002
{
1070
    41
1040
1.5
1002
}
  0
LINE
  5
CFA
330
18
100
AcDbEntity
  8
0
  6
Continuous
 62
     7
100
AcDbLine
 10
174.0492238869328
 20
223.9385609112235
 30
0.0
 11
174.0492238869328
 21
226.6052275778901
 31
0.0
1001
PHOENIX7010
1002
{
1070
    41
1040
1.5
1002
}
  0
LINE
  5
CFB
330
18
100
AcDbEntity
  8
0
  6
Continuous
 62
     7
100
AcDbLine
 10
174.0492238869328
 20
226.6052275778901
 30
0.0
 11
177.3825572202662
 21
226.6052275778901
 31
0.0
1001
PHOENIX7010
1002
{
1070
    41
1040
1.5
1002
}
  0
LINE
  5
CFC
330
18
100
AcDbEntity
  8
0
  6
Continuous
 62
     7
100
AcDbLine
 10
177.3825572202662
 20
226.6052275778901
 30
0.0
 11
177.3825572202662
 21
223.9385609112235
 31
0.0
1001
PHOENIX7010
1002
{
1070
    41
1040
1.5
1002
}
  0
LINE
  5
CFD
330
18
100
AcDbEntity
  8
0
  6
Continuous
 62
     7
100
AcDbLine
 10
184.0492238869328
 20
223.9385609112235
 30
0.0
 11
184.0492238869328
 21
226.6052275778901
 31
0.0
1001
PHOENIX7010
1002
{
1070
    41
1040
1.5
1002
}
  0
LINE
  5
CFE
330
18
100
AcDbEntity
  8
0
  6
Continuous
 62
     7
100
AcDbLine
 10
184.0492238869328
 20
226.6052275778901
 30
0.0
 11
187.3825572202662
 21
226.6052275778901
 31
0.0
1001
PHOENIX7010
1002
{
1070
    41
1040
1.5
1002
}
  0
LINE
  5
CFF
330
18
100
AcDbEntity
  8
0
  6
Continuous
 62
     7
100
AcDbLine
 10
187.3825572202662
 20
226.6052275778901
 30
0.0
 11
187.3825572202662
 21
223.9385609112235
 31
0.0
1001
PHOENIX7010
1002
{
1070
    41
1040
1.5
1002
}
  0
LINE
  5
D00
330
18
100
AcDbEntity
  8
0
  6
Continuous
 62
     7
100
AcDbLine
 10
194.0492238869328
 20
223.9385609112235
 30
0.0
 11
194.0492238869328
 21
226.6052275778901
 31
0.0
1001
PHOENIX7010
1002
{
1070
    41
1040
1.5
1002
}
  0
LINE
  5
D01
330
18
100
AcDbEntity
  8
0
  6
Continuous
 62
     7
100
AcDbLine
 10
194.0492238869328
 20
226.6052275778901
 30
0.0
 11
197.3825572202662
 21
226.6052275778901
 31
0.0
1001
PHOENIX7010
1002
{
1070
    41
1040
1.5
1002
}
  0
LINE
  5
D02
330
18
100
AcDbEntity
  8
0
  6
Continuous
 62
     7
100
AcDbLine
 10
197.3825572202662
 20
226.6052275778901
 30
0.0
 11
197.3825572202662
 21
223.9385609112235
 31
0.0
1001
PHOENIX7010
1002
{
1070
    41
1040
1.5
1002
}
  0
LINE
  5
D03
330
18
100
AcDbEntity
  8
0
  6
Continuous
 62
     7
100
AcDbLine
 10
204.0492238869329
 20
223.9385609112235
 30
0.0
 11
204.0492238869329
 21
226.6052275778901
 31
0.0
1001
PHOENIX7010
1002
{
1070
    41
1040
1.5
1002
}
  0
LINE
  5
D04
330
18
100
AcDbEntity
  8
0
  6
Continuous
 62
     7
100
AcDbLine
 10
204.0492238869329
 20
226.6052275778901
 30
0.0
 11
207.3825572202662
 21
226.6052275778901
 31
0.0
1001
PHOENIX7010
1002
{
1070
    41
1040
1.5
1002
}
  0
LINE
  5
D05
330
18
100
AcDbEntity
  8
0
  6
Continuous
 62
     7
100
AcDbLine
 10
207.3825572202662
 20
226.6052275778901
 30
0.0
 11
207.3825572202662
 21
223.9385609112235
 31
0.0
1001
PHOENIX7010
1002
{
1070
    41
1040
1.5
1002
}
  0
LINE
  5
D06
330
18
100
AcDbEntity
  8
0
  6
Continuous
 62
     7
100
AcDbLine
 10
214.0492238869328
 20
223.9385609112235
 30
0.0
 11
214.0492238869328
 21
226.6052275778901
 31
0.0
1001
PHOENIX7010
1002
{
1070
    41
1040
1.5
1002
}
  0
LINE
  5
D07
330
18
100
AcDbEntity
  8
0
  6
Continuous
 62
     7
100
AcDbLine
 10
214.0492238869328
 20
226.6052275778901
 30
0.0
 11
217.3825572202662
 21
226.6052275778901
 31
0.0
1001
PHOENIX7010
1002
{
1070
    41
1040
1.5
1002
}
  0
LINE
  5
D08
330
18
100
AcDbEntity
  8
0
  6
Continuous
 62
     7
100
AcDbLine
 10
217.3825572202662
 20
226.6052275778901
 30
0.0
 11
217.3825572202662
 21
223.9385609112235
 31
0.0
1001
PHOENIX7010
1002
{
1070
    41
1040
1.5
1002
}
  0
LINE
  5
D09
330
18
100
AcDbEntity
  8
0
  6
Continuous
 62
     7
100
AcDbLine
 10
224.0492238869328
 20
223.9385609112235
 30
0.0
 11
224.0492238869328
 21
226.6052275778901
 31
0.0
1001
PHOENIX7010
1002
{
1070
    41
1040
1.5
1002
}
  0
LINE
  5
D0A
330
18
100
AcDbEntity
  8
0
  6
Continuous
 62
     7
100
AcDbLine
 10
224.0492238869328
 20
226.6052275778901
 30
0.0
 11
227.3825572202662
 21
226.6052275778901
 31
0.0
1001
PHOENIX7010
1002
{
1070
    41
1040
1.5
1002
}
  0
LINE
  5
D0B
330
18
100
AcDbEntity
  8
0
  6
Continuous
 62
     7
100
AcDbLine
 10
227.3825572202662
 20
226.6052275778901
 30
0.0
 11
227.3825572202662
 21
223.9385609112235
 31
0.0
1001
PHOENIX7010
1002
{
1070
    41
1040
1.5
1002
}
  0
LINE
  5
D0C
330
18
100
AcDbEntity
  8
0
  6
Continuous
 62
     7
100
AcDbLine
 10
234.0492238869329
 20
223.9385609112235
 30
0.0
 11
234.0492238869329
 21
226.6052275778901
 31
0.0
1001
PHOENIX7010
1002
{
1070
    41
1040
1.5
1002
}
  0
LINE
  5
D0D
330
18
100
AcDbEntity
  8
0
  6
Continuous
 62
     7
100
AcDbLine
 10
234.0492238869329
 20
226.6052275778901
 30
0.0
 11
237.3825572202662
 21
226.6052275778901
 31
0.0
1001
PHOENIX7010
1002
{
1070
    41
1040
1.5
1002
}
  0
LINE
  5
D0E
330
18
100
AcDbEntity
  8
0
  6
Continuous
 62
     7
100
AcDbLine
 10
237.3825572202662
 20
226.6052275778901
 30
0.0
 11
237.3825572202662
 21
223.9385609112235
 31
0.0
1001
PHOENIX7010
1002
{
1070
    41
1040
1.5
1002
}
  0
LINE
  5
D0F
330
18
100
AcDbEntity
  8
0
  6
Continuous
 62
     7
100
AcDbLine
 10
244.0491425067246
 20
223.9385609112235
 30
0.0
 11
244.0491425067246
 21
226.6052275778901
 31
0.0
1001
PHOENIX7010
1002
{
1070
    41
1040
1.5
1002
}
  0
LINE
  5
D10
330
18
100
AcDbEntity
  8
0
  6
Continuous
 62
     7
100
AcDbLine
 10
244.0491425067246
 20
226.6052275778901
 30
0.0
 11
247.3824758400578
 21
226.6052275778901
 31
0.0
1001
PHOENIX7010
1002
{
1070
    41
1040
1.5
1002
}
  0
LINE
  5
D11
330
18
100
AcDbEntity
  8
0
  6
Continuous
 62
     7
100
AcDbLine
 10
247.3824758400578
 20
226.6052275778901
 30
0.0
 11
247.3824758400578
 21
223.9385609112235
 31
0.0
1001
PHOENIX7010
1002
{
1070
    41
1040
1.5
1002
}
  0
LINE
  5
D12
102
{ACAD_REACTORS
330
A09
102
}
330
18
100
AcDbEntity
  8
0
  6
Continuous
 62
     7
100
AcDbLine
 10
254.0491425067246
 20
223.9385609112235
 30
0.0
 11
254.0491425067246
 21
226.6052275778901
 31
0.0
1001
PHOENIX7010
1002
{
1070
    41
1040
1.5
1002
}
  0
LINE
  5
D13
102
{ACAD_REACTORS
330
A09
102
}
330
18
100
AcDbEntity
  8
0
  6
Continuous
 62
     7
100
AcDbLine
 10
254.0491425067246
 20
226.6052275778901
 30
0.0
 11
257.3824758400578
 21
226.6052275778901
 31
0.0
1001
PHOENIX7010
1002
{
1070
    41
1040
1.5
1002
}
  0
LINE
  5
D14
102
{ACAD_REACTORS
330
A09
102
}
330
18
100
AcDbEntity
  8
0
  6
Continuous
 62
     7
100
AcDbLine
 10
257.3824758400578
 20
226.6052275778901
 30
0.0
 11
257.3824758400578
 21
223.9385609112235
 31
0.0
1001
PHOENIX7010
1002
{
1070
    41
1040
1.5
1002
}
  0
LINE
  5
DF5
102
{ACAD_REACTORS
330
E04
102
}
330
18
100
AcDbEntity
  8
0
  6
Continuous
 62
     1
100
AcDbLine
 10
229.0
 20
4.0
 30
0.0
 11
229.0
 21
0.0
 31
0.0
1001
PHOENIX7010
1002
{
1070
    62
1070
     1
1070
    41
1040
1.0
1002
}
  0
LINE
  5
DF6
102
{ACAD_REACTORS
330
E04
102
}
330
18
100
AcDbEntity
  8
0
  6
Continuous
 62
     3
100
AcDbLine
 10
414.0
 20
4.0
 30
0.0
 11
19.0
 21
4.0
 31
0.0
1001
PHOENIX7010
1002
{
1070
    62
1070
     3
1070
    41
1040
1.0
1002
}
  0
LINE
  5
DF7
102
{ACAD_REACTORS
330
E04
102
}
330
18
100
AcDbEntity
  8
0
  6
Continuous
 62
     1
100
AcDbLine
 10
124.0
 20
295.0
 30
0.0
 11
124.0
 21
291.0
 31
0.0
1001
PHOENIX7010
1002
{
1070
    62
1070
     1
1070
    41
1040
1.0
1002
}
  0
LINE
  5
DF8
102
{ACAD_REACTORS
330
E04
102
}
330
18
100
AcDbEntity
  8
0
  6
Continuous
 62
     1
100
AcDbLine
 10
229.0
 20
295.0
 30
0.0
 11
229.0
 21
291.0
 31
0.0
1001
PHOENIX7010
1002
{
1070
    62
1070
     1
1070
    41
1040
1.0
1002
}
  0
LINE
  5
DF9
102
{ACAD_REACTORS
330
E04
102
}
330
18
100
AcDbEntity
  8
0
  6
Continuous
 62
     1
100
AcDbLine
 10
124.0
 20
4.0
 30
0.0
 11
124.0
 21
0.0
 31
0.0
1001
PHOENIX7010
1002
{
1070
    62
1070
     1
1070
    41
1040
1.0
1002
}
  0
LINE
  5
DFA
102
{ACAD_REACTORS
330
E04
102
}
330
18
100
AcDbEntity
  8
0
  6
Continuous
 62
     1
100
AcDbLine
 10
418.0
 20
0.0
 30
0.0
 11
0.0
 21
0.0
 31
0.0
1001
PHOENIX7010
1002
{
1070
    62
1070
     1
1070
    41
1040
1.0
1002
}
  0
LINE
  5
DFB
102
{ACAD_REACTORS
330
E04
102
}
330
18
100
AcDbEntity
  8
0
  6
Continuous
 62
     1
100
AcDbLine
 10
0.0
 20
0.0
 30
0.0
 11
0.0
 21
295.0
 31
0.0
1001
PHOENIX7010
1002
{
1070
    62
1070
     1
1070
    41
1040
1.0
1002
}
  0
LINE
  5
DFC
102
{ACAD_REACTORS
330
E04
102
}
330
18
100
AcDbEntity
  8
0
  6
Continuous
 62
     1
100
AcDbLine
 10
0.0
 20
295.0
 30
0.0
 11
418.0
 21
295.0
 31
0.0
1001
PHOENIX7010
1002
{
1070
    62
1070
     1
1070
    41
1040
1.0
1002
}
  0
LINE
  5
DFD
102
{ACAD_REACTORS
330
E04
102
}
330
18
100
AcDbEntity
  8
0
  6
Continuous
 62
     1
100
AcDbLine
 10
418.0
 20
295.0
 30
0.0
 11
418.0
 21
0.0
 31
0.0
1001
PHOENIX7010
1002
{
1070
    62
1070
     1
1070
    41
1040
1.0
1002
}
  0
LINE
  5
DFE
102
{ACAD_REACTORS
330
E04
102
}
330
18
100
AcDbEntity
  8
0
  6
Continuous
 62
     3
100
AcDbLine
 10
19.0
 20
4.0
 30
0.0
 11
19.0
 21
291.0
 31
0.0
1001
PHOENIX7010
1002
{
1070
    62
1070
     3
1070
    41
1040
1.0
1002
}
  0
LINE
  5
DFF
102
{ACAD_REACTORS
330
E04
102
}
330
18
100
AcDbEntity
  8
0
  6
Continuous
 62
     3
100
AcDbLine
 10
19.0
 20
291.0
 30
0.0
 11
414.0
 21
291.0
 31
0.0
1001
PHOENIX7010
1002
{
1070
    62
1070
     3
1070
    41
1040
1.0
1002
}
  0
LINE
  5
E00
102
{ACAD_REACTORS
330
E04
102
}
330
18
100
AcDbEntity
  8
0
  6
Continuous
 62
     3
100
AcDbLine
 10
414.0
 20
291.0
 30
0.0
 11
414.0
 21
4.0
 31
0.0
1001
PHOENIX7010
1002
{
1070
    62
1070
     3
1070
    41
1040
1.0
1002
}
  0
MTEXT
  5
E01
102
{ACAD_REACTORS
330
E04
102
}
330
18
100
AcDbEntity
  8
0
  6
Continuous
 62
     7
370
    50
100
AcDbMText
 10
18.70248718641096
 20
54.3935120791333
 30
0.0
 40
2.0
 41
0.0
 71
     7
 72
     5
  1
{\T1.1;\C1;"Schutzvermerk nach DIN ISO 16016 beachten" \Q20;"Please pay attention to copyright note DIN ISO 16016"}
 11
0.0000000000000002
 21
1.0
 31
0.0
 73
     1
 44
1.0
1001
PHOENIX7010
1002
{
1070
    41
1040
1.0
1002
}
1001
ACAD
1000
MTEXTBEGIN
1070
    73
1070
     1
1070
    44
1040
1.0
1070
    74
1070
     0
1000
MTEXTEND
  0
INSERT
  5
E02
102
{ACAD_REACTORS
330
E04
102
}
330
18
100
AcDbEntity
  8
0
  6
Continuous
 62
     1
100
AcDbBlockReference
  2
PH_GRPBLK
 10
229.0
 20
4.0
 30
0.0
1001
PHOENIX7010
1002
{
1070
    41
1040
1.0
1002
}
  0
HATCH
  5
E15
102
{ACAD_REACTORS
330
E69
102
}
330
18
100
AcDbEntity
  8
0
  6
Continuous
 62
     1
370
    25
100
AcDbHatch
 10
0.0
 20
0.0
 30
0.0
210
0.0
220
0.0
230
1.0
  2
_U
 70
     0
 71
     1
 91
        1
 92
        0
 93
        5
 72
     1
 10
406.4334749940256
 20
34.16453811398037
 11
399.7334749940256
 21
26.3645381139803
 72
     1
 10
399.7334749940255
 20
26.3645381139803
 11
411.7334749940255
 21
26.3645381139803
 72
     1
 10
411.7334749940255
 20
26.3645381139803
 11
411.7334749940256
 21
34.16453811398032
 72
     1
 10
411.7334749940255
 20
34.16453811398026
 11
406.4334749940255
 21
27.26453811398036
 72
     1
 10
406.4334749940256
 20
27.2645381139804
 11
406.4334749940255
 21
34.16453811398037
 97
        1
330
E59
 75
     0
 76
     0
 52
45.0
 41
0.1
 77
     0
 78
     1
 53
45.0
 43
-1.0
 44
-33.08885297207064
 45
-0.0707106781186548
 46
0.0707106781186548
 79
     0
 98
        1
 10
-1.0
 20
-33.08885297207064
1001
PHOENIX7010
1002
{
1070
    41
1040
1.0
1002
}
  0
HATCH
  5
E16
102
{ACAD_REACTORS
330
E69
102
}
330
18
100
AcDbEntity
  8
0
  6
Continuous
 62
     1
370
    25
100
AcDbHatch
 10
0.0
 20
0.0
 30
0.0
210
0.0
220
0.0
230
1.0
  2
_U
 70
     0
 71
     1
 91
        1
 92
        0
 93
        3
 72
     1
 10
398.8834749940255
 20
26.3645381139803
 11
398.8834749940255
 21
30.51453811398031
 72
     1
 10
398.8834749940255
 20
30.51453811398028
 11
403.0334749940254
 21
30.51453811398028
 72
     2
 10
398.8834749940255
 20
30.51453811398028
 40
4.149999999999977
 50
0.0000000000001962
 51
270.0
 73
     1
 97
        1
330
E5A
 75
     0
 76
     0
 52
45.0
 41
0.65
 77
     0
 78
     1
 53
45.0
 43
-1.0
 44
-33.08885297207064
 45
-0.4596194077712559
 46
0.459619407771256
 79
     0
 98
        1
 10
-1.0
 20
-33.08885297207064
1001
PHOENIX7010
1002
{
1070
    41
1040
1.0
1002
}
  0
LINE
  5
E17
102
{ACAD_REACTORS
330
E69
102
}
330
18
100
AcDbEntity
  8
0
  6
Continuous
 62
     7
370
    50
100
AcDbLine
 10
399.7334749940255
 20
26.3645381139803
 30
0.0
 11
411.7334749940255
 21
26.3645381139803
 31
0.0
1001
PHOENIX7010
1002
{
1070
    41
1040
1.0
1002
}
  0
LINE
  5
E18
102
{ACAD_REACTORS
330
E69
102
}
330
18
100
AcDbEntity
  8
0
  6
Continuous
 62
     7
370
    50
100
AcDbLine
 10
411.7334749940255
 20
26.3645381139803
 30
0.0
 11
411.7334749940255
 21
34.16453811398026
 31
0.0
1001
PHOENIX7010
1002
{
1070
    41
1040
1.0
1002
}
  0
LINE
  5
E19
102
{ACAD_REACTORS
330
E69
102
}
330
18
100
AcDbEntity
  8
0
  6
Continuous
 62
     7
370
    50
100
AcDbLine
 10
406.4334749940256
 20
27.26453811398028
 30
0.0
 11
406.4334749940256
 21
34.16453811398026
 31
0.0
1001
PHOENIX7010
1002
{
1070
    41
1040
1.0
1002
}
  0
LINE
  5
E1A
102
{ACAD_REACTORS
330
E69
102
}
330
18
100
AcDbEntity
  8
0
  6
Continuous
 62
     7
370
    50
100
AcDbLine
 10
406.4334749940256
 20
34.16453811398026
 30
0.0
 11
399.7334749940255
 21
26.3645381139803
 31
0.0
1001
PHOENIX7010
1002
{
1070
    41
1040
1.0
1002
}
  0
LINE
  5
E1B
102
{ACAD_REACTORS
330
E69
102
}
330
18
100
AcDbEntity
  8
0
  6
Continuous
 62
     7
370
    50
100
AcDbLine
 10
411.7334749940255
 20
34.16453811398026
 30
0.0
 11
406.4334749940256
 21
27.26453811398028
 31
0.0
1001
PHOENIX7010
1002
{
1070
    41
1040
1.0
1002
}
  0
INSERT
  5
E1C
102
{ACAD_REACTORS
330
E69
102
}
330
18
100
AcDbEntity
  8
0
  6
Continuous
 62
     1
370
    25
100
AcDbBlockReference
  2
PH_GRPBLK
 10
399.7334749940255
 20
26.3645381139803
 30
0.0
1001
PHOENIX7010
1002
{
1070
    41
1040
1.0
1002
}
  0
MTEXT
  5
E1D
102
{ACAD_REACTORS
330
E6A
102
}
330
18
100
AcDbEntity
  8
0
  6
Continuous
 62
     7
370
    50
100
AcDbMText
 10
380.0842366554657
 20
16.88346060003141
 30
0.0
 40
1.6
 41
0.0
 71
     7
 72
     5
  1
{\fArial|b0|i0|c0|p34;\W1.1;\C1;A Phoenix Mecano Company}
 73
     1
 44
1.0
1001
PHOENIX7010
1002
{
1070
    41
1040
1.0
1002
}
1001
ACAD
1000
MTEXTBEGIN
1070
    73
1070
     1
1070
    44
1040
1.0
1070
    74
1070
     0
1000
MTEXTEND
  0
MTEXT
  5
E1E
102
{ACAD_XDICTIONARY
360
EB3
102
}
102
{ACAD_REACTORS
330
E6A
102
}
330
18
100
AcDbEntity
  8
0
  6
Continuous
 62
     7
370
    50
100
AcDbMText
 10
392.5658807175858
 20
20.46517927327727
 30
0.0
 40
3.7
 41
0.0
 71
     7
 72
     5
  1
{\fArial|b1|i0|c0|p34;\W1.1;BOPLA}
 73
     1
 44
1.135135135135135
1001
PHOENIX7010
1002
{
1070
    41
1040
1.0
1002
}
1001
ACAD
1000
MTEXTBEGIN
1070
    73
1070
     1
1070
    44
1040
1.135135135135135
1070
    74
1070
     0
1000
MTEXTEND
  0
INSERT
  5
E1F
102
{ACAD_REACTORS
330
E6A
102
}
330
18
100
AcDbEntity
  8
0
  6
Continuous
 62
     7
370
    50
100
AcDbBlockReference
  2
PH_GRPBLK
 10
399.7334749940255
 20
26.3645381139803
 30
0.0
1001
PHOENIX7010
1002
{
1070
    41
1040
1.0
1002
}
  0
MTEXT
  5
E20
102
{ACAD_REACTORS
330
E6B
102
}
330
18
100
AcDbEntity
  8
0
  6
Continuous
 62
     5
370
    35
100
AcDbMText
 10
317.9304981780733
 20
51.18090043987115
 30
0.0
 40
3.5
 41
0.0
 71
     7
 72
     5
  1
{\C7;Katalogzeichnung/\Q20;Catalogue drawing}
 73
     1
 44
1.0
1001
PHOENIX7010
1002
{
1070
    41
1040
1.0
1002
}
1001
ACAD
1000
MTEXTBEGIN
1070
    73
1070
     1
1070
    44
1040
1.0
1070
    74
1070
     0
1000
MTEXTEND
  0
MTEXT
  5
E21
102
{ACAD_REACTORS
330
E6B
102
}
330
18
100
AcDbEntity
  8
0
  6
Continuous
 62
     5
370
    35
100
AcDbMText
 10
317.9304981780733
 20
58.18090043987115
 30
0.0
 40
4.0
 41
0.0
 71
     7
 72
     5
  1
{\C7;BSW/M . . 600}
 73
     1
 44
1.0
1001
PHOENIX7010
1002
{
1070
    41
1040
1.0
1002
}
1001
ACAD
1000
MTEXTBEGIN
1070
    73
1070
     1
1070
    44
1040
1.0
1070
    74
1070
     0
1000
MTEXTEND
  0
MTEXT
  5
E22
102
{ACAD_REACTORS
330
E6B
102
}
330
18
100
AcDbEntity
  8
0
  6
Continuous
 62
     5
370
    35
100
AcDbMText
 10
317.9304981780733
 20
65.18090043987115
 30
0.0
 40
4.0
 41
0.0
 71
     7
 72
     5
  1
{\C7;Interzoll Modul}
 73
     1
 44
1.0
1001
PHOENIX7010
1002
{
1070
    41
1040
1.0
1002
}
1001
ACAD
1000
MTEXTBEGIN
1070
    73
1070
     1
1070
    44
1040
1.0
1070
    74
1070
     0
1000
MTEXTEND
  0
MTEXT
  5
E23
102
{ACAD_REACTORS
330
E6B
102
}
330
18
100
AcDbEntity
  8
0
  6
Continuous
 62
     5
370
    35
100
AcDbMText
 10
339.3074630969179
 20
94.1987580068236
 30
0.0
 40
4.0
 41
0.0
 71
     7
 72
     5
  1
{\C7;-}
 73
     1
 44
1.0
1001
PHOENIX7010
1002
{
1070
    41
1040
1.0
1002
}
1001
ACAD
1000
MTEXTBEGIN
1070
    73
1070
     1
1070
    44
1040
1.0
1070
    74
1070
     0
1000
MTEXTEND
  0
MTEXT
  5
E24
102
{ACAD_REACTORS
330
E6B
102
}
330
18
100
AcDbEntity
  8
0
  6
Continuous
 62
     5
370
    35
100
AcDbMText
 10
318.2942762589885
 20
93.24669079255102
 30
0.0
 40
2.5
 41
0.0
 71
     7
 72
     5
  1
{\C1;Maßstab/\P\Q20;Scale:}
 73
     1
 44
1.0
1001
PHOENIX7010
1002
{
1070
    41
1040
1.0
1002
}
1001
ACAD
1000
MTEXTBEGIN
1070
    73
1070
     1
1070
    44
1040
1.0
1070
    74
1070
     0
1000
MTEXTEND
  0
MTEXT
  5
E25
102
{ACAD_REACTORS
330
E6B
102
}
330
18
100
AcDbEntity
  8
0
  6
Continuous
 62
     5
370
    35
100
AcDbMText
 10
318.5702130763932
 20
85.57846179300588
 30
0.0
 40
3.0
 41
0.0
 71
     7
 72
     5
  1
Zeichnungs-Nr. / {\Q20;Drawing-No.:}
 73
     1
 44
1.0
1001
PHOENIX7010
1002
{
1070
    41
1040
1.0
1002
}
1001
ACAD
1000
MTEXTBEGIN
1070
    73
1070
     1
1070
    44
1040
1.0
1070
    74
1070
     0
1000
MTEXTEND
  0
MTEXT
  5
E26
102
{ACAD_REACTORS
330
E6B
102
}
330
18
100
AcDbEntity
  8
0
  6
Continuous
 62
     5
370
    35
100
AcDbMText
 10
339.6810942169352
 20
79.43630467405558
 30
0.0
 40
4.0
 41
0.0
 71
     7
 72
     5
  1
{\C7;3K 5315.039.01}
 73
     1
 44
1.0
1001
PHOENIX7010
1002
{
1070
    41
1040
1.0
1002
}
1001
ACAD
1000
MTEXTBEGIN
1070
    73
1070
     1
1070
    44
1040
1.0
1070
    74
1070
     0
1000
MTEXTEND
  0
MTEXT
  5
E27
102
{ACAD_REACTORS
330
E6B
102
}
330
18
100
AcDbEntity
  8
0
  6
Continuous
 62
     5
370
    35
100
AcDbMText
 10
317.8800602381664
 20
71.42896167163701
 30
0.0
 40
4.0
 41
0.0
 71
     7
 72
     5
  1
{\C7;Artikel / \Q20;Article:}
 73
     1
 44
1.0
1001
PHOENIX7010
1002
{
1070
    41
1040
1.0
1002
}
1001
ACAD
1000
MTEXTBEGIN
1070
    73
1070
     1
1070
    44
1040
1.0
1070
    74
1070
     0
1000
MTEXTEND
  0
MTEXT
  5
E28
102
{ACAD_REACTORS
330
E6B
102
}
330
18
100
AcDbEntity
  8
0
  6
Continuous
 62
     5
370
    35
100
AcDbMText
 10
328.5918340418987
 20
14.32304279191078
 30
0.0
 40
2.0
 41
0.0
 71
     7
 72
     5
  1
{\C1;Datum/\P\Q20;Date:}
 73
     1
 44
1.0
1001
PHOENIX7010
1002
{
1070
    41
1040
1.0
1002
}
1001
ACAD
1000
MTEXTBEGIN
1070
    73
1070
     1
1070
    44
1040
1.0
1070
    74
1070
     0
1000
MTEXTEND
  0
MTEXT
  5
E29
102
{ACAD_REACTORS
330
E6B
102
}
330
18
100
AcDbEntity
  8
0
  6
Continuous
 62
     5
370
    35
100
AcDbMText
 10
315.167758256943
 20
14.32303913053613
 30
0.0
 40
2.0
 41
0.0
 71
     7
 72
     5
  1
{\C1;Ä.Nr/\P\Q20;Alt-No.:}
 73
     1
 44
1.0
1001
PHOENIX7010
1002
{
1070
    41
1040
1.0
1002
}
1001
ACAD
1000
MTEXTBEGIN
1070
    73
1070
     1
1070
    44
1040
1.0
1070
    74
1070
     0
1000
MTEXTEND
  0
MTEXT
  5
E2A
102
{ACAD_REACTORS
330
E6B
102
}
330
18
100
AcDbEntity
  8
0
  6
Continuous
 62
     5
370
    35
100
AcDbMText
 10
341.2178658257174
 20
9.605921666139238
 30
0.0
 40
2.5
 41
0.0
 71
     7
 72
     5
  1
2 901 849
 73
     1
 44
1.0
1001
PHOENIX7010
1002
{
1070
    41
1040
1.0
1002
}
1001
ACAD
1000
MTEXTBEGIN
1070
    73
1070
     1
1070
    44
1040
1.0
1070
    74
1070
     0
1000
MTEXTEND
  0
MTEXT
  5
E2B
102
{ACAD_REACTORS
330
E6B
102
}
330
18
100
AcDbEntity
  8
0
  6
Continuous
 62
     5
370
    35
100
AcDbMText
 10
315.5289912646938
 20
9.494755270981045
 30
0.0
 40
2.5
 41
0.0
 71
     7
 72
     5
  1
DISK:
 73
     1
 44
1.0
1001
PHOENIX7010
1002
{
1070
    41
1040
1.0
1002
}
1001
ACAD
1000
MTEXTBEGIN
1070
    73
1070
     1
1070
    44
1040
1.0
1070
    74
1070
     0
1000
MTEXTEND
  0
MTEXT
  5
E2C
102
{ACAD_REACTORS
330
E6B
102
}
330
18
100
AcDbEntity
  8
0
  6
Continuous
 62
     5
370
    35
100
AcDbMText
 10
341.2178658257174
 20
5.24888752318759
 30
0.0
 40
2.5
 41
0.0
 71
     7
 72
     5
  1
18.06.99 HR
 73
     1
 44
1.0
1001
PHOENIX7010
1002
{
1070
    41
1040
1.0
1002
}
1001
ACAD
1000
MTEXTBEGIN
1070
    73
1070
     1
1070
    44
1040
1.0
1070
    74
1070
     0
1000
MTEXTEND
  0
MTEXT
  5
E2D
102
{ACAD_REACTORS
330
E6B
102
}
330
18
100
AcDbEntity
  8
0
  6
Continuous
 62
     5
370
    35
100
AcDbMText
 10
315.5289912646938
 20
5.24888752318759
 30
0.0
 40
2.5
 41
0.0
 71
     7
 72
     5
  1
Datum/{\Q20;Date:}
 73
     1
 44
1.0
1001
PHOENIX7010
1002
{
1070
    41
1040
1.0
1002
}
1001
ACAD
1000
MTEXTBEGIN
1070
    73
1070
     1
1070
    44
1040
1.0
1070
    74
1070
     0
1000
MTEXTEND
  0
LINE
  5
E2E
102
{ACAD_REACTORS
330
E6B
102
}
330
18
100
AcDbEntity
  8
0
  6
Continuous
 62
     5
370
    35
100
AcDbLine
 10
313.9999999999998
 20
13.50000000000011
 30
0.0
 11
414.0
 21
13.50000000000011
 31
0.0
1001
PHOENIX7010
1002
{
1070
    41
1040
1.0
1002
}
  0
LINE
  5
E2F
102
{ACAD_REACTORS
330
E6B
102
}
330
18
100
AcDbEntity
  8
0
  6
Continuous
 62
     5
100
AcDbLine
 10
404.4999999999998
 20
91.5
 30
0.0
 11
404.4999999999998
 21
98.50000000000001
 31
0.0
1001
PHOENIX7010
1002
{
1070
    62
1070
     5
1070
    41
1040
1.0
1002
}
  0
LINE
  5
E30
102
{ACAD_REACTORS
330
E6B
102
}
330
18
100
AcDbEntity
  8
0
  6
ACAD_ISO04W100
 62
     1
 48
0.1451612903225806
100
AcDbLine
 10
409.4999999999997
 20
90.5
 30
0.0
 11
409.4999999999997
 21
99.50000000000001
 31
0.0
1001
PHOENIX7010
1002
{
1070
    62
1070
     1
1070
    41
1040
1.0
1002
}
  0
CIRCLE
  5
E31
102
{ACAD_REACTORS
330
E6B
102
}
330
18
100
AcDbEntity
  8
0
  6
Continuous
 62
     5
100
AcDbCircle
 10
409.4999999999997
 20
95.0
 30
0.0
 40
1.75
1001
PHOENIX7010
1002
{
1070
    62
1070
     5
1070
    41
1040
1.0
1002
}
  0
CIRCLE
  5
E32
102
{ACAD_REACTORS
330
E6B
102
}
330
18
100
AcDbEntity
  8
0
  6
Continuous
 62
     5
100
AcDbCircle
 10
409.4999999999997
 20
95.0
 30
0.0
 40
3.5
1001
PHOENIX7010
1002
{
1070
    62
1070
     5
1070
    41
1040
1.0
1002
}
  0
LINE
  5
E33
102
{ACAD_REACTORS
330
E6B
102
}
330
18
100
AcDbEntity
  8
0
  6
Continuous
 62
     5
100
AcDbLine
 10
397.4999999999998
 20
93.25000000000001
 30
0.0
 11
397.4999999999998
 21
96.75
 31
0.0
1001
PHOENIX7010
1002
{
1070
    62
1070
     5
1070
    41
1040
1.0
1002
}
  0
LINE
  5
E34
102
{ACAD_REACTORS
330
E6B
102
}
330
18
100
AcDbEntity
  8
0
  6
ACAD_ISO04W100
 62
     1
 48
0.282258064516129
100
AcDbLine
 10
413.9999999999997
 20
95.0
 30
0.0
 11
396.4999999999998
 21
95.0
 31
0.0
1001
PHOENIX7010
1002
{
1070
    62
1070
     1
1070
    41
1040
1.0
1002
}
  0
LINE
  5
E35
102
{ACAD_REACTORS
330
E6B
102
}
330
18
100
AcDbEntity
  8
0
  6
Continuous
 62
     5
100
AcDbLine
 10
404.4999999999998
 20
91.5
 30
0.0
 11
397.4999999999998
 21
93.25000000000001
 31
0.0
1001
PHOENIX7010
1002
{
1070
    62
1070
     5
1070
    41
1040
1.0
1002
}
  0
LINE
  5
E36
102
{ACAD_REACTORS
330
E6B
102
}
330
18
100
AcDbEntity
  8
0
  6
Continuous
 62
     5
100
AcDbLine
 10
404.4999999999998
 20
98.50000000000001
 30
0.0
 11
397.4999999999998
 21
96.75
 31
0.0
1001
PHOENIX7010
1002
{
1070
    62
1070
     5
1070
    41
1040
1.0
1002
}
  0
ARC
  5
E37
102
{ACAD_REACTORS
330
E6B
102
}
330
18
100
AcDbEntity
  8
0
  6
Continuous
 62
     5
100
AcDbCircle
 10
316.4999999999998
 20
88.0
 30
0.0
 40
2.5
100
AcDbArc
 50
90.0
 51
180.0
1001
PHOENIX7010
1002
{
1070
    62
1070
     5
1070
    41
1040
1.0
1002
}
  0
ARC
  5
E38
102
{ACAD_REACTORS
330
E6B
102
}
330
18
100
AcDbEntity
  8
0
  6
Continuous
 62
     5
100
AcDbCircle
 10
316.4999999999998
 20
99.0
 30
0.0
 40
2.5
100
AcDbArc
 50
90.0
 51
180.0
1001
PHOENIX7010
1002
{
1070
    62
1070
     5
1070
    41
1040
1.0
1002
}
  0
LINE
  5
E39
102
{ACAD_REACTORS
330
E6B
102
}
330
18
100
AcDbEntity
  8
0
  6
Continuous
 62
     5
100
AcDbLine
 10
414.0
 20
90.5
 30
0.0
 11
316.4999999999998
 21
90.5
 31
0.0
1001
PHOENIX7010
1002
{
1070
    62
1070
     5
1070
    41
1040
1.0
1002
}
  0
LINE
  5
E3A
102
{ACAD_REACTORS
330
E6B
102
}
330
18
100
AcDbEntity
  8
0
  6
Continuous
 62
     5
100
AcDbLine
 10
414.0
 20
101.5
 30
0.0
 11
316.4999999999998
 21
101.5
 31
0.0
1001
PHOENIX7010
1002
{
1070
    62
1070
     5
1070
    41
1040
1.0
1002
}
  0
LINE
  5
E3B
102
{ACAD_REACTORS
330
E6B
102
}
330
18
100
AcDbEntity
  8
0
  6
Continuous
 62
     5
100
AcDbLine
 10
349.0
 20
47.00000000000011
 30
0.0
 11
349.0
 21
13.50000000000011
 31
0.0
1001
PHOENIX7010
1002
{
1070
    62
1070
     5
1070
    41
1040
1.0
1002
}
  0
TEXT
  5
E3C
102
{ACAD_REACTORS
330
E6B
102
}
330
18
100
AcDbEntity
  8
0
  6
Continuous
 62
     1
100
AcDbText
 10
327.9999996997324
 20
41.74999981501355
 30
0.0
 40
2.0
  1
-
 41
1.5
100
AcDbText
1001
PHOENIX7010
1002
{
1070
    62
1070
     1
1070
    41
1040
1.0
1002
}
  0
TEXT
  5
E3D
102
{ACAD_REACTORS
330
E6B
102
}
330
18
100
AcDbEntity
  8
0
  6
Continuous
 62
     1
100
AcDbText
 10
327.9999996997324
 20
39.24999981501355
 30
0.0
 40
2.0
  1
-
 41
1.5
100
AcDbText
1001
PHOENIX7010
1002
{
1070
    62
1070
     1
1070
    41
1040
1.0
1002
}
  0
TEXT
  5
E3E
102
{ACAD_REACTORS
330
E6B
102
}
330
18
100
AcDbEntity
  8
0
  6
Continuous
 62
     1
100
AcDbText
 10
327.9999996997324
 20
44.24999981501355
 30
0.0
 40
2.0
  1
-
 41
1.5
100
AcDbText
1001
PHOENIX7010
1002
{
1070
    62
1070
     1
1070
    41
1040
1.0
1002
}
  0
TEXT
  5
E3F
102
{ACAD_REACTORS
330
E6B
102
}
330
18
100
AcDbEntity
  8
0
  6
Continuous
 62
     1
100
AcDbText
 10
314.9999996997324
 20
41.74999981501355
 30
0.0
 40
2.0
  1
-
 41
1.5
100
AcDbText
1001
PHOENIX7010
1002
{
1070
    62
1070
     1
1070
    41
1040
1.0
1002
}
  0
TEXT
  5
E40
102
{ACAD_REACTORS
330
E6B
102
}
330
18
100
AcDbEntity
  8
0
  6
Continuous
 62
     1
100
AcDbText
 10
314.9999996997324
 20
39.24999981501355
 30
0.0
 40
2.0
  1
-
 41
1.5
100
AcDbText
1001
PHOENIX7010
1002
{
1070
    62
1070
     1
1070
    41
1040
1.0
1002
}
  0
TEXT
  5
E41
102
{ACAD_REACTORS
330
E6B
102
}
330
18
100
AcDbEntity
  8
0
  6
Continuous
 62
     1
100
AcDbText
 10
314.9999996997324
 20
44.24999981501355
 30
0.0
 40
2.0
  1
-
 41
1.5
100
AcDbText
1001
PHOENIX7010
1002
{
1070
    62
1070
     1
1070
    41
1040
1.0
1002
}
  0
ARC
  5
E42
102
{ACAD_REACTORS
330
E6B
102
}
330
18
100
AcDbEntity
  8
0
  6
Continuous
 62
     5
100
AcDbCircle
 10
316.4999999999998
 20
44.50000000000011
 30
0.0
 40
2.5
100
AcDbArc
 50
90.0
 51
180.0
1001
PHOENIX7010
1002
{
1070
    62
1070
     5
1070
    41
1040
1.0
1002
}
  0
ARC
  5
E43
102
{ACAD_REACTORS
330
E6B
102
}
330
18
100
AcDbEntity
  8
0
  6
Continuous
 62
     5
100
AcDbCircle
 10
316.4999999999998
 20
75.00000000000011
 30
0.0
 40
2.5
100
AcDbArc
 50
90.0
 51
180.0
1001
PHOENIX7010
1002
{
1070
    62
1070
     5
1070
    41
1040
1.0
1002
}
  0
TEXT
  5
E44
102
{ACAD_REACTORS
330
E6B
102
}
330
18
100
AcDbEntity
  8
0
  6
Continuous
 62
     1
100
AcDbText
 10
327.9999996997324
 20
24.24999981501355
 30
0.0
 40
2.0
  1
-
 41
1.5
100
AcDbText
1001
PHOENIX7010
1002
{
1070
    62
1070
     1
1070
    41
1040
1.0
1002
}
  0
TEXT
  5
E45
102
{ACAD_REACTORS
330
E6B
102
}
330
18
100
AcDbEntity
  8
0
  6
Continuous
 62
     1
100
AcDbText
 10
327.9999996997324
 20
21.74999981501355
 30
0.0
 40
2.0
  1
-
 41
1.5
100
AcDbText
1001
PHOENIX7010
1002
{
1070
    62
1070
     1
1070
    41
1040
1.0
1002
}
  0
TEXT
  5
E46
102
{ACAD_REACTORS
330
E6B
102
}
330
18
100
AcDbEntity
  8
0
  6
Continuous
 62
     1
100
AcDbText
 10
327.9999996997324
 20
29.24999981501355
 30
0.0
 40
2.0
  1
-
 41
1.5
100
AcDbText
1001
PHOENIX7010
1002
{
1070
    62
1070
     1
1070
    41
1040
1.0
1002
}
  0
TEXT
  5
E47
102
{ACAD_REACTORS
330
E6B
102
}
330
18
100
AcDbEntity
  8
0
  6
Continuous
 62
     1
100
AcDbText
 10
327.9999996997324
 20
26.74999981501355
 30
0.0
 40
2.0
  1
-
 41
1.5
100
AcDbText
1001
PHOENIX7010
1002
{
1070
    62
1070
     1
1070
    41
1040
1.0
1002
}
  0
TEXT
  5
E48
102
{ACAD_REACTORS
330
E6B
102
}
330
18
100
AcDbEntity
  8
0
  6
Continuous
 62
     1
100
AcDbText
 10
327.9999996997324
 20
31.74999981501355
 30
0.0
 40
2.0
  1
-
 41
1.5
100
AcDbText
1001
PHOENIX7010
1002
{
1070
    62
1070
     1
1070
    41
1040
1.0
1002
}
  0
TEXT
  5
E49
102
{ACAD_REACTORS
330
E6B
102
}
330
18
100
AcDbEntity
  8
0
  6
Continuous
 62
     1
100
AcDbText
 10
327.9999996997324
 20
34.24999981501355
 30
0.0
 40
2.0
  1
-
 41
1.5
100
AcDbText
1001
PHOENIX7010
1002
{
1070
    62
1070
     1
1070
    41
1040
1.0
1002
}
  0
TEXT
  5
E4A
102
{ACAD_REACTORS
330
E6B
102
}
330
18
100
AcDbEntity
  8
0
  6
Continuous
 62
     1
100
AcDbText
 10
327.9999996997324
 20
36.74999981501355
 30
0.0
 40
2.0
  1
-
 41
1.5
100
AcDbText
1001
PHOENIX7010
1002
{
1070
    62
1070
     1
1070
    41
1040
1.0
1002
}
  0
TEXT
  5
E4B
102
{ACAD_REACTORS
330
E6B
102
}
330
18
100
AcDbEntity
  8
0
  6
Continuous
 62
     1
100
AcDbText
 10
314.9999996997324
 20
24.24999981501355
 30
0.0
 40
2.0
  1
-
 41
1.5
100
AcDbText
1001
PHOENIX7010
1002
{
1070
    62
1070
     1
1070
    41
1040
1.0
1002
}
  0
TEXT
  5
E4C
102
{ACAD_REACTORS
330
E6B
102
}
330
18
100
AcDbEntity
  8
0
  6
Continuous
 62
     1
100
AcDbText
 10
314.9999996997324
 20
21.74999981501355
 30
0.0
 40
2.0
  1
-
 41
1.5
100
AcDbText
1001
PHOENIX7010
1002
{
1070
    62
1070
     1
1070
    41
1040
1.0
1002
}
  0
TEXT
  5
E4D
102
{ACAD_REACTORS
330
E6B
102
}
330
18
100
AcDbEntity
  8
0
  6
Continuous
 62
     1
100
AcDbText
 10
314.9999996997324
 20
29.24999981501355
 30
0.0
 40
2.0
  1
-
 41
1.5
100
AcDbText
1001
PHOENIX7010
1002
{
1070
    62
1070
     1
1070
    41
1040
1.0
1002
}
  0
TEXT
  5
E4E
102
{ACAD_REACTORS
330
E6B
102
}
330
18
100
AcDbEntity
  8
0
  6
Continuous
 62
     1
100
AcDbText
 10
314.9999996997324
 20
26.74999981501355
 30
0.0
 40
2.0
  1
-
 41
1.5
100
AcDbText
1001
PHOENIX7010
1002
{
1070
    62
1070
     1
1070
    41
1040
1.0
1002
}
  0
TEXT
  5
E4F
102
{ACAD_REACTORS
330
E6B
102
}
330
18
100
AcDbEntity
  8
0
  6
Continuous
 62
     1
100
AcDbText
 10
314.9999996997324
 20
31.74999981501355
 30
0.0
 40
2.0
  1
-
 41
1.5
100
AcDbText
1001
PHOENIX7010
1002
{
1070
    62
1070
     1
1070
    41
1040
1.0
1002
}
  0
TEXT
  5
E50
102
{ACAD_REACTORS
330
E6B
102
}
330
18
100
AcDbEntity
  8
0
  6
Continuous
 62
     1
100
AcDbText
 10
314.9999996997324
 20
34.24999981501355
 30
0.0
 40
2.0
  1
-
 41
1.5
100
AcDbText
1001
PHOENIX7010
1002
{
1070
    62
1070
     1
1070
    41
1040
1.0
1002
}
  0
TEXT
  5
E51
102
{ACAD_REACTORS
330
E6B
102
}
330
18
100
AcDbEntity
  8
0
  6
Continuous
 62
     1
100
AcDbText
 10
314.9999996997324
 20
36.74999981501355
 30
0.0
 40
2.0
  1
-
 41
1.5
100
AcDbText
1001
PHOENIX7010
1002
{
1070
    62
1070
     1
1070
    41
1040
1.0
1002
}
  0
LINE
  5
E52
102
{ACAD_REACTORS
330
E6B
102
}
330
18
100
AcDbEntity
  8
0
  6
Continuous
 62
     1
100
AcDbLine
 10
326.9999999999998
 20
47.00000000000011
 30
0.0
 11
326.9999999999998
 21
13.50000000000011
 31
0.0
1001
PHOENIX7010
1002
{
1070
    62
1070
     1
1070
    41
1040
1.0
1002
}
  0
LINE
  5
E53
102
{ACAD_REACTORS
330
E6B
102
}
330
18
100
AcDbEntity
  8
0
  6
Continuous
 62
     1
100
AcDbLine
 10
313.9999999999998
 20
20.50000000000011
 30
0.0
 11
349.0
 21
20.50000000000011
 31
0.0
1001
PHOENIX7010
1002
{
1070
    62
1070
     1
1070
    41
1040
1.0
1002
}
  0
LINE
  5
E54
102
{ACAD_REACTORS
330
E6B
102
}
330
18
100
AcDbEntity
  8
0
  6
Continuous
 62
     5
100
AcDbLine
 10
414.0
 20
77.50000000000011
 30
0.0
 11
316.4999999999998
 21
77.50000000000011
 31
0.0
1001
PHOENIX7010
1002
{
1070
    62
1070
     5
1070
    41
1040
1.0
1002
}
  0
LINE
  5
E55
102
{ACAD_REACTORS
330
E6B
102
}
330
18
100
AcDbEntity
  8
0
  6
Continuous
 62
     5
100
AcDbLine
 10
414.0
 20
47.00000000000011
 30
0.0
 11
316.4999999999998
 21
47.00000000000011
 31
0.0
1001
PHOENIX7010
1002
{
1070
    62
1070
     5
1070
    41
1040
1.0
1002
}
  0
LINE
  5
E56
102
{ACAD_REACTORS
330
E6B
102
}
330
18
100
AcDbEntity
  8
0
  6
Continuous
 62
     5
100
AcDbLine
 10
313.9999999999998
 20
99.0
 30
0.0
 11
313.9999999999998
 21
4.000000000000113
 31
0.0
1001
PHOENIX7010
1002
{
1070
    62
1070
     5
1070
    41
1040
1.0
1002
}
  0
INSERT
  5
E57
102
{ACAD_REACTORS
330
E6B
102
}
330
18
100
AcDbEntity
  8
0
  6
Continuous
 62
     5
370
    35
100
AcDbBlockReference
  2
PH_GRPBLK
 10
313.9999999999998
 20
13.50000000000011
 30
0.0
1001
PHOENIX7010
1002
{
1070
    41
1040
1.0
1002
}
  0
LWPOLYLINE
  5
E59
102
{ACAD_REACTORS
330
E15
102
}
330
18
100
AcDbEntity
  8
0
  6
Continuous
 62
     7
 60
     1
370
    50
100
AcDbPolyline
 90
        5
 70
     1
 43
0.0
 10
406.4334749940256
 20
34.16453811398037
 10
399.7334749940255
 20
26.3645381139803
 10
411.7334749940255
 20
26.3645381139803
 10
411.7334749940255
 20
34.16453811398026
 10
406.4334749940256
 20
27.2645381139804
1001
PHOENIX7010
1002
{
1070
    41
1040
1.0
1002
}
  0
LWPOLYLINE
  5
E5A
102
{ACAD_REACTORS
330
E16
102
}
330
18
100
AcDbEntity
  8
0
  6
Continuous
 62
     7
 60
     1
370
    50
100
AcDbPolyline
 90
        3
 70
     1
 43
0.0
 10
398.8834749940255
 20
26.3645381139803
 10
398.8834749940255
 20
30.51453811398028
 10
403.0334749940254
 20
30.51453811398028
 42
2.414213562373094
1001
PHOENIX7010
1002
{
1070
    41
1040
1.0
1002
}
  0
ENDSEC
  0
SECTION
  2
OBJECTS
  0
DICTIONARY
  5
C
330
0
100
AcDbDictionary
281
     1
  3
ACAD_COLOR
350
DD7
  3
ACAD_GROUP
350
D
  3
ACAD_LAYOUT
350
DEE
  3
ACAD_MATERIAL
350
DAA
  3
ACAD_MLEADERSTYLE
350
DEC
  3
ACAD_MLINESTYLE
350
1B
  3
ACAD_PLOTSETTINGS
350
DEF
  3
ACAD_PLOTSTYLENAME
350
DA8
  3
ACAD_SCALELIST
350
DDA
  3
ACAD_TABLESTYLE
350
DD8
  3
ACAD_VISUALSTYLE
350
DC3
  3
ACDB_RECOMPOSE_DATA
350
EB5
  3
AcDbVariableDictionary
350
E95
  3
DWGPROPS
350
EB6
  3
PH_OBJREACTOR_DICT
350
26F
  3
PH_ROOTGROUP_DICT
350
265
  3
PH_VARS
350
264
  0
DICTIONARY
  5
E05
330
2
100
AcDbDictionary
280
     1
281
     1
  3
ACAD_LAYERSTATES
360
E06
  0
DICTIONARY
  5
E73
330
E
100
AcDbDictionary
280
     1
281
     1
  3
ADSK_XREC_LAYER_RECONCILED
360
E74
  0
DICTIONARY
  5
E75
330
27D
100
AcDbDictionary
280
     1
281
     1
  3
ADSK_XREC_LAYER_RECONCILED
360
E76
  0
DICTIONARY
  5
EB3
330
E1E
100
AcDbDictionary
280
     1
281
     1
  3
ACAD_MTEXT_2008_RT
360
EB4
  0
DICTIONARY
  5
DD7
102
{ACAD_REACTORS
330
C
102
}
330
C
100
AcDbDictionary
281
     1
  0
DICTIONARY
  5
D
102
{ACAD_REACTORS
330
C
102
}
330
C
100
AcDbDictionary
281
     1
  3
*A1
350
3D4
  3
*A10
350
A08
  3
*A11
350
A09
  3
*A12
350
691
  3
*A13
350
A0A
  3
*A14
350
A0B
  3
*A15
350
A0C
  3
*A16
350
3DE
  3
*A17
350
A0D
  3
*A18
350
A0E
  3
*A19
350
A0F
  3
*A2
350
698
  3
*A20
350
3D9
  3
*A21
350
A10
  3
*A22
350
A11
  3
*A23
350
692
  3
*A24
350
A12
  3
*A25
350
A13
  3
*A26
350
A14
  3
*A27
350
A15
  3
*A28
350
3DF
  3
*A29
350
A16
  3
*A3
350
699
  3
*A30
350
A17
  3
*A31
350
A18
  3
*A32
350
A19
  3
*A33
350
3DA
  3
*A34
350
3D5
  3
*A35
350
A1A
  3
*A36
350
A1B
  3
*A37
350
A1C
  3
*A38
350
A1D
  3
*A39
350
A1E
  3
*A4
350
3DD
  3
*A40
350
3E0
  3
*A41
350
A1F
  3
*A42
350
A20
  3
*A43
350
A21
  3
*A44
350
A22
  3
*A45
350
693
  3
*A46
350
A23
  3
*A47
350
3DB
  3
*A48
350
A24
  3
*A49
350
A25
  3
*A5
350
3D6
  3
*A50
350
A26
  3
*A51
350
3DC
  3
*A52
350
68D
  3
*A53
350
68E
  3
*A54
350
68F
  3
*A55
350
690
  3
*A56
350
694
  3
*A57
350
695
  3
*A58
350
696
  3
*A59
350
697
  3
*A6
350
3D7
  3
*A7
350
3D8
  3
*A8
350
A06
  3
*A9
350
A07
  3
_GF_XXXX
350
13C
  3
_MD_XXXX
350
88
  3
_VV_XXXX
350
209
  3
_ZU_XXXX
350
25C
  3
DINA4H
350
20
  3
V11$00009
350
62
  3
V11$00010
350
64
  3
V11$00012
350
6D
  3
V11$00016
350
89
  3
V11$00017
350
8F
  3
V11$00018
350
94
  3
V11$00019
350
95
  3
V11$00022
350
A1
  3
V11$00023
350
A4
  3
V11$00030
350
13D
  3
V11$00031
350
14D
  3
V11$00032
350
14E
  3
V11$00049
350
18F
  3
V11$00058
350
1B8
  3
V11$00067
350
1E1
  3
V11$00076
350
20A
  3
V11$00077
350
21A
  3
V11$00078
350
21B
  0
DICTIONARY
  5
DEE
102
{ACAD_REACTORS
330
C
102
}
330
C
100
AcDbDictionary
281
     1
  3
Layout1
350
DF1
  3
Model
350
DF0
  0
DICTIONARY
  5
DAA
102
{ACAD_REACTORS
330
C
102
}
330
C
100
AcDbDictionary
281
     1
  3
ByBlock
350
DB3
  3
ByLayer
350
DAB
  3
Global
350
DBB
  0
DICTIONARY
  5
DEC
102
{ACAD_REACTORS
330
C
102
}
330
C
100
AcDbDictionary
281
     1
  3
Standard
350
DED
  0
DICTIONARY
  5
1B
102
{ACAD_REACTORS
330
C
102
}
330
C
100
AcDbDictionary
281
     1
  3
STANDARD
350
1C
  0
DICTIONARY
  5
DEF
102
{ACAD_REACTORS
330
C
102
}
330
C
100
AcDbDictionary
281
     1
  0
ACDBDICTIONARYWDFLT
  5
DA8
102
{ACAD_REACTORS
330
C
102
}
330
C
100
AcDbDictionary
281
     1
  3
Normal
350
DA9
100
AcDbDictionaryWithDefault
340
DA9
  0
DICTIONARY
  5
DDA
102
{ACAD_REACTORS
330
C
102
}
330
C
100
AcDbDictionary
281
     1
  3
A0
350
DDB
  3
A1
350
DDC
  3
A2
350
DDD
  3
A3
350
DDE
  3
A4
350
DDF
  3
A5
350
DE0
  3
A6
350
DE1
  3
A7
350
DE2
  3
A8
350
DE3
  3
A9
350
DE4
  3
B0
350
DE5
  3
B1
350
DE6
  3
B2
350
DE7
  3
B3
350
DE8
  3
B4
350
DE9
  3
B5
350
DEA
  3
B6
350
DEB
  0
DICTIONARY
  5
DD8
102
{ACAD_REACTORS
330
C
102
}
330
C
100
AcDbDictionary
281
     1
  3
Standard
350
DD9
  0
DICTIONARY
  5
DC3
102
{ACAD_REACTORS
330
C
102
}
330
C
100
AcDbDictionary
281
     1
  3
2dWireframe
350
DC9
  3
3D Hidden
350
DCB
  3
3dWireframe
350
DCA
  3
Basic
350
DC8
  3
Brighten
350
DCF
  3
ColorChange
350
DD3
  3
Conceptual
350
DCC
  3
Dim
350
DCE
  3
EdgeColorOff
350
DD6
  3
Facepattern
350
DD2
  3
Flat
350
DC4
  3
FlatWithEdges
350
DC5
  3
Gouraud
350
DC6
  3
GouraudWithEdges
350
DC7
  3
JitterOff
350
DD4
  3
Linepattern
350
DD1
  3
OverhangOff
350
DD5
  3
Realistic
350
DCD
  3
Thicken
350
DD0
  0
XRECORD
  5
EB5
102
{ACAD_REACTORS
330
C
102
}
330
C
100
AcDbXrecord
280
     1
 90
        1
330
DD9
330
E1E
  0
DICTIONARY
  5
E95
102
{ACAD_REACTORS
330
C
102
}
330
C
100
AcDbDictionary
281
     1
  3
CANNOSCALE
350
E99
  3
CMLEADERSTYLE
350
E97
  3
CTABLESTYLE
350
E96
  3
DIMASSOC
350
EAF
  3
INDEXCTL
350
EAE
  3
LAYEREVAL
350
E9B
  3
LAYERNOTIFY
350
E9C
  3
LIGHTINGUNITS
350
E9A
  3
MSLTSCALE
350
E98
  3
SORTENTS
350
EAD
  3
XCLIPFRAME
350
EB0
  0
XRECORD
  5
EB6
102
{ACAD_REACTORS
330
C
102
}
330
C
100
AcDbXrecord
280
     1
  1
DWGPROPS COOKIE
  2

  3

  4

  6

  7

  8
kleemann
  9

300
=
301
=
302
=
303
=
304
=
305
=
306
=
307
=
308
=
309
=
 40
0.0215118634259259
 41
2451107.66701118
 42
2457045.609952685
  1

 90
        0
  0
DICTIONARY
  5
26F
102
{ACAD_REACTORS
330
C
102
}
330
C
100
AcDbDictionary
281
     1
  0
DICTIONARY
  5
265
102
{ACAD_REACTORS
330
C
102
}
330
C
100
AcDbDictionary
281
     1
  3
$PH$AAAE3H
350
E03
  3
$PH$AAAH
350
E66
  3
PH_GRPMEMBERS
350
E70
  0
PH_VARS
  5
264
102
{ACAD_REACTORS
330
C
102
}
330
C
  0
DICTIONARY
  5
E06
102
{ACAD_REACTORS
330
E05
102
}
330
E05
100
AcDbDictionary
281
     1
  0
XRECORD
  5
E74
102
{ACAD_REACTORS
330
E73
102
}
330
E73
100
AcDbXrecord
280
     1
290
     1
  0
XRECORD
  5
E76
102
{ACAD_REACTORS
330
E75
102
}
330
E75
100
AcDbXrecord
280
     1
290
     1
  0
XRECORD
  5
EB4
102
{ACAD_REACTORS
330
EB3
102
}
330
EB3
100
AcDbXrecord
280
     1
 40
46997.0
  1
\pxql;{\fArial|b1|i0|c0|p34;\W1.1;BOPLA}
  0
GROUP
  5
3D4
102
{ACAD_REACTORS
330
D
102
}
330
D
100
AcDbGroup
300
V11:9262:********
 70
     3
 71
     1
  0
GROUP
  5
A08
102
{ACAD_REACTORS
330
D
102
}
330
D
100
AcDbGroup
300
V11:241:_VV_XXXX
 70
     3
 71
     1
340
CD2
340
CD3
340
CD4
340
CD5
  0
GROUP
  5
A09
102
{ACAD_REACTORS
330
D
102
}
330
D
100
AcDbGroup
300
V11:260:_ZU_XXXX
 70
     3
 71
     1
340
D12
340
D13
340
D14
  0
GROUP
  5
691
102
{ACAD_REACTORS
330
D
102
}
330
D
100
AcDbGroup
300
V11:9330:_GF_XXXX
 70
     3
 71
     1
  0
GROUP
  5
A0A
102
{ACAD_REACTORS
330
D
102
}
330
D
100
AcDbGroup
300
V11:95:DINA4H
 70
     0
 71
     1
  0
GROUP
  5
A0B
102
{ACAD_REACTORS
330
D
102
}
330
D
100
AcDbGroup
300
V11:101:********
 70
     3
 71
     1
340
A4E
340
A4F
340
A50
  0
GROUP
  5
A0C
102
{ACAD_REACTORS
330
D
102
}
330
D
100
AcDbGroup
300
V11:102:********
 70
     3
 71
     1
340
A51
340
A52
  0
GROUP
  5
3DE
102
{ACAD_REACTORS
330
D
102
}
330
D
100
AcDbGroup
300
V11:9252:_ZU_XXXX
 70
     3
 71
     1
  0
GROUP
  5
A0D
102
{ACAD_REACTORS
330
D
102
}
330
D
100
AcDbGroup
300
V11:103:********
 70
     3
 71
     1
340
A53
  0
GROUP
  5
A0E
102
{ACAD_REACTORS
330
D
102
}
330
D
100
AcDbGroup
300
V11:105:********
 70
     0
 71
     1
  0
GROUP
  5
A0F
102
{ACAD_REACTORS
330
D
102
}
330
D
100
AcDbGroup
300
V11:112:********
 70
     3
 71
     1
340
A86
340
A87
340
A88
340
A89
  0
GROUP
  5
698
102
{ACAD_REACTORS
330
D
102
}
330
D
100
AcDbGroup
300
V11:9370:_ZU_XXXX
 70
     3
 71
     1
  0
GROUP
  5
3D9
102
{ACAD_REACTORS
330
D
102
}
330
D
100
AcDbGroup
300
V11:9035:_GF_XXXX
 70
     3
 71
     1
  0
GROUP
  5
A10
102
{ACAD_REACTORS
330
D
102
}
330
D
100
AcDbGroup
300
V11:118:********
 70
     3
 71
     1
340
AAB
340
AAC
340
AAD
340
AAE
  0
GROUP
  5
A11
102
{ACAD_REACTORS
330
D
102
}
330
D
100
AcDbGroup
300
V11:119:********
 70
     3
 71
     1
340
AAF
340
AB0
340
AB1
340
AB2
340
AB3
340
AB4
340
AB5
340
AB6
340
AB7
340
AB8
340
AB9
340
ABA
340
ABB
340
ABC
340
ABD
  0
GROUP
  5
692
102
{ACAD_REACTORS
330
D
102
}
330
D
100
AcDbGroup
300
V11:9366:_GF_XXXX
 70
     3
 71
     1
  0
GROUP
  5
A12
102
{ACAD_REACTORS
330
D
102
}
330
D
100
AcDbGroup
300
V11:120:********
 70
     0
 71
     1
  0
GROUP
  5
A13
102
{ACAD_REACTORS
330
D
102
}
330
D
100
AcDbGroup
300
V11:123:********
 70
     0
 71
     1
  0
GROUP
  5
A14
102
{ACAD_REACTORS
330
D
102
}
330
D
100
AcDbGroup
300
V11:124:********
 70
     3
 71
     1
  0
GROUP
  5
A15
102
{ACAD_REACTORS
330
D
102
}
330
D
100
AcDbGroup
300
V11:131:********
 70
     0
 71
     1
  0
GROUP
  5
3DF
102
{ACAD_REACTORS
330
D
102
}
330
D
100
AcDbGroup
300
V11:9039:_ZU_XXXX
 70
     3
 71
     1
  0
GROUP
  5
A16
102
{ACAD_REACTORS
330
D
102
}
330
D
100
AcDbGroup
300
V11:132:********
 70
     3
 71
     1
340
B59
340
B5A
340
B5B
340
B5C
340
B5D
340
B5E
340
B5F
340
B60
340
B61
340
B62
340
B63
340
B64
340
B65
340
B66
340
B67
  0
GROUP
  5
699
102
{ACAD_REACTORS
330
D
102
}
330
D
100
AcDbGroup
300
V11:9272:DINA4H
 70
     3
 71
     1
  0
GROUP
  5
A17
102
{ACAD_REACTORS
330
D
102
}
330
D
100
AcDbGroup
300
V11:133:********
 70
     0
 71
     1
  0
GROUP
  5
A18
102
{ACAD_REACTORS
330
D
102
}
330
D
100
AcDbGroup
300
V11:150:********
 70
     0
 71
     1
  0
GROUP
  5
A19
102
{ACAD_REACTORS
330
D
102
}
330
D
100
AcDbGroup
300
V11:159:********
 70
     0
 71
     1
  0
GROUP
  5
3DA
102
{ACAD_REACTORS
330
D
102
}
330
D
100
AcDbGroup
300
V11:9017:_MD_XXXX
 70
     3
 71
     1
  0
GROUP
  5
3D5
102
{ACAD_REACTORS
330
D
102
}
330
D
100
AcDbGroup
300
V11:9010:********
 70
     3
 71
     1
  0
GROUP
  5
A1A
102
{ACAD_REACTORS
330
D
102
}
330
D
100
AcDbGroup
300
V11:168:********
 70
     0
 71
     1
  0
GROUP
  5
A1B
102
{ACAD_REACTORS
330
D
102
}
330
D
100
AcDbGroup
300
V11:169:********
 70
     3
 71
     1
340
BD8
340
BD9
340
BDA
340
BDB
340
BDC
340
BDD
340
BDE
340
BDF
340
BE0
340
BE1
340
BE2
340
BE3
340
BE4
340
BE5
340
BE6
  0
GROUP
  5
A1C
102
{ACAD_REACTORS
330
D
102
}
330
D
100
AcDbGroup
300
V11:170:********
 70
     0
 71
     1
  0
GROUP
  5
A1D
102
{ACAD_REACTORS
330
D
102
}
330
D
100
AcDbGroup
300
V11:187:********
 70
     0
 71
     1
  0
GROUP
  5
A1E
102
{ACAD_REACTORS
330
D
102
}
330
D
100
AcDbGroup
300
V11:196:********
 70
     0
 71
     1
  0
GROUP
  5
3DD
102
{ACAD_REACTORS
330
D
102
}
330
D
100
AcDbGroup
300
V11:9023:_VV_XXXX
 70
     3
 71
     1
  0
GROUP
  5
3E0
102
{ACAD_REACTORS
330
D
102
}
330
D
100
AcDbGroup
300
V11:8961:DINA4H
 70
     3
 71
     1
  0
GROUP
  5
A1F
102
{ACAD_REACTORS
330
D
102
}
330
D
100
AcDbGroup
300
V11:197:********
 70
     3
 71
     1
340
C37
340
C38
340
C39
340
C3A
340
C3B
340
C3C
340
C3D
340
C3E
340
C3F
340
C40
340
C41
340
C42
340
C43
340
C44
340
C45
  0
GROUP
  5
A20
102
{ACAD_REACTORS
330
D
102
}
330
D
100
AcDbGroup
300
V11:198:********
 70
     0
 71
     1
  0
GROUP
  5
A21
102
{ACAD_REACTORS
330
D
102
}
330
D
100
AcDbGroup
300
V11:215:********
 70
     0
 71
     1
  0
GROUP
  5
A22
102
{ACAD_REACTORS
330
D
102
}
330
D
100
AcDbGroup
300
V11:224:********
 70
     0
 71
     1
  0
GROUP
  5
693
102
{ACAD_REACTORS
330
D
102
}
330
D
100
AcDbGroup
300
V11:9348:_MD_XXXX
 70
     3
 71
     1
  0
GROUP
  5
A23
102
{ACAD_REACTORS
330
D
102
}
330
D
100
AcDbGroup
300
V11:233:********
 70
     0
 71
     1
  0
GROUP
  5
3DB
102
{ACAD_REACTORS
330
D
102
}
330
D
100
AcDbGroup
300
V11:9270:_VV_XXXX
 70
     3
 71
     1
  0
GROUP
  5
A24
102
{ACAD_REACTORS
330
D
102
}
330
D
100
AcDbGroup
300
V11:242:********
 70
     0
 71
     1
  0
GROUP
  5
A25
102
{ACAD_REACTORS
330
D
102
}
330
D
100
AcDbGroup
300
V11:243:********
 70
     3
 71
     1
340
CD6
340
CD7
340
CD8
340
CD9
340
CDA
340
CDB
340
CDC
340
CDD
340
CDE
340
CDF
340
CE0
340
CE1
340
CE2
340
CE3
340
CE4
  0
GROUP
  5
3D6
102
{ACAD_REACTORS
330
D
102
}
330
D
100
AcDbGroup
300
V11:9029:********
 70
     3
 71
     1
  0
GROUP
  5
A26
102
{ACAD_REACTORS
330
D
102
}
330
D
100
AcDbGroup
300
V11:244:********
 70
     0
 71
     1
  0
GROUP
  5
3DC
102
{ACAD_REACTORS
330
D
102
}
330
D
100
AcDbGroup
300
V11:9009:_VV_XXXX
 70
     3
 71
     1
  0
GROUP
  5
68D
102
{ACAD_REACTORS
330
D
102
}
330
D
100
AcDbGroup
300
V11:9689:********
 70
     3
 71
     1
  0
GROUP
  5
68E
102
{ACAD_REACTORS
330
D
102
}
330
D
100
AcDbGroup
300
V11:9339:********
 70
     3
 71
     1
  0
GROUP
  5
68F
102
{ACAD_REACTORS
330
D
102
}
330
D
100
AcDbGroup
300
V11:9360:********
 70
     3
 71
     1
  0
GROUP
  5
690
102
{ACAD_REACTORS
330
D
102
}
330
D
100
AcDbGroup
300
V11:9373:_GF_XXXX
 70
     3
 71
     1
  0
GROUP
  5
694
102
{ACAD_REACTORS
330
D
102
}
330
D
100
AcDbGroup
300
V11:9697:_VV_XXXX
 70
     3
 71
     1
  0
GROUP
  5
695
102
{ACAD_REACTORS
330
D
102
}
330
D
100
AcDbGroup
300
V11:9338:_VV_XXXX
 70
     3
 71
     1
  0
GROUP
  5
696
102
{ACAD_REACTORS
330
D
102
}
330
D
100
AcDbGroup
300
V11:9354:_VV_XXXX
 70
     3
 71
     1
  0
GROUP
  5
697
102
{ACAD_REACTORS
330
D
102
}
330
D
100
AcDbGroup
300
V11:9643:_ZU_XXXX
 70
     3
 71
     1
  0
GROUP
  5
3D7
102
{ACAD_REACTORS
330
D
102
}
330
D
100
AcDbGroup
300
V11:9042:_GF_XXXX
 70
     3
 71
     1
  0
GROUP
  5
3D8
102
{ACAD_REACTORS
330
D
102
}
330
D
100
AcDbGroup
300
V11:8999:_GF_XXXX
 70
     3
 71
     1
  0
GROUP
  5
A06
102
{ACAD_REACTORS
330
D
102
}
330
D
100
AcDbGroup
300
V11:130:_GF_XXXX
 70
     3
 71
     1
  0
GROUP
  5
A07
102
{ACAD_REACTORS
330
D
102
}
330
D
100
AcDbGroup
300
V11:116:_MD_XXXX
 70
     3
 71
     1
340
AA2
340
AA3
340
AA4
340
AA5
340
AA6
340
AA7
340
AA8
340
AA9
  0
GROUP
  5
13C
102
{ACAD_REACTORS
330
D
102
}
330
D
100
AcDbGroup
300
V11:29:_GF_XXXX
 70
     0
 71
     1
  0
GROUP
  5
88
102
{ACAD_REACTORS
330
D
102
}
330
D
100
AcDbGroup
300
V11:15:_MD_XXXX
 70
     0
 71
     1
  0
GROUP
  5
209
102
{ACAD_REACTORS
330
D
102
}
330
D
100
AcDbGroup
300
V11:75:_VV_XXXX
 70
     0
 71
     1
  0
GROUP
  5
25C
102
{ACAD_REACTORS
330
D
102
}
330
D
100
AcDbGroup
300
V11:94:_ZU_XXXX
 70
     0
 71
     1
  0
GROUP
  5
20
102
{ACAD_REACTORS
330
D
102
}
330
D
100
AcDbGroup
300
V11:1:DINA4H
 70
     0
 71
     1
  0
GROUP
  5
62
102
{ACAD_REACTORS
330
D
102
}
330
D
100
AcDbGroup
300
V11:9:********
 70
     0
 71
     1
  0
GROUP
  5
64
102
{ACAD_REACTORS
330
D
102
}
330
D
100
AcDbGroup
300
V11:10:********
 70
     0
 71
     1
  0
GROUP
  5
6D
102
{ACAD_REACTORS
330
D
102
}
330
D
100
AcDbGroup
300
V11:12:********
 70
     0
 71
     1
  0
GROUP
  5
89
102
{ACAD_REACTORS
330
D
102
}
330
D
100
AcDbGroup
300
V11:16:********
 70
     0
 71
     1
  0
GROUP
  5
8F
102
{ACAD_REACTORS
330
D
102
}
330
D
100
AcDbGroup
300
V11:17:********
 70
     0
 71
     1
  0
GROUP
  5
94
102
{ACAD_REACTORS
330
D
102
}
330
D
100
AcDbGroup
300
V11:18:********
 70
     0
 71
     1
  0
GROUP
  5
95
102
{ACAD_REACTORS
330
D
102
}
330
D
100
AcDbGroup
300
V11:19:********
 70
     0
 71
     1
  0
GROUP
  5
A1
102
{ACAD_REACTORS
330
D
102
}
330
D
100
AcDbGroup
300
V11:22:********
 70
     0
 71
     1
  0
GROUP
  5
A4
102
{ACAD_REACTORS
330
D
102
}
330
D
100
AcDbGroup
300
V11:23:********
 70
     0
 71
     1
  0
GROUP
  5
13D
102
{ACAD_REACTORS
330
D
102
}
330
D
100
AcDbGroup
300
V11:30:********
 70
     0
 71
     1
  0
GROUP
  5
14D
102
{ACAD_REACTORS
330
D
102
}
330
D
100
AcDbGroup
300
V11:31:********
 70
     0
 71
     1
  0
GROUP
  5
14E
102
{ACAD_REACTORS
330
D
102
}
330
D
100
AcDbGroup
300
V11:32:********
 70
     0
 71
     1
  0
GROUP
  5
18F
102
{ACAD_REACTORS
330
D
102
}
330
D
100
AcDbGroup
300
V11:49:********
 70
     0
 71
     1
  0
GROUP
  5
1B8
102
{ACAD_REACTORS
330
D
102
}
330
D
100
AcDbGroup
300
V11:58:********
 70
     0
 71
     1
  0
GROUP
  5
1E1
102
{ACAD_REACTORS
330
D
102
}
330
D
100
AcDbGroup
300
V11:67:********
 70
     0
 71
     1
  0
GROUP
  5
20A
102
{ACAD_REACTORS
330
D
102
}
330
D
100
AcDbGroup
300
V11:76:********
 70
     0
 71
     1
  0
GROUP
  5
21A
102
{ACAD_REACTORS
330
D
102
}
330
D
100
AcDbGroup
300
V11:77:********
 70
     0
 71
     1
  0
GROUP
  5
21B
102
{ACAD_REACTORS
330
D
102
}
330
D
100
AcDbGroup
300
V11:78:********
 70
     0
 71
     1
  0
LAYOUT
  5
DF1
102
{ACAD_XDICTIONARY
360
EE3
102
}
102
{ACAD_REACTORS
330
DEE
102
}
330
DEE
100
AcDbPlotSettings
  1

  2
\\boplaprint3\dev_konstuktion
  4

  6

 40
0.0
 41
0.0
 42
0.0
 43
0.0
 44
0.0
 45
0.0
 46
0.0
 47
0.0
 48
0.0
 49
0.0
140
0.0
141
0.0
142
1.0
143
1.0
 70
   688
 72
     0
 73
     0
 74
     5
  7

 75
    16
147
1.0
148
0.0
149
0.0
100
AcDbLayout
  1
Layout1
 70
     1
 71
     1
 10
0.0
 20
0.0
 11
420.0
 21
297.0
 12
0.0
 22
0.0
 32
0.0
 14
1.000000000000000E+20
 24
1.000000000000000E+20
 34
1.000000000000000E+20
 15
-1.000000000000000E+20
 25
-1.000000000000000E+20
 35
-1.000000000000000E+20
146
0.0
 13
0.0
 23
0.0
 33
0.0
 16
1.0
 26
0.0
 36
0.0
 17
0.0
 27
1.0
 37
0.0
 76
     0
330
15
  0
LAYOUT
  5
DF0
102
{ACAD_XDICTIONARY
360
E7E
102
}
102
{ACAD_REACTORS
330
DEE
102
}
330
DEE
100
AcDbPlotSettings
  1

  2
\\boplaprint3\dev_konstuktion
  4
A4
  6

 40
5.027082920074462
 41
5.027099609375
 42
5.027069091796875
 43
5.027069091796875
 44
209.8886566162109
 45
297.0530090332031
 46
0.0
 47
0.0
 48
0.0
 49
0.0
140
0.0
141
0.0
142
1.0
143
1.973280886724614
 70
 11952
 72
     1
 73
     1
 74
     0
  7

 75
     0
147
0.5067702255302681
148
71.98608998110106
149
1.051181498228373
100
AcDbLayout
  1
Model
 70
     1
 71
     0
 10
0.0
 20
0.0
 11
12.0
 21
9.0
 12
0.0
 22
0.0
 32
0.0
 14
0.0
 24
0.0
 34
0.0
 15
0.0
 25
0.0
 35
0.0
146
0.0
 13
0.0
 23
0.0
 33
0.0
 16
1.0
 26
0.0
 36
0.0
 17
0.0
 27
1.0
 37
0.0
 76
     0
330
18
331
DA6
1001
ACAD_PSEXT
1000
\\boplaprint3\dev_konstuktion
1000
Generic 35C-4 Series PS
1000
Flur Konstruktion
1000
F-Ineo
1070
     0
  0
MATERIAL
  5
DB3
102
{ACAD_XDICTIONARY
360
DB4
102
}
102
{ACAD_REACTORS
330
DAA
102
}
330
DAA
100
AcDbMaterial
  1
ByBlock
 72
     0
 43
0.0208333333333333
 43
0.0
 43
0.0
 43
0.0
 43
0.0
 43
0.0208333333333333
 43
0.0
 43
0.0
 43
0.0
 43
0.0
 43
1.0
 43
0.0
 43
0.0
 43
0.0
 43
0.0
 43
1.0
 77
     0
 47
0.0208333333333333
 47
0.0
 47
0.0
 47
0.0
 47
0.0
 47
0.0208333333333333
 47
0.0
 47
0.0
 47
0.0
 47
0.0
 47
1.0
 47
0.0
 47
0.0
 47
0.0
 47
0.0
 47
1.0
171
     0
 49
0.0208333333333333
 49
0.0
 49
0.0
 49
0.0
 49
0.0
 49
0.0208333333333333
 49
0.0
 49
0.0
 49
0.0
 49
0.0
 49
1.0
 49
0.0
 49
0.0
 49
0.0
 49
0.0
 49
1.0
175
     0
142
0.0208333333333333
142
0.0
142
0.0
142
0.0
142
0.0
142
0.0208333333333333
142
0.0
142
0.0
142
0.0
142
0.0
142
1.0
142
0.0
142
0.0
142
0.0
142
0.0
142
1.0
179
     0
144
0.0208333333333333
144
0.0
144
0.0
144
0.0
144
0.0
144
0.0208333333333333
144
0.0
144
0.0
144
0.0
144
0.0
144
1.0
144
0.0
144
0.0
144
0.0
144
0.0
144
1.0
147
0.0208333333333333
147
0.0
147
0.0
147
0.0
147
0.0
147
0.0208333333333333
147
0.0
147
0.0
147
0.0
147
0.0
147
1.0
147
0.0
147
0.0
147
0.0
147
0.0
147
1.0
  0
MATERIAL
  5
DAB
102
{ACAD_XDICTIONARY
360
DAC
102
}
102
{ACAD_REACTORS
330
DAA
102
}
330
DAA
100
AcDbMaterial
  1
ByLayer
 72
     0
 43
0.0208333333333333
 43
0.0
 43
0.0
 43
0.0
 43
0.0
 43
0.0208333333333333
 43
0.0
 43
0.0
 43
0.0
 43
0.0
 43
1.0
 43
0.0
 43
0.0
 43
0.0
 43
0.0
 43
1.0
 77
     0
 47
0.0208333333333333
 47
0.0
 47
0.0
 47
0.0
 47
0.0
 47
0.0208333333333333
 47
0.0
 47
0.0
 47
0.0
 47
0.0
 47
1.0
 47
0.0
 47
0.0
 47
0.0
 47
0.0
 47
1.0
171
     0
 49
0.0208333333333333
 49
0.0
 49
0.0
 49
0.0
 49
0.0
 49
0.0208333333333333
 49
0.0
 49
0.0
 49
0.0
 49
0.0
 49
1.0
 49
0.0
 49
0.0
 49
0.0
 49
0.0
 49
1.0
175
     0
142
0.0208333333333333
142
0.0
142
0.0
142
0.0
142
0.0
142
0.0208333333333333
142
0.0
142
0.0
142
0.0
142
0.0
142
1.0
142
0.0
142
0.0
142
0.0
142
0.0
142
1.0
179
     0
144
0.0208333333333333
144
0.0
144
0.0
144
0.0
144
0.0
144
0.0208333333333333
144
0.0
144
0.0
144
0.0
144
0.0
144
1.0
144
0.0
144
0.0
144
0.0
144
0.0
144
1.0
147
0.0208333333333333
147
0.0
147
0.0
147
0.0
147
0.0
147
0.0208333333333333
147
0.0
147
0.0
147
0.0
147
0.0
147
1.0
147
0.0
147
0.0
147
0.0
147
0.0
147
1.0
  0
MATERIAL
  5
DBB
102
{ACAD_XDICTIONARY
360
DBC
102
}
102
{ACAD_REACTORS
330
DAA
102
}
330
DAA
100
AcDbMaterial
  1
Global
 72
     0
 43
0.0208333333333333
 43
0.0
 43
0.0
 43
0.0
 43
0.0
 43
0.0208333333333333
 43
0.0
 43
0.0
 43
0.0
 43
0.0
 43
1.0
 43
0.0
 43
0.0
 43
0.0
 43
0.0
 43
1.0
 77
     0
 47
0.0208333333333333
 47
0.0
 47
0.0
 47
0.0
 47
0.0
 47
0.0208333333333333
 47
0.0
 47
0.0
 47
0.0
 47
0.0
 47
1.0
 47
0.0
 47
0.0
 47
0.0
 47
0.0
 47
1.0
171
     0
 49
0.0208333333333333
 49
0.0
 49
0.0
 49
0.0
 49
0.0
 49
0.0208333333333333
 49
0.0
 49
0.0
 49
0.0
 49
0.0
 49
1.0
 49
0.0
 49
0.0
 49
0.0
 49
0.0
 49
1.0
175
     0
142
0.0208333333333333
142
0.0
142
0.0
142
0.0
142
0.0
142
0.0208333333333333
142
0.0
142
0.0
142
0.0
142
0.0
142
1.0
142
0.0
142
0.0
142
0.0
142
0.0
142
1.0
179
     0
144
0.0208333333333333
144
0.0
144
0.0
144
0.0
144
0.0
144
0.0208333333333333
144
0.0
144
0.0
144
0.0
144
0.0
144
1.0
144
0.0
144
0.0
144
0.0
144
0.0
144
1.0
147
0.0208333333333333
147
0.0
147
0.0
147
0.0
147
0.0
147
0.0208333333333333
147
0.0
147
0.0
147
0.0
147
0.0
147
1.0
147
0.0
147
0.0
147
0.0
147
0.0
147
1.0
  0
MLEADERSTYLE
  5
DED
102
{ACAD_REACTORS
330
DEC
102
}
330
DEC
100
AcDbMLeaderStyle
170
     2
171
     1
172
     0
 90
        2
 40
0.0
 41
0.0
173
     1
 91
-1056964608
340
12
 92
       -2
290
     1
 42
2.0
291
     1
 43
0.36
  3
Standard
 44
4.0
300

342
F
174
     1
178
     6
175
     1
176
     0
 93
-1056964608
 45
4.0
292
     0
297
     0
 46
4.0
 94
-1056964608
 47
1.0
 49
1.0
140
1.0
293
     1
141
0.0
294
     1
177
     0
142
1.0
295
     0
296
     0
143
0.125
1001
ACAD_MLEADERVER
1070
     2
  0
MLINESTYLE
  5
1C
102
{ACAD_REACTORS
330
1B
102
}
330
1B
100
AcDbMlineStyle
  2
STANDARD
 70
     0
  3

 62
   256
 51
90.0
 52
90.0
 71
     2
 49
0.5
 62
   256
  6
BYLAYER
 49
-0.5
 62
   256
  6
BYLAYER
  0
ACDBPLACEHOLDER
  5
DA9
102
{ACAD_REACTORS
330
DA8
102
}
330
DA8
  0
SCALE
  5
DDB
102
{ACAD_REACTORS
330
DDA
102
}
330
DDA
100
AcDbScale
 70
     0
300
1:1
140
1.0
141
1.0
290
     1
  0
SCALE
  5
DDC
102
{ACAD_REACTORS
330
DDA
102
}
330
DDA
100
AcDbScale
 70
     0
300
1:2
140
1.0
141
2.0
290
     0
  0
SCALE
  5
DDD
102
{ACAD_REACTORS
330
DDA
102
}
330
DDA
100
AcDbScale
 70
     0
300
1:4
140
1.0
141
4.0
290
     0
  0
SCALE
  5
DDE
102
{ACAD_REACTORS
330
DDA
102
}
330
DDA
100
AcDbScale
 70
     0
300
1:5
140
1.0
141
5.0
290
     0
  0
SCALE
  5
DDF
102
{ACAD_REACTORS
330
DDA
102
}
330
DDA
100
AcDbScale
 70
     0
300
1:8
140
1.0
141
8.0
290
     0
  0
SCALE
  5
DE0
102
{ACAD_REACTORS
330
DDA
102
}
330
DDA
100
AcDbScale
 70
     0
300
1:10
140
1.0
141
10.0
290
     0
  0
SCALE
  5
DE1
102
{ACAD_REACTORS
330
DDA
102
}
330
DDA
100
AcDbScale
 70
     0
300
1:16
140
1.0
141
16.0
290
     0
  0
SCALE
  5
DE2
102
{ACAD_REACTORS
330
DDA
102
}
330
DDA
100
AcDbScale
 70
     0
300
1:20
140
1.0
141
20.0
290
     0
  0
SCALE
  5
DE3
102
{ACAD_REACTORS
330
DDA
102
}
330
DDA
100
AcDbScale
 70
     0
300
1:30
140
1.0
141
30.0
290
     0
  0
SCALE
  5
DE4
102
{ACAD_REACTORS
330
DDA
102
}
330
DDA
100
AcDbScale
 70
     0
300
1:40
140
1.0
141
40.0
290
     0
  0
SCALE
  5
DE5
102
{ACAD_REACTORS
330
DDA
102
}
330
DDA
100
AcDbScale
 70
     0
300
1:50
140
1.0
141
50.0
290
     0
  0
SCALE
  5
DE6
102
{ACAD_REACTORS
330
DDA
102
}
330
DDA
100
AcDbScale
 70
     0
300
1:100
140
1.0
141
100.0
290
     0
  0
SCALE
  5
DE7
102
{ACAD_REACTORS
330
DDA
102
}
330
DDA
100
AcDbScale
 70
     0
300
2:1
140
2.0
141
1.0
290
     0
  0
SCALE
  5
DE8
102
{ACAD_REACTORS
330
DDA
102
}
330
DDA
100
AcDbScale
 70
     0
300
4:1
140
4.0
141
1.0
290
     0
  0
SCALE
  5
DE9
102
{ACAD_REACTORS
330
DDA
102
}
330
DDA
100
AcDbScale
 70
     0
300
8:1
140
8.0
141
1.0
290
     0
  0
SCALE
  5
DEA
102
{ACAD_REACTORS
330
DDA
102
}
330
DDA
100
AcDbScale
 70
     0
300
10:1
140
10.0
141
1.0
290
     0
  0
SCALE
  5
DEB
102
{ACAD_REACTORS
330
DDA
102
}
330
DDA
100
AcDbScale
 70
     0
300
100:1
140
100.0
141
1.0
290
     0
  0
TABLESTYLE
  5
DD9
102
{ACAD_XDICTIONARY
360
EB1
102
}
102
{ACAD_REACTORS
330
DD8
102
}
330
DD8
100
AcDbTableStyle
  3
Standard
 70
     0
 71
     0
 40
1.5
 41
1.5
280
     0
281
     0
  7
STANDARD
140
4.5
170
     2
 62
     0
 63
     7
283
     0
274
    -2
284
     1
 64
     0
275
    -2
285
     1
 65
     0
276
    -2
286
     1
 66
     0
277
    -2
287
     1
 67
     0
278
    -2
288
     1
 68
     0
279
    -2
289
     1
 69
     0
  7
STANDARD
140
6.0
170
     5
 62
     0
 63
     7
283
     0
274
    -2
284
     1
 64
     0
275
    -2
285
     1
 65
     0
276
    -2
286
     1
 66
     0
277
    -2
287
     1
 67
     0
278
    -2
288
     1
 68
     0
279
    -2
289
     1
 69
     0
  7
STANDARD
140
4.5
170
     5
 62
     0
 63
     7
283
     0
274
    -2
284
     1
 64
     0
275
    -2
285
     1
 65
     0
276
    -2
286
     1
 66
     0
277
    -2
287
     1
 67
     0
278
    -2
288
     1
 68
     0
279
    -2
289
     1
 69
     0
  0
VISUALSTYLE
  5
DC9
102
{ACAD_XDICTIONARY
360
EC4
102
}
102
{ACAD_REACTORS
330
DC3
102
}
330
DC3
100
AcDbVisualStyle
  2
2dWireframe
 70
     4
 71
     0
 72
     2
 73
     0
 90
        0
 40
-0.6
 41
-30.0
 62
     5
 63
     7
 74
     1
 91
        4
 64
     7
 65
   257
 75
     1
175
     1
 42
1.0
 92
        0
 66
   257
 43
1.0
 76
     1
 77
     6
 78
     2
 67
     7
 79
     5
170
     0
171
     0
290
     0
174
     0
 93
        1
 44
0.0
173
     0
291
     0
 45
0.0
1001
ACAD
1000
AcDbSavedByObjectVersion
1070
     0
  0
VISUALSTYLE
  5
DCB
102
{ACAD_XDICTIONARY
360
EC8
102
}
102
{ACAD_REACTORS
330
DC3
102
}
330
DC3
100
AcDbVisualStyle
  2
3D Hidden
 70
     6
 71
     1
 72
     2
 73
     2
 90
        0
 40
-0.6
 41
-30.0
 62
     5
 63
     7
 74
     2
 91
        2
 64
     7
 65
   257
 75
     2
175
     1
 42
179.0
 92
        0
 66
   257
 43
1.0
 76
     1
 77
     6
 78
     2
 67
     7
 79
     3
170
     0
171
     0
290
     0
174
     0
 93
        1
 44
0.0
173
     0
291
     0
 45
0.0
1001
ACAD
1000
AcDbSavedByObjectVersion
1070
     0
  0
VISUALSTYLE
  5
DCA
102
{ACAD_XDICTIONARY
360
EC6
102
}
102
{ACAD_REACTORS
330
DC3
102
}
330
DC3
100
AcDbVisualStyle
  2
3dWireframe
 70
     5
 71
     0
 72
     2
 73
     0
 90
        0
 40
-0.6
 41
-30.0
 62
     5
 63
     7
 74
     1
 91
        4
 64
     7
 65
   257
 75
     1
175
     1
 42
1.0
 92
        0
 66
   257
 43
1.0
 76
     1
 77
     6
 78
     2
 67
     7
 79
     5
170
     0
171
     0
290
     0
174
     0
 93
        1
 44
0.0
173
     0
291
     0
 45
0.0
1001
ACAD
1000
AcDbSavedByObjectVersion
1070
     0
  0
VISUALSTYLE
  5
DC8
102
{ACAD_XDICTIONARY
360
EC2
102
}
102
{ACAD_REACTORS
330
DC3
102
}
330
DC3
100
AcDbVisualStyle
  2
Basic
 70
     7
 71
     1
 72
     0
 73
     1
 90
        0
 40
-0.6
 41
-30.0
 62
     5
 63
     7
 74
     0
 91
        4
 64
     7
 65
   257
 75
     1
175
     1
 42
1.0
 92
        8
 66
     7
 43
1.0
 76
     1
 77
     6
 78
     2
 67
     7
 79
     5
170
     0
171
     0
290
     0
174
     0
 93
        1
 44
0.0
173
     0
291
     1
 45
0.0
1001
ACAD
1000
AcDbSavedByObjectVersion
1070
     0
  0
VISUALSTYLE
  5
DCF
102
{ACAD_XDICTIONARY
360
ED0
102
}
102
{ACAD_REACTORS
330
DC3
102
}
330
DC3
100
AcDbVisualStyle
  2
Brighten
 70
    12
 71
     2
 72
     2
 73
     0
 90
        0
 40
-0.6
 41
-30.0
 62
     5
 63
     7
 74
     1
 91
        4
 64
     7
 65
   257
 75
     1
175
     1
 42
1.0
 92
        8
 66
     7
 43
1.0
 76
     1
 77
     6
 78
     2
 67
     7
 79
     5
170
     0
171
     0
290
     0
174
     0
 93
        1
 44
50.0
173
     0
291
     1
 45
0.0
1001
ACAD
1000
AcDbSavedByObjectVersion
1070
     0
  0
VISUALSTYLE
  5
DD3
102
{ACAD_XDICTIONARY
360
ED8
102
}
102
{ACAD_REACTORS
330
DC3
102
}
330
DC3
100
AcDbVisualStyle
  2
ColorChange
 70
    16
 71
     2
 72
     2
 73
     3
 90
        0
 40
-0.6
 41
-30.0
 62
     5
 63
     8
 74
     1
 91
        4
 64
     7
 65
   257
 75
     1
175
     1
 42
1.0
 92
        8
 66
     8
 43
1.0
 76
     1
 77
     6
 78
     2
 67
     7
 79
     5
170
     0
171
     0
290
     0
174
     0
 93
        1
 44
0.0
173
     0
291
     1
 45
0.0
1001
ACAD
1000
AcDbSavedByObjectVersion
1070
     0
  0
VISUALSTYLE
  5
DCC
102
{ACAD_XDICTIONARY
360
ECA
102
}
102
{ACAD_REACTORS
330
DC3
102
}
330
DC3
100
AcDbVisualStyle
  2
Conceptual
 70
     9
 71
     3
 72
     2
 73
     0
 90
        0
 40
-0.6
 41
-30.0
 62
     5
 63
     7
 74
     2
 91
        2
 64
     7
 65
   257
 75
     1
175
     1
 42
179.0
 92
        8
 66
     7
 43
1.0
 76
     1
 77
     6
 78
     2
 67
     7
 79
     3
170
     0
171
     0
290
     0
174
     0
 93
        1
 44
0.0
173
     0
291
     0
 45
0.0
1001
ACAD
1000
AcDbSavedByObjectVersion
1070
     0
  0
VISUALSTYLE
  5
DCE
102
{ACAD_XDICTIONARY
360
ECE
102
}
102
{ACAD_REACTORS
330
DC3
102
}
330
DC3
100
AcDbVisualStyle
  2
Dim
 70
    11
 71
     2
 72
     2
 73
     0
 90
        0
 40
-0.6
 41
-30.0
 62
     5
 63
     7
 74
     1
 91
        4
 64
     7
 65
   257
 75
     1
175
     1
 42
1.0
 92
        8
 66
     7
 43
1.0
 76
     1
 77
     6
 78
     2
 67
     7
 79
     5
170
     0
171
     0
290
     0
174
     0
 93
        1
 44
-50.0
173
     0
291
     1
 45
0.0
1001
ACAD
1000
AcDbSavedByObjectVersion
1070
     0
  0
VISUALSTYLE
  5
DD6
102
{ACAD_XDICTIONARY
360
EDE
102
}
102
{ACAD_REACTORS
330
DC3
102
}
330
DC3
100
AcDbVisualStyle
  2
EdgeColorOff
 70
    22
 71
     2
 72
     2
 73
     0
 90
        0
 40
-0.6
 41
-30.0
 62
     5
 63
     7
 74
     1
 91
        4
 64
     7
 65
   257
 75
     1
175
     1
 42
1.0
 92
        8
 66
     7
 43
1.0
 76
     1
 77
     6
 78
     2
 67
     7
 79
     5
170
     0
171
     0
290
     0
174
     0
 93
        1
 44
0.0
173
     0
291
     1
 45
0.0
1001
ACAD
1000
AcDbSavedByObjectVersion
1070
     0
  0
VISUALSTYLE
  5
DD2
102
{ACAD_XDICTIONARY
360
ED6
102
}
102
{ACAD_REACTORS
330
DC3
102
}
330
DC3
100
AcDbVisualStyle
  2
Facepattern
 70
    15
 71
     2
 72
     2
 73
     0
 90
        0
 40
-0.6
 41
-30.0
 62
     5
 63
     7
 74
     1
 91
        4
 64
     7
 65
   257
 75
     1
175
     1
 42
1.0
 92
        8
 66
     7
 43
1.0
 76
     1
 77
     6
 78
     2
 67
     7
 79
     5
170
     0
171
     0
290
     0
174
     0
 93
        1
 44
0.0
173
     0
291
     1
 45
0.0
1001
ACAD
1000
AcDbSavedByObjectVersion
1070
     0
  0
VISUALSTYLE
  5
DC4
102
{ACAD_XDICTIONARY
360
EBA
102
}
102
{ACAD_REACTORS
330
DC3
102
}
330
DC3
100
AcDbVisualStyle
  2
Flat
 70
     0
 71
     2
 72
     1
 73
     1
 90
        2
 40
-0.6
 41
30.0
 62
     5
 63
     7
 74
     0
 91
        4
 64
     7
 65
   257
 75
     1
175
     1
 42
1.0
 92
        8
 66
     7
 43
1.0
 76
     1
 77
     6
 78
     2
 67
     7
 79
     5
170
     0
171
     0
290
     0
174
     0
 93
       13
 44
0.0
173
     0
291
     1
 45
0.0
1001
ACAD
1000
AcDbSavedByObjectVersion
1070
     0
  0
VISUALSTYLE
  5
DC5
102
{ACAD_XDICTIONARY
360
EBC
102
}
102
{ACAD_REACTORS
330
DC3
102
}
330
DC3
100
AcDbVisualStyle
  2
FlatWithEdges
 70
     1
 71
     2
 72
     1
 73
     1
 90
        2
 40
-0.6
 41
30.0
 62
     5
 63
     7
 74
     1
 91
        4
 64
     7
 65
   257
 75
     1
175
     1
 42
1.0
 92
        0
 66
   257
 43
1.0
 76
     1
 77
     6
 78
     2
 67
     7
 79
     5
170
     0
171
     0
290
     0
174
     0
 93
       13
 44
0.0
173
     0
291
     1
 45
0.0
1001
ACAD
1000
AcDbSavedByObjectVersion
1070
     0
  0
VISUALSTYLE
  5
DC6
102
{ACAD_XDICTIONARY
360
EBE
102
}
102
{ACAD_REACTORS
330
DC3
102
}
330
DC3
100
AcDbVisualStyle
  2
Gouraud
 70
     2
 71
     2
 72
     2
 73
     1
 90
        2
 40
-0.6
 41
30.0
 62
     5
 63
     7
 74
     0
 91
        4
 64
     7
 65
   257
 75
     1
175
     1
 42
1.0
 92
        0
 66
     7
 43
1.0
 76
     1
 77
     6
 78
     2
 67
     7
 79
     5
170
     0
171
     0
290
     0
174
     0
 93
       13
 44
0.0
173
     0
291
     1
 45
0.0
1001
ACAD
1000
AcDbSavedByObjectVersion
1070
     0
  0
VISUALSTYLE
  5
DC7
102
{ACAD_XDICTIONARY
360
EC0
102
}
102
{ACAD_REACTORS
330
DC3
102
}
330
DC3
100
AcDbVisualStyle
  2
GouraudWithEdges
 70
     3
 71
     2
 72
     2
 73
     1
 90
        2
 40
-0.6
 41
30.0
 62
     5
 63
     7
 74
     1
 91
        4
 64
     7
 65
   257
 75
     1
175
     1
 42
1.0
 92
        0
 66
   257
 43
1.0
 76
     1
 77
     6
 78
     2
 67
     7
 79
     5
170
     0
171
     0
290
     0
174
     0
 93
       13
 44
0.0
173
     0
291
     1
 45
0.0
1001
ACAD
1000
AcDbSavedByObjectVersion
1070
     0
  0
VISUALSTYLE
  5
DD4
102
{ACAD_XDICTIONARY
360
EDA
102
}
102
{ACAD_REACTORS
330
DC3
102
}
330
DC3
100
AcDbVisualStyle
  2
JitterOff
 70
    20
 71
     2
 72
     2
 73
     0
 90
        0
 40
-0.6
 41
-30.0
 62
     5
 63
     7
 74
     1
 91
        4
 64
     7
 65
   257
 75
     1
175
     1
 42
1.0
 92
       10
 66
     7
 43
1.0
 76
     1
 77
     6
 78
     2
 67
     7
 79
     5
170
     0
171
     0
290
     0
174
     0
 93
        1
 44
0.0
173
     0
291
     1
 45
0.0
1001
ACAD
1000
AcDbSavedByObjectVersion
1070
     0
  0
VISUALSTYLE
  5
DD1
102
{ACAD_XDICTIONARY
360
ED4
102
}
102
{ACAD_REACTORS
330
DC3
102
}
330
DC3
100
AcDbVisualStyle
  2
Linepattern
 70
    14
 71
     2
 72
     2
 73
     0
 90
        0
 40
-0.6
 41
-30.0
 62
     5
 63
     7
 74
     1
 91
        4
 64
     7
 65
   257
 75
     7
175
     7
 42
1.0
 92
        8
 66
     7
 43
1.0
 76
     1
 77
     6
 78
     2
 67
     7
 79
     5
170
     0
171
     0
290
     0
174
     0
 93
        1
 44
0.0
173
     0
291
     1
 45
0.0
1001
ACAD
1000
AcDbSavedByObjectVersion
1070
     0
  0
VISUALSTYLE
  5
DD5
102
{ACAD_XDICTIONARY
360
EDC
102
}
102
{ACAD_REACTORS
330
DC3
102
}
330
DC3
100
AcDbVisualStyle
  2
OverhangOff
 70
    21
 71
     2
 72
     2
 73
     0
 90
        0
 40
-0.6
 41
-30.0
 62
     5
 63
     7
 74
     1
 91
        4
 64
     7
 65
   257
 75
     1
175
     1
 42
1.0
 92
        9
 66
     7
 43
1.0
 76
     1
 77
     6
 78
     2
 67
     7
 79
     5
170
     0
171
     0
290
     0
174
     0
 93
        1
 44
0.0
173
     0
291
     1
 45
0.0
1001
ACAD
1000
AcDbSavedByObjectVersion
1070
     0
  0
VISUALSTYLE
  5
DCD
102
{ACAD_XDICTIONARY
360
ECC
102
}
102
{ACAD_REACTORS
330
DC3
102
}
330
DC3
100
AcDbVisualStyle
  2
Realistic
 70
     8
 71
     2
 72
     2
 73
     0
 90
        0
 40
-0.6
 41
-30.0
 62
     5
 63
     7
 74
     1
 91
        0
 64
     7
 65
   257
 75
     1
175
     1
 42
1.0
 92
        8
 66
     8
 43
1.0
 76
     1
 77
     6
 78
     2
 67
     7
 79
     5
170
     0
171
     0
290
     0
174
     0
 93
       13
 44
0.0
173
     0
291
     0
 45
0.0
1001
ACAD
1000
AcDbSavedByObjectVersion
1070
     0
  0
VISUALSTYLE
  5
DD0
102
{ACAD_XDICTIONARY
360
ED2
102
}
102
{ACAD_REACTORS
330
DC3
102
}
330
DC3
100
AcDbVisualStyle
  2
Thicken
 70
    13
 71
     2
 72
     2
 73
     0
 90
        0
 40
-0.6
 41
-30.0
 62
     5
 63
     7
 74
     1
 91
        4
 64
     7
 65
   257
 75
     1
175
     1
 42
1.0
 92
       12
 66
     7
 43
1.0
 76
     1
 77
     6
 78
     2
 67
     7
 79
     5
170
     0
171
     0
290
     0
174
     0
 93
        1
 44
0.0
173
     0
291
     1
 45
0.0
1001
ACAD
1000
AcDbSavedByObjectVersion
1070
     0
  0
DICTIONARYVAR
  5
E99
102
{ACAD_REACTORS
330
E95
102
}
330
E95
100
DictionaryVariables
280
     0
  1
1:1
  0
DICTIONARYVAR
  5
E97
102
{ACAD_REACTORS
330
E95
102
}
330
E95
100
DictionaryVariables
280
     0
  1
STANDARD
  0
DICTIONARYVAR
  5
E96
102
{ACAD_REACTORS
330
E95
102
}
330
E95
100
DictionaryVariables
280
     0
  1
STANDARD
  0
DICTIONARYVAR
  5
EAF
102
{ACAD_REACTORS
330
E95
102
}
330
E95
100
DictionaryVariables
280
     0
  1
1
  0
DICTIONARYVAR
  5
EAE
102
{ACAD_REACTORS
330
E95
102
}
330
E95
100
DictionaryVariables
280
     0
  1
0
  0
DICTIONARYVAR
  5
E9B
102
{ACAD_REACTORS
330
E95
102
}
330
E95
100
DictionaryVariables
280
     0
  1
1
  0
DICTIONARYVAR
  5
E9C
102
{ACAD_REACTORS
330
E95
102
}
330
E95
100
DictionaryVariables
280
     0
  1
15
  0
DICTIONARYVAR
  5
E9A
102
{ACAD_REACTORS
330
E95
102
}
330
E95
100
DictionaryVariables
280
     0
  1
0
  0
DICTIONARYVAR
  5
E98
102
{ACAD_REACTORS
330
E95
102
}
330
E95
100
DictionaryVariables
280
     0
  1
0
  0
DICTIONARYVAR
  5
EAD
102
{ACAD_REACTORS
330
E95
102
}
330
E95
100
DictionaryVariables
280
     0
  1
127
  0
DICTIONARYVAR
  5
EB0
102
{ACAD_REACTORS
330
E95
102
}
330
E95
100
DictionaryVariables
280
     0
  1
2
  0
DICTIONARY
  5
E03
102
{ACAD_REACTORS
330
265
102
}
330
265
100
AcDbDictionary
280
     1
281
     1
  3
PH_GRPMEMBERS
360
E04
  0
DICTIONARY
  5
E66
102
{ACAD_REACTORS
330
265
102
}
330
265
100
AcDbDictionary
280
     1
281
     1
  3
$PH$AAAA
360
E67
  3
PH_GRPMEMBERS
360
E6B
  0
PH_GROUP
  5
E70
102
{ACAD_REACTORS
330
265
102
}
330
265
  0
DICTIONARY
  5
EE3
330
DF1
100
AcDbDictionary
280
     1
281
     1
  3
ACAD_XREC_ROUNDTRIP
360
EE4
  0
DICTIONARY
  5
E7E
330
DF0
100
AcDbDictionary
280
     1
281
     1
  3
ACAD_XREC_ROUNDTRIP
360
EE2
  3
ADSK_XREC_LAYOUTTHUMBNAIL
360
E7F
  0
DICTIONARY
  5
DB4
330
DB3
100
AcDbDictionary
280
     1
281
     1
  3
ACAD_XREC_ROUNDTRIP
360
EB8
  3
BUMPTILE
360
DB6
  3
DIFFUSETILE
360
DB5
  3
OPACITYTILE
360
DB9
  3
REFLECTIONTILE
360
DB8
  3
REFRACTIONTILE
360
DBA
  3
SPECULARTILE
360
DB7
  0
DICTIONARY
  5
DAC
330
DAB
100
AcDbDictionary
280
     1
281
     1
  3
ACAD_XREC_ROUNDTRIP
360
EB7
  3
BUMPTILE
360
DAE
  3
DIFFUSETILE
360
DAD
  3
OPACITYTILE
360
DB1
  3
REFLECTIONTILE
360
DB0
  3
REFRACTIONTILE
360
DB2
  3
SPECULARTILE
360
DAF
  0
DICTIONARY
  5
DBC
330
DBB
100
AcDbDictionary
280
     1
281
     1
  3
ACAD_XREC_ROUNDTRIP
360
EB9
  3
BUMPTILE
360
DBE
  3
DIFFUSETILE
360
DBD
  3
OPACITYTILE
360
DC1
  3
REFLECTIONTILE
360
DC0
  3
REFRACTIONTILE
360
DC2
  3
SPECULARTILE
360
DBF
  0
DICTIONARY
  5
EB1
330
DD9
100
AcDbDictionary
280
     1
281
     1
  3
ACAD_ROUNDTRIP_2008_TABLESTYLE_CELLSTYLEMAP
360
EB2
  3
ACAD_XREC_ROUNDTRIP
360
EE0
  0
DICTIONARY
  5
EC4
330
DC9
100
AcDbDictionary
280
     1
281
     1
  3
ACAD_XREC_ROUNDTRIP
360
EC5
  0
DICTIONARY
  5
EC8
330
DCB
100
AcDbDictionary
280
     1
281
     1
  3
ACAD_XREC_ROUNDTRIP
360
EC9
  0
DICTIONARY
  5
EC6
330
DCA
100
AcDbDictionary
280
     1
281
     1
  3
ACAD_XREC_ROUNDTRIP
360
EC7
  0
DICTIONARY
  5
EC2
330
DC8
100
AcDbDictionary
280
     1
281
     1
  3
ACAD_XREC_ROUNDTRIP
360
EC3
  0
DICTIONARY
  5
ED0
330
DCF
100
AcDbDictionary
280
     1
281
     1
  3
ACAD_XREC_ROUNDTRIP
360
ED1
  0
DICTIONARY
  5
ED8
330
DD3
100
AcDbDictionary
280
     1
281
     1
  3
ACAD_XREC_ROUNDTRIP
360
ED9
  0
DICTIONARY
  5
ECA
330
DCC
100
AcDbDictionary
280
     1
281
     1
  3
ACAD_XREC_ROUNDTRIP
360
ECB
  0
DICTIONARY
  5
ECE
330
DCE
100
AcDbDictionary
280
     1
281
     1
  3
ACAD_XREC_ROUNDTRIP
360
ECF
  0
DICTIONARY
  5
EDE
330
DD6
100
AcDbDictionary
280
     1
281
     1
  3
ACAD_XREC_ROUNDTRIP
360
EDF
  0
DICTIONARY
  5
ED6
330
DD2
100
AcDbDictionary
280
     1
281
     1
  3
ACAD_XREC_ROUNDTRIP
360
ED7
  0
DICTIONARY
  5
EBA
330
DC4
100
AcDbDictionary
280
     1
281
     1
  3
ACAD_XREC_ROUNDTRIP
360
EBB
  0
DICTIONARY
  5
EBC
330
DC5
100
AcDbDictionary
280
     1
281
     1
  3
ACAD_XREC_ROUNDTRIP
360
EBD
  0
DICTIONARY
  5
EBE
330
DC6
100
AcDbDictionary
280
     1
281
     1
  3
ACAD_XREC_ROUNDTRIP
360
EBF
  0
DICTIONARY
  5
EC0
330
DC7
100
AcDbDictionary
280
     1
281
     1
  3
ACAD_XREC_ROUNDTRIP
360
EC1
  0
DICTIONARY
  5
EDA
330
DD4
100
AcDbDictionary
280
     1
281
     1
  3
ACAD_XREC_ROUNDTRIP
360
EDB
  0
DICTIONARY
  5
ED4
330
DD1
100
AcDbDictionary
280
     1
281
     1
  3
ACAD_XREC_ROUNDTRIP
360
ED5
  0
DICTIONARY
  5
EDC
330
DD5
100
AcDbDictionary
280
     1
281
     1
  3
ACAD_XREC_ROUNDTRIP
360
EDD
  0
DICTIONARY
  5
ECC
330
DCD
100
AcDbDictionary
280
     1
281
     1
  3
ACAD_XREC_ROUNDTRIP
360
ECD
  0
DICTIONARY
  5
ED2
330
DD0
100
AcDbDictionary
280
     1
281
     1
  3
ACAD_XREC_ROUNDTRIP
360
ED3
  0
PH_GROUP
  5
E04
102
{ACAD_REACTORS
330
E03
102
}
330
E03
  0
DICTIONARY
  5
E67
102
{ACAD_REACTORS
330
E66
102
}
330
E66
100
AcDbDictionary
280
     1
281
     1
  3
$PH$AAAA
360
E68
  3
PH_GRPMEMBERS
360
E6A
  0
PH_GROUP
  5
E6B
102
{ACAD_REACTORS
330
E66
102
}
330
E66
  0
XRECORD
  5
EE4
102
{ACAD_REACTORS
330
EE3
102
}
330
EE3
100
AcDbXrecord
280
     1
102
SHADEPLOT
 70
     0
102
SHADEPLOTRESLEVEL
 70
     2
102
SHADEPLOTCUSTOMDPI
 70
   300
  0
XRECORD
  5
EE2
102
{ACAD_REACTORS
330
E7E
102
}
330
E7E
100
AcDbXrecord
280
     1
102
SHADEPLOT
 70
     0
102
SHADEPLOTRESLEVEL
 70
     2
102
SHADEPLOTCUSTOMDPI
 70
   300
  0
XRECORD
  5
E7F
102
{ACAD_REACTORS
330
E7E
102
}
330
E7E
100
AcDbXrecord
280
     1
310
28000000000100008700000001000800000000000087000000000000000000000001000000000000F0FCFE0000000000FFFFFF000000000000000000000000000000000000000000000000000000000000000000330000006600000099000000CC000000FF00000000330000333300006633000099330000CC330000FF3300
310
0000660000336600006666000099660000CC660000FF66000000990000339900006699000099990000CC990000FF99000000CC000033CC000066CC000099CC0000CCCC0000FFCC000000FF000033FF000066FF000099FF0000CCFF0000FFFF000000003300330033006600330099003300CC003300FF003300003333003333
310
33006633330099333300CC333300FF33330000663300336633006666330099663300CC663300FF66330000993300339933006699330099993300CC993300FF99330000CC330033CC330066CC330099CC3300CCCC3300FFCC330000FF330033FF330066FF330099FF3300CCFF3300FFFF330000006600330066006600660099
310
006600CC006600FF00660000336600333366006633660099336600CC336600FF33660000666600336666006666660099666600CC666600FF66660000996600339966006699660099996600CC996600FF99660000CC660033CC660066CC660099CC6600CCCC6600FFCC660000FF660033FF660066FF660099FF6600CCFF6600
310
FFFF660000009900330099006600990099009900CC009900FF00990000339900333399006633990099339900CC339900FF33990000669900336699006666990099669900CC669900FF66990000999900339999006699990099999900CC999900FF99990000CC990033CC990066CC990099CC9900CCCC9900FFCC990000FF99
310
0033FF990066FF990099FF9900CCFF9900FFFF99000000CC003300CC006600CC009900CC00CC00CC00FF00CC000033CC003333CC006633CC009933CC00CC33CC00FF33CC000066CC003366CC006666CC009966CC00CC66CC00FF66CC000099CC003399CC006699CC009999CC00CC99CC00FF99CC0000CCCC0033CCCC0066CC
310
CC0099CCCC00CCCCCC00FFCCCC0000FFCC0033FFCC0066FFCC0099FFCC00CCFFCC00FFFFCC000000FF003300FF006600FF009900FF00CC00FF00FF00FF000033FF003333FF006633FF009933FF00CC33FF00FF33FF000066FF003366FF006666FF009966FF00CC66FF00FF66FF000099FF003399FF006699FF009999FF00CC
310
99FF00FF99FF0000CCFF0033CCFF0066CCFF0099CCFF00CCCCFF00FFCCFF0000FFFF0033FFFF0066FFFF0099FFFF00CCFFFF00FFFFFF00000000000D0D0D001A1A1A00282828003535350043434300505050005D5D5D006B6B6B00787878008686860093939300A1A1A100AEAEAE00BBBBBB00C9C9C900D6D6D600E4E4E400
310
F1F1F100FFFFFF0000000000000000000000000000000000000000000000000000000000000000000000000000000000E1E1E1E1E1E1E1E1E1E1E1E1E1E1E1E1E1E1E1E1E1E1E1E1E1E1E1E1E1E1E1E1E1BEBEBEBEBEBEBEBEBEBEBEBEBEBEBEBEBEBEBEBEBEBEBEBEBEBEBEBEBEBEBEBEBEBEBEBEBEBEBEBEBEBEBEBEBEBE
310
BEBEBEBEBEBEBEBEBEBEBEBEBEBEBEBEBEBEBEBEBEBEBEBEBEBEBEBEBEBEBEBEBEBEBEBEBEBEBEBEBEBEBEBEBEBEBEBEBEBEBEBEBEBEBEBEBEBEBEBEBEBEBEBEBEBEBEBEBEBEBEBEBEBEBEBEBEBEBEBEBEBEBEBEBEBEBEBEBEBEBEBEBEBEBEBEBEBEBEBEBEBEBEBEBEBEBEBEBEBEBEBEBEBEBEBEBEBEBEBEBEBEBEBEBEBEBE
310
BEBEBEBEBEBEBEBEBEBEBEBEBEBEBEBEBEE1E1E1E1E1E1E1E1E1E1E1E1E1E1E1E1E1E1E1E1E1E1E1E1E1E1E1E1E1E1E1E1E1E1E1E1E1E1E1E1E1E1E1E1E1E1E1E1E1E1E1E1E1E1E1E1E1E1E1E1E1E1E1E1E1E1BEE1E1E1E1E1E1E1E1E1E1E1E1E1E1E1E1E1E1E1E1E1E1E1E1E1E1E1E1E1E1E1E1E1E1E1E1E1E1E1E1E1E1E1
310
E1E1E1E1E1E1E1E1E1E1E1E1BEE1E1E1E1E1E1E1E1E1E1E1E1E1E1E1E1E1E1E1E1E1E1E1E1E1E1E1E1E1E1E1E1E1E1E1E1E1E1E1E1E1E1E1E1E1E1E1BEE1E1E1E1E1E1E1E1E1E1E1E1E1E1E1E1E1E1E1E1E1E1E1E1E1E1E1E1E1E1E1E1E1E1E1E1E1E1E1E1E1E1E1E1E1E1E1E1E1E1E1E1E1E1E1E1E1E1E1E1E1E1E1E1E1E1
310
E1E1E1E1E1E1E1E1E1E1E1E1E1E1E1E1E1E1BEE1E1E1E1E1E1E1E1E1E1E1E1E1E1E1E1E1E1E1E1E1E1E1E1E1E1E1E1E1E1E1E1E1E1E1E1E1E1E1E1E1E1E1E1E1E1E1E1E1E1E1E1E1E1E1E1E1E1E1E1E1E1E1E1E1E1BEE1E1E1E1E1E1E128282828282828282828282828282828282828282828282828282828282828282828
310
2828282828282828282828282828BE2828282828282828282828282828282828282828282828282828282828282828282828282828282828282828282828BE282828282828282828282828282828282828282828282828282828282828282828282828280F2828282828282828282828282828282828282828282828282828
310
2828282828282828282828282828282828282828BEE1E1E1E1E1E1E1E1E1E1E1E1E1E1E1E1E1E1E1E1E1E1E1E1E1E1E1E1E1E1E1E1E1E1E1E1E1E1E1E1E1E1E1E1E1E1E1E1E1E1E1E1E1E1E1E1E1E1E1E1E1E1E1E1E1E1BEE1E1E1E1E1E1E128E1E1E1E1E1E1E1E1E1E1E1E1E1E1E1E1E1E1E1E1E1E1E1E1E1E1E1E1E1E1E1
310
E1E1E1E1E1E1E1E1E1E1E1E1E1E1E1E1E1E1E1E1E1E1E1E1E1E1E1E1E1E1E1E1E1E1E1E1E1E1E1E1E1E1E1E1E1E1E1E1E1E1E1E1E1E1E1E1E1E1E1E1E1E1E1E1E1E1E1E1E1E1E1E1E1E1E1E1E1E1E1E1E1E1E1E1E1E1E1E1E1E1E1E1E1E1E1E1E1E1E1E1E1E10F0F0F0F0F0F0F0F0F0F0F0FE10F0F0F0F0F0F0F0F0FE1E1E1
310
E1E1E1E1E1E1E1E1E1E1E1E1E1E1E1E1E1E1E1E1E128BEE1E1E1E1E1E1E1E1E1E1E1E1E1E1E1E1E1E1E1E1E1E1E1E1E1E1E1E1E1E1E1E1E1E1E1E1E1E1E1E1E1E1E1E1E1E1E1E1E1E1E1E1E1E1E1E1E1E1E1E1E1E1E1E1E1E1BEE1E1E1E1E1E1E128E1E1E1E1E1E1E1E1E1E1E1E1E1E1E1E1E1E1E1E1E1E1E1E1E1E1E1E1E1
310
E1E1E1E1E1E1E1E1E1E1E1E1E1E1E1E1E1E1E1E1E1E1E1E1E1E1E1E1E1E1E1E1E1E1E1E1E1E1E1E1E1E1E1E1E1E1E1E1E1E1E1E1E1E1E1E1E1E1E1E1E1E1E1E1E1E1E1E1E1E1E1E1E1E1E1E1E1E1E1E1E1E1E1E1E1E1E1E1E1E1E1E1E1E1E1E1E1E1E1E1E1E1E1E10F0F0F0F0F0F0F0F0F0F0FE10F0F0F0F0F0F0F0F0F0FE1
310
E1E1E1E1E1E1E1E1E1E1E1E1E1E1E1E1E1E1E1E1E1E1E128BEE1E1E1E1E1E1E1E1E1E1E1E1E1E1E1E1E1E1E1E1E1E1E1E1E1E1E1E1E1E1E1E1E1E1E1E1E1E1E1E1E1E1E1E1E1E1E1E1E1E1E1E1E1E1E1E1E1E1E1E1E1E1E1E1E1E1BEE1E1E1E1E1E1E128E1E1E1E1E1E1E1E1E1E1E1E1E1E1E1E1E1E1E1E1E1E1E1E1E1E1E1
310
E1E1E1E1E1E1E1E1E1E1E1E1E1E1E1E1E1E1E1E1E1E1E1E1E1E1E1E1E1E1E1E1E1E1E1E1E1E1E1E1E1E1E1E1E1E1E1E1E1E1E1E1E1E1E1E1E1E1E1E1E1E1E1E1E1E1E1E1E1E1E1E1E1E1E1E1E1E1E1E1E1E1E1E1E1E1E1E1E1E1E1E1E1E1E1E1E1E1E1E1E1E1E1E1E1E10F0F0F0F0F0FE1E1E1E1E1E1E10F0F0F0F0F0F0F0F
310
E1E1E1E1E1E1E1E1E1E1E1E1E1E1E1E1E1E1E1E1E1E1E1E1E128BEE1E1E1E1E1E1E1E1E1E1E1E1E1E1E1E1E1E1E1E1E1E1E1E1E1E1E1E1E1E1E1E1E1E1E1E1E1E1E1E1E1E1E1E1E1E1E1E1E1E1E1E1E1E1E1E1E1E1E1E1E1E1E1E1E1E1BEE1E1E1E1E1E1E128E1E1E1E1E1E1E1E1E1E1E1E1E1E1E1E1E1E1E1E1E1E1E1E1E1
310
E1E1E1E1E1E1E1E1E1E1E1E1E1E1E1E1E1E1E1E1E1E1E1E1E1E1E1E1E1E1E1E1E1E1E1E1E1E1E1E1E1E1E1E1E1E1E1E1E1E1E1E1E1E1E1E1E1E1E1E1E1E1E1E1E1E1E1E1E1E1E1E1E1E1E1E1E1E1E1E1E1E1E1E1E1E1E1E1E1E1E1E1E1E1E1E1E1E1E1E1E1E1E1E1E1E1E1E10F0F0F0F0FE1E1E1E1E1E1E1E10F0F0F0F0F0F
310
0F0FE1E1E1E1E1E1E1E1E1E1E1E1E1E1E1E1E1E1E1E1E1E1E1E1E128BEE1E1E1E1E1E1E1E1E1E1E1E1E1E1E1E1E1E1E1E1E1E1E1E1E1E1E1E1E1E1E1E1E1E1E1E1E1E1E1E1E1E1E1E1E1E1E1E1E1E1E1E1E1E1E1E1E1E1E1E1E1E1E1E1E1E1BEE1E1E1E1E1E1E128E1E1E1E1E1E1E1E1E1E1E1E1E1E1E1E1E1E1E1E1E1E1E1
310
E1E1E1E1E1E1E1E1E1E1E1E1E1E1E1E1E1E1E1E1E1E1E1E1E1E1E1E1E1E1E1E1E1E1E1E1E1E1E1E1E1E1E1E1E1E1E1E1E1E1E1E1E1E1E1E1E1E1E1E1E1E1E1E1E1E1E1E1E1E1E1E1E1E1E1E1E1E1E1E1E1E1E1E1E1E1E1E1E1E1E1E1E1BEE1E1E1E1E1E1E1E1E1E1E1E1E1E1E1E10F0F0F0F0F0FBE0F0F0F0F0F0F0F0F0F0F
310
0F0F0F0F0F0F0F0F0F0F0F0F0F0F0F0F0F0F0F0F0F0F0F0F0F0F0F0F0F0FBEE1E1E1E1E1E1E1E1E1E1E1E1E1E1E1E1E1E1E1E1E1E1E1E1E1E1E1E1E1E1E1E1E1E1E1E1E1E1E1E1E1E1E1E1E1E1E1E1E1E1E1E1E1E1E1E1E1E1E1E1E1E1E1E1E1E1BEE1E1E1E1E1E1E128E1E1E1E1E1E1E1E1E1E1E1E1E1E1E1E1E1E1E1E1E1
310
E1E1E1E1E1E1E1E1E1E1E1E1E1E1E1E1E1E1E1E1E1E1E1E1E1E1E1E1E1E1E1E1E1E1E1E1E1E1E1E1E1E1E1E1E1E1E1E1E1E1E1E1E1E1E1E1E1E1E1E1E1E1E1E1E1E1E1E1E1E1E1E1E1E1E1E1E1E1E1E1E1E1E1E1E1E1E1E1E1E1E1E1E1E1E1BEE1E1E1E1E1E1E1E1E1E1E1E1E1E1E1E10FBEBEBEBEBEBEBEBEBEBEBEE1E1E1
310
E10FE1E1E1E1E1E1E1E1E1E1E1E1E1BEBEBEBEBEBEBEBEBEBEBEBEBEBEBEE128BEE1E1E1E1E1E1E1E1E1E1E1E1E1E1E1E1E1E1E1E1E1E1E1E1E1E1E1E1E1E1E1E1E1E1E1E1E1E1E1E1E1E1E1E1E1E1E1E1E1E1E1E1E1E1E1E1E1E1E1E1E1E1E1E1E1E1BEE1E1E1E1E1E1E128E1E1E1E1E1E1E1E1E1E1E1E1E1E1E1E1E1E1E1
310
E1E1E1E1E1E1E1E1E1E1E1E1E1E1E1E1E1E1E1E1E1E1E1E1E1E1E1E1E1E1E1E1E1E1E1E1E1E1E1E1E1E1E1E1E1E1E1E1E1E1E1E1E1E1E1E1E1E1E1E1E1E1E1E1E1E1E1E1E1E1E1E1E1E1E1E1E1E1E1E1E1E1E1E1E1E1E1E1E1E1E1E1E1E1E1E1E1BEE1E1E1E1E1E1E1E1E1E1E1E1E1E1E1E10FBEBEBEBEE1BEBEBEBEBEBEE1
310
E1E1E10FE1E1E1E1E1E1E1E1E1E1E1E1E1E1E1E1E1E1E1E2E2E2E2E2E2E2E2E2E128BEE1E1E1E1E1E1E1E1E1E1E1E1E1E1E1E1E1E1E1E1E1E1E1E1E1E1E1E1E1E1E1E1E1E1E1E1E1E1E1E1E1E1E1E1E1E1E1E1E1E1E1E1E1E1E1E1E1E1E1E1E1E1E1E1E1E1BEE1E1E1E1E1E1E128E1E1E1E1E1E1E1E1E1E1E1E1E1E1E1E1E1
310
E1E1E1E1E1E1E1E1E1E1E1E1E1E1E1E1E1E1E1E1E1E1E1E1E1E1E1E1E1E1E1E1E1E1E1E1E1E1E1E1E1E1E1E1E1E1E1E1E1E1E1E1E1E1E1E1E1E1E1E1E1E1E1E1E1E1E1E1E1E1E1E1E1E1E1E1E1E1E1E1E1E1E1E1E1E1E1E1E1E1E1E1E1E1E1E1E1E1BEBEE1E1E1E1E1E1E1E1E1E1E1E1E1E1E1E10FBEBEBEBEBEBEBEBEBEBE
310
BEBEBEBEBEBEE1E1E1E1E1E1E1E1E1E1E1E1E1E1E1E1E1E1E1E2E2E2E2E2E2E2E2E2E128BEE1E1E1E1E1E1E1E1E1E1E1E1E1E1E1E1E1E1E1E1E1E1E1E1E1E1E1E1E1E1E1E1E1E1E1E1E1E1E1E1E1E1E1E1E1E1E1E1E1E1E1E1E1E1E1E1E1E1E1E1E1E1E1E1E1E1BEE1E1E1E1E1E1E128E1E1E1E1E1E1E1E1E1E1E1E1E1E1E1
310
E1E1E1E1E1E1E1E1E1E1E1E1E1E1E1E1E1E1E1E1E1E1E1E1E1E1E1E1E1E1E1E1E1E1E1E1E1E1E1E1E1E1E1E1E1E1E1E1E1E1E1E1E1E1E1E1E1E1E1E1E1E1E1E1E1E1E1E1E1E1E1E1E1E1E1E1E1E1E1E1E1E1E1E1E1E1E1E1E1E1E1E1E1E1E1E1E1E1E1E1BEBEE1E1E1E1E1E1E1E1E1E1E1E1E1E1E1E10FBEE1E1E1E1BEBEE1
310
E1E1E1E1E1E1E10FE1E1E1E1E1E1E1E1E1E1E1E1E1E1E1E1E1E1E1E2E2E2E2E2E2E2E2E2E128BEE1E1E1E1E1E1E1E1E1E1E1E1E1E1E1E1E1E1E1E1E1E1E1E1E1E1E1E1E1E1E1E1E1E1E1E1E1E1E1E1E1E1E1E1E1E1E1E1E1E1E1E1E1E1E1E1E1E1E1E1E1E1E1E1E1E1BEE1E1E1E1E1E1E128E1E1E1E1E1E1E1E1E1E1E1E1E1
310
E1E1E1E1E1E1E1E1E1E1E1E1E1E1E1E1E1E1E1E1E1E1E1E1E1E1E1E1E1E1E1E1E1E1E1E1E1E1E1E1E1E1E1E1E1E1E1E1E1E1E1E1E1E1E1E1E1E1E1E1E1E1E1E1E1E1E1E1E1E1E1E1E1E1E1E1E1E1E1E1E1E1E1E1E1E1E1E1E1E1E1E1E1E1E1E1E1E1E1E1E1E1E1BEE1E1E1E1E1E1E1E1E1E1E1E1E1E1E1E10FBEE1E1E1E1BE
310
BEE1E1E1E1E1E1E1E10FE1E1E1E1E1E1E1E1E1E1E1E1E1E1E1E1E1E1E1E1E1BEE2E2E2E2E2E2E128BEE1E1E1E1E1E1E1E1E1E1E1E1E1E1E1E1E1E1E1E1E1E1E1E1E1E1E1E1E1E1E1E1E1E1E1E1E1E1E1E1E1E1E1E1E1E1E1E1E1E1E1E1E1E1E1E1E1E1E1E1E1E1E1E1E1E1BEE1E1E1E1E1E1E128E1E1E1E1E1E1E1E1E1E1E1
310
E1E1E1E1E1E1E1E1E1E1E1E1E1E1E1E1E1E1E1E1E1E1E1E1E1E1E2E2E2E2E2E2E2E2E2E2E2E2E2E2E2E2E2E2E2E2E2E2E2E2E2E2E2E2E2E2E2E2E2E2E2E2E2E2E2E2E2E2E2E2E2E2E2E2E2E2E2E2E2E2E2E2E2E2E2E2E2E2E2E2E2E2E2E2E2E2E2E2BEBEBEBEBEBEBEBEBEBEE1E1E1E1E1E1E1E1E1E1E1E1E1E10FBEE1E1E1
310
E1BEBEE1E1E1E1E1E1E1E10FE1E1E1E1E1E1E1E1E1E1E1E1E1E1E1E1E1E1E1E1BEBEBEE2BEE2BEE2E128BEE1E1E1E1E1E1E1E1E1E1E1E1E1E1E1E1E1E1E1E1E1E1E1E1E1E1E1E1E1E1E1E1E1E1E1E1E1E1E1E1E1E1E1E1E1E1E1E1E1E1E1E1E1E1E1E1E1E1E1E1E1E1E1E1E1E1BEE1E1E1E1E1E1E128E1E1E1E1E1E1E1E1E1
310
E1E1E1E1E1E1E1E1E1E1E1E1E1E1E1E1E1E1E1E1E1E1E1E1E1E1E1E1E2E2E2E2E2E2E2E2E2E2E2E2E2E2E2E2E2E2E2E2E2E2E2E2E2E2E2E2E2E2E2E2E2E2E2E2E2E2E2E2E2E2E2E2E2E2E2E2E2E2E2E2E2E2E2E2E2E2E2E2E2E2E2E2E2E2E2E2E2E2E2E2BEBEBEBEBEBEBEBEBEBEE1E1E1E1E1E1E1E1E1E1E1E1E1E10FBEE1
310
E1E1E1BEBEE1E1E1E1E1E1E1E10FE1E1E1E1E1E1E1E1E1E1E1E1E1E1E1E1E1E1E1E1BEBEBEBEE2E2E2E2E128BEE1E1E1E1E1E1E1E1E1E1E1E1E1E1E1E1E1E1E1E1E1E1E1E1E1E1E1E1E1E1E1E1E1E1E1E1E1E1E1E1E1E1E1E1E1E1E1E1E1E1E1E1E1E1E1E1E1E1E1E1E1E1E1E1E1E1BEE1E1E1E1E1E1E128E1E1E1E1E1E1E1
310
E1E1E1E1E1E1E1E1E1E1E1E1E1E1E1E1E1E1E1E1E1E1E1E1E1E1E1E1E1E1E1E1E1E1E1E1E1E1E1E1E1E1E1E1E1E1E1E1E1E1E1E1E1E1E1E1E1E1E1E1E1E1E1E1E1E1E1E1E1E1E1E1E1E1E1E1E1E1E1E1E1E1E1E1E1E1E1E1E1E1E1E1E1E1E1E1E1E1E1E1E1E1E1E1E1E1E1E1E1BEE1E1E1E1E1E1E1E1E1E1E1E1E1E1E1E10F
310
BEE1E1E1E1BEBEE1E1E1E1E1E1E1E10FE1E1E1E1E1E1E1E1E1E1E1E1E1E1E1E1E1E1E1E1BEBEBEBEE2E2E2E2E128BEE1E1E1E1E1E1E1E1E1E1E1E1E1E1E1E1E1E1E1E1E1E1E1E1E1E1E1E1E1E1E1E1E1E1E1E1E1E1E1E1E1E1E1E1E1E1E1E1E1E1E1E1E1E1E1E1E1E1E1E1E1E1E1E1E1E1BEE1E1E1E1E1E1E128E1E1E1E1E1
310
E1E1E1E1E1E1E1E1E1E1E1E1E1E1E1E1E1E1E1E1E1E1E1E1E1E1E1E1E1E1E1E1E1E1E1E1E1E1E1E1E1E1E1E1E1E1E1E1E1E1E1E1E1E1E1E1E1E1E1E1E1E1E1E1E1E1E1E1E1E1E1E1E1E1E1E1E1E1E1E1E1E1E1E1E1E1E1E1E1E1E1E1E1E1E1E1E1E1E1E1E1E1E1E1E1E1E1E1E1E1BEBEE1E1E1E1E1E1E1E1E1E1E1E1E1E1E1
310
E10FBEE1E1E1E1BEBEE1E1E1E1E1E1E1E10FE1E1E1E1E1E1E1E1E1E1E1E1E1E1E1E1E1E1E1E1E1BEBEBEE1E2E1E2E128BEE1E1E1E1E1E1E1E1E1E1E1E1E1E1E1E1E1E1E1E1E1E1E1E1E1E1E1E1E1E1E1E1E1E1E1E1E1E1E1E1E1E1E1E1E1E1E1E1E1E1E1E1E1E1E1E1E1E1E1E1E1E1E1E1E1E1BEE1E1E1E1E1E1E128E1E1E1
310
E1E1E1E1E1E1E1E1E1E1E1E1E1E1E1E1E1E1E1E1E1E1E1E1E1E1E1E1E1E1E1E1E1E1E1E1E1E1E1E1E1E1E1E1E1E1E1E1E1E1E1E1E1E1E1E1E1E1E1E1E1E1E1E1E1E1E1E1E1E1E1E1E1E1E1E1E1E1E1E1E1E1E1E1E1E1E1E1E1E1E1E1E1E1E1E1E1E1E1E1E1E1E1E1E1E1E1E1E1E1E1E1BEBEE1E1E1E1E1E1E1E1E1E1E1E1E1
310
E1E1E10FBEE1E1E1E1BEBEE1E1E1E1E1E1E1E10FE1E1E1E1E1E1E1E1E1E1E1E1E1E1E1E1E1E1E1E1E1E1E1E1E1E1E1E1E128BEE1E1E1E1E1E1E1E1E1E1E1E1E1E1E1E1E1E1E1E1E1E1E1E1E1E1E1E1E1E1E1E1E1E1E1E1E1E1E1E1E1E1E1E1E1E1E1E1E1E1E1E1E1E1E1E1E1E1E1E1E1E1E1E1E1E1BEE1E1E1E1E1E1E128E1
310
E1E1E1E1E1E1E1E1E1E1E1E1E1E1E1E1E1E1E1E1E1E1E1E1E1E1E1E1E1E1E1E1E1E1E1E1E1E1E1E1E1E1E1E1E1E1E1E1E1E1E1E1E1E1E1BEBEBEBEBEBEBEBEBEBEBEBEE1E1E1E1E1E1E1E1E1E1E1E1E1E1E1E1E1E1E1BEBEBEBEBEBEBEE1E1E1E1E1E1E1E1E1E1E1E1E1E1E1E1E1E1E1E1E1E1BEE1E1E1E1E1E1E1E1E1E1E1
310
E1E1E1E1E10FBEE1E1E1E1BEBEE1E1E1E1E1E1E1E10FE1E1E1E1E1E1E1E1E1E1E1E1E1E1E1E1E1E1E1E1E1E1E1E1E1E1E1E1E128BEE1E1E1E1E1E1E1E1E1E1E1E1E1E1E1E1E1E1E1E1E1E1E1E1E1E1E1E1E1E1E1E1E1E1E1E1E1E1E1E1E1E1E1E1E1E1E1E1E1E1E1E1E1E1E1E1E1E1E1E1E1E1E1E1E1E1BEE1E1E1E1E1E1E1
310
28E1E1E1E1E1E1E1E1E1E1E1E1E1E1E1E1E1E1E1E1E1E1E1E1E1E1E1E1E1E1E1E1E1E1E1E1E1E1E1E1E1E1E1E1E1E1E1E1E1E1E1E1E1E1E1BEE1E10F0FE1E1E10F0F0F0FE1E1E1E1E1E1E1E1E1E1E1E1E1E1E1E1E1E1E1BEE1E1E1E10F0FE1E1E1E1E1E1E1E1E1E1E1E1E1E1E1E1E1E1E10FE1E10FBEE1E1E1E1E1E1E1E1E1
310
E1E1E1E1E1E1E10FE1E1E1E1E1BEE1E1E1E1E1E1E1E1E10FE1E1E1E1E1E1E1E1E1E1E1E1E1E1E1E1E1E1E1E1E1E1E1E1E1E1E1E1E128BEE1E1E1E1E1E1E1E1E1E1E1E1E1E1E1E1E1E1E1E1E1E1E1E1E1E1E1E1E1E1E1E1E1E1E1E1E1E1E1E1E1E1E1E1E1E1E1E1E1E1E1E1E1E1E1E1E1E1E1E1E1E1E1E1E1E1BEE1E1E1E1E1
310
E1E128E1E1E1E1E1E1E1E1E1E1E1E1E1E1E1E1E1E1E1E1E1E1E1E1E1E1E1E1E1E1E1E1E1E1E1E1E1E1E1E1E1E1E1E1E1E1E1E1E1E1E1E1E1E1E1BEE1E10F0FE1E10F0FE10F0FE1E1E1E1E1E1E1E1E1E1E1E1E1E1E1E1E1E1E1BE0F0F0FE10F0FE1E1E1E1E1E1E1E1E1E1E1E1E1E1E1E1E1E1E10F0F0F0FBEE1E1E1E1E1E1E1
310
E1E1E1E1E1E1E1E1E10FBEE1E1E1E1BEBEE1E1E1E1E1E1E1E10FE1E1E1E1E1E1E1E1E1E1E1E1E1E1E1E1E1E1E1E1E1E1E1E1E1E1E1E1E128BEE1E1E1E1E1E1E1E1E1E1E1E1E1E1E1E1E1E1E1E1E1E1E1E1E1E1E1E1E1E1E1E1E1E1E1E1E1E1E1E1E1E1E1E1E1E1E1E1E1E1E1E1E1E1E1E1E1E1E1E1E1E1E1E1E1E1BEE1E1E1
310
E1E1E1E128E1E1E1E1E1E1E1E1E1E1E1E1E1E1E1E1E1E1E1E1E1E1E1E1E1E1E1E1E1E1E1E1E1E1E1E1E1E1E1E1E1E1E1E1E1E1E1E1E1E1E1E1E1E1BEE1E1E10F0FE1E10FE1E10F0FE1E1E1E1E1E1E1E1E1E1E1E1E1E1E1E1E1E1BEE10F0F0FE10F0FE1E1E1E1E1E1E1E1E1E1E1E1E1E1E1E1E1E1E1E1E1E1E1BEE1E1E1E1E1
310
E1E1E1E1E1E1E1E1E1E1E10FBEE1E1E1E1BEBEE1E1E1E1E1E1E1E10FE1E1E1E1E1E1E1E1E1E1E1E1E1E1E1E1E1E1E1E1E1E1E1E1E1E1E1E1E128BEE1E1E1E1E1E1E1E1E1E1E1E1E1E1E1E1E1E1E1E1E1E1E1E1E1E1E1E1E1E1E1E1E1E1E1E1E1E1E1E1E1E1E1E1E1E1E1E1E1E1E1E1E1E1E1E1E1E1E1E1E1E1E1E1E1E1BEE1
310
E1E1E1E1E1E128E1E1E1E1E1E1E1E1E1E1E1E1E1E1E1E1E1E1E1E1E1E1E1E1E1E1E1E1E1E1E1E1E1E1E1E1E1E1E1E1E1E1E1E1E1E1E1E1E1E1E1E1E1BEE1E1E1E1E1E1E1E10FE1E1E10FE1E1E1E1E1E1E1E1E1E1E1E1E1E1E1E1E1BEE1E1E1E1E1E1E10FE1E1E1E1E1E1E1E1E1E1E1E1E1E1E1E1E1E1E1E1E1E1E1E1E1E1E1
310
E1E1E1E1E1E1E1E1E1E1E1E1E10F0F0F0F0F0F0F0F0F0F0F0F0F0F0F0F0F0F0F0F0F0F0F0F0F0F0F0F0F0F0F0F0F0F0F0F0F0F0F0F0F0F0F0F0F0F0FBEE1E1E1E1E1E1E1E1E1E1E1E1E1E1E1E1E1E1E1E1E1E1E1E1E1E1E1E1E1E1E1E1E1E1E1E1E1E1E1E1E1E1E1E1E1E1E1E1E1E1E1E1E1E1E1E1E1E1E1E1E1E1E1E1E1E1
310
BEE1E1E1E1E1E1E128E1E1E1E1E1E1E1E1E1E1E1E1E1E1E1E1E1E1E1E1E1E1E1E1E1E1E1E1E1E1E1E1E1E1E1E1E1E1E1E1E1E1E1E1E1E1E1E1E1E1E1E1E1BEE1E1E1E1E1E1E1E1E1E1E1E1E1E1E1E1E1E1E1E1E1E1E1E1E1E1E1E1E1BEE1E1E1E1E1E1E1E1E1E1E1E1E1E1E1E1E1E1E1E1E1E1E1E1E1E1E1E1E1E1E1E1E1E1
310
E1E1E1E1E1E1E1E1E1E1E1E1E1E1E10FE1E1E1E1E1E1E1E1E1E1E1E1E1E1E1E1E1E1E1E1E1E1E1E1E1E1E1E1E1E1E1E1E1E1E1E1E1E1E1E1E1E1E1E1E128BEE1E1E1E1E1E1E1E1E1E1E1E1E1E1E1E1E1E1E1E1E1E1E1E1E1E1E1E1E1E1E1E1E1E1E1E1E1E1E1E1E1E1E1E1E1E1E1E1E1E1E1E1E1E1E1E1E1E1E1E1E1E1E1E1
310
E1E1BEE1E1E1E1E1E1E128E1E1E1E1E1E1E1E1E1E1E1E1E1E1E1E1E1E1E1E1E1E1E1E1E1E1E1E1E1E1E1E1E1E1E1E1E1E1E1E1E1E1E1E1E1E1E1E1E1E1E1E1BEE1E1E1E1E1E1E1E1E1E1E1E1E1E1E1E1E1E1E1E1E1E1E1E1E1E1E1E1E1E1BEE1E1E1E1E1E1E1E1E1E1E1E1E1E1E1E1E1E1E1E1E1E1E1E1E1E1E1E1E1E1E1E1
310
E1E1E1E1E1E1E1E1E1E1E1E1E1E1E1E1E10FE1E2E2E2E2E2E2E2E2E2E2E2E2E2E2E2E2E2E2E2E2E2E2E2E2E2E2E2E2E2E2E2E2E2E2E2E1E2E2E2E2E2E2E1E128BEE1E1E1E1E1E1E1E1E1E1E1E1E1E1E1E1E1E1E1E1E1E1E1E1E1E1E1E1E1E1E1E1E1E1E1E1E1E1E1E1E1E1E1E1E1E1E1E1E1E1E1E1E1E1E1E1E1E1E1E1E1E1
310
E1E1E1E1BEE1E1E1E1E1E1BE28E1E1E1E1E1E1E1E1E1E1E1E1E1E1E1E1E1E1E1E1E1E1E1E1E1E1E1E1E1E1E1E1E1E1E1E1E1E1E1E1E1E1E1E1E1E1E1E1E1E1E1BEE1E1E1E1E1E1E1E1E1E1E1E1E1E1E1E1E1E1E1E1E1E1E1E1E1E1E1E1E1E1BEE1E1E1E1E1E1E1E1E1E1E1E1E1E1E1E1E1E1E1E1E1E1E1E1E1E1E1E1E1E1E1
310
E1E1E1E1E1E1E1E1E1E1E1E1E1E1E1E1E1E1E10FE1E2E1E2E2E2E2E2E2E2E2E2E2E2E2E2E2E2E2E2E2E1E2E2E2E2E2E2E2E2E2E2E2E2E2E2E2E2E2E2E2E2E2E2E128BEE1E1E1E1E1E1E1E1E1E1E1E1E1E1E1E1E1E1E1E1E1E1E1E1E1E1E1E1E1E1E1E1E1E1E1E1E1E1E1E1E1E1E1E1E1E1E1E1E1E1E1E1E1E1E1E1E1E1E1E1
310
E1E1E1E1E1E1BEE1E1E1E1E1E1BEBEE1E1E1E1E1E1E1E1E1E1E1E1E1BEBEBEBEBEBEBEBEBEBEBEBEBEBEBEBEBEBEBEBEBEBEBEBEE2E2E2E2E2E2E2E2E2E2E2E2E2E2E2E2E2E2E2E2E2E2E2E2E2E2E2E2E2E2E2E2E2E2E2E2E2E2E2E2E2E2E2E2E2E2E2E2E2E2E2E2E2E2E2E2E2E2E2E2E2E2E2E2E2E2E2E2E2E2E2E2E1E1E1
310
E1E1E1E1E1E1E1E1E1E1E1E1E1E1E1E1E1E1E1E1E10FE1E2E2E1E2E1E2E1E1E1E1E1E2E1E2E1E1E1E1E1E1E1E2E2E1E1E2E1E2E1E1E1E1E1E1E2E1E1E1E1E2E1E1E1E128BEE1E1E1E1E1E1E1E1E1E1E1E1E1E1E1E1E1E1E1E1E1E1E1E1E1E1E1E1E1E1E1E1E1E1E1E1E1E1E1E1E1E1E1E1E1E1E1E1E1E1E1E1E1E1E1E1E1E1
310
E1E1E1E1E1E1E1E1BEE1E1E1E1E1E1BEBEE1E1E1E1E1E1E1E1E1E1E1E1E1E1BEE1E1E1E1E1BEBEBEBEBEBEBEBEBEBEBEBEBEBEBEBEBEE2BEBEE2E2E2E1E1E2E2E1E1E2E2E2E1E1E2E2E1E1E2E2E2E1E1E2E2E1E1E2E2E2E1E1E2E2E1E1E1E2E2E1E1E2E2E1E1E1E2E2E1E1E2E2E2E1E1E2E2E1E1E2E2E2E1E1E2E2E1E1E2E1
310
E1E1E1E1E1E1E1E1E1E1E1E1E1E1E1E1E1E1E1E1E1E1E10FE1E2E2E2E2E2E2E2E2E1E2E2E1E2E2E2E2E2E2E1E1E1E1E1E1E1E1E1E1E1E1E1E1E1E1E1E1E1E1E1E1E1E1E1E128BEE1E1E1E1E1E1E1E1E1E1E1E1E1E1E1E1E1E1E1E1E1E1E1E1E1E1E1E1E1E1E1E1E1E1E1E1E1E1E1E1E1E1E1E1E1E1E1E1E1E1E1E1E1E1E1E1
310
E1E1E1E1E1E1E1E1E1E1BEE1E1E1E1E1E1BEBEE1E1E1E1E1E1E1E1E1E1E1E1E1E1BEBEE1E1E1E1E1E1BEE1E1E1E1E1E1E1BEE1E1E1E1E1E1E2E2E2E2E2E2E2E2E2E2E2E2E2E2E2E2E2E2E2E2E2E2E2E2E2E2E2E2E2E2E2E2E2E2E2E2E2E2E2E2E2E2E2E2E2E2E2E2E2E2E2E2E2E2E2E2E2E2E2E2E2E2E2E2E2E2E2E2E2E2E2
310
E2E1E1E1E1E1E1E1E1E1E1E1E1E1E1E1E1E1E1E1E1E1E1E1E10FE1E2E2E2E2E2E2E1E2E2E2E1E1E1E2E2E2E2E2E1E1E1E1E1E1E1E1E1E1E1E1E1E1E1E1E1E1E1E1E1E1E1E1E1E128BEE1E1E1E1E1E1E1E1E1E1E1E1E1E1E1E1E1E1E1E1E1E1E1E1E1E1E1E1E1E1E1E1E1E1E1E1E1E1E1E1E1E1E1E1E1E1E1E1E1E1E1E1E1E1
310
E1E1E1E1E1E1E1E1E1E1E1E1BEE1E1E1E1E1E1BEBEE1E1E1E1E1E1E1E1E1E1E1E1E1E1BEBEE1E1E1E1E1E1BEE1E1E1E1E1E1BEBEE1E1E1E1E1E1E2E2E2E1E1E2E1E2E1E1E2E2E1E1E2E1E2E1E1E2E1E2E1E1E2E2E1E1E2E1E2E1E1E2E2E1E1E2E1E2E1E1E2E2E1E1E2E1E2E1E1E2E2E1E1E2E1E2E1E1E2E2E1E1E2E1E2E1E1
310
E2E2E2E1E1E1E1E1E1E1E1E1E1E1E1E1E1E1E1E1E1E1E1E1E1E1E10FE1E1E1E1E1E1E1E1E1E1E1E1E1E1E1E1E1E1E1E1E1E1E1E1E1E1E1E1E1E1E1E1E1E1E1E1E1E1E1E1E1E1E1E1E128BEE1E1E1E1E1E1E1E1E1E1E1E1E1E1E1E1E1E1E1E1E1E1E1E1E1E1E1E1E1E1E1E1E1E1E1E1E1E1E1E1E1E1E1E1E1E1E1E1E1E1E1E1
310
E1E1E1E1E1E1E1E1E1E1E1E1E1E1BEE1E1E1E1E1E1BEBEE1E1E1E1E1E1E1E1E1E1E1E1E1E1BEE1E1E1E1E1E1E1BEE1E1E1E1E1E1BEBEE1E1E1E1E1E1E2E2E2E1E1E2E1E2E1E1E2E2E1E1E2E1E2E1E1E2E1E2E1E1E2E2E1E1E2E1E2E1E1E2E2E1E1E2E1E2E1BEE2E2E1E1E2E1E2E1E1E2E2E1E1E2E1E2E1E1E2E2E1E1E2E1E2
310
E1E1E2E2E2E1E1E1E1E1E1E1E1E1E1E1E1E1E1E1E1E1E1E1E1E1E1E1E10FE1E2E2E2E2E2E2E2E2E2E2E2E1E2E2E2E2E2E2E2E2E1E1E1E1E1E1E1E1E1E1E1E1E1E1E1E1E1E1E1E1E1E1E1E128BEE1E1E1E1E1E1E1E1E1E1E1E1E1E1E1E1E1E1E1E1E1E1E1E1E1E1E1E1E1E1E1E1E1E1E1E1E1E1E1E1E1E1E1E1E1E1E1E1E1E1
310
E1E1E1E1E1E1E1E1E1E1E1E1E1E1E1E1BEE1E1E1E1E1E1BEBEE1E1E1E1E1E1E1E1E1E1E1E1E1E1BEE1E1E1E1E1E1E1BEE1E1E1E1E1E1E1BEE1E1E1E1E1E1E2E1E1E2E2E2E1E1E1E1E1E1E2E2E2E1E1E1E1E1E1E2E2E2E1E1E1E1E1E1E2E2E2E1E1E1E1E1E1E2E2E2E1E1E1E1E1E1E2E2E2E1E1E1E1E1E1E2E2E2E1E1E1E1E1
310
E1E1E2E2E1E1E2E1E1E1E1E1E1E1E1E1E1E1E1E1E1E1E1E1E1E1E1E1E1E1E10FE1E2E2E2E2E2E2E2E2E2E2E2E1E2E2E2E2E2E2E2E1E1E1E1E1E1E1E1E1E1E1E1E1E1E1E1E1E1E1E1E1E1E1E1E128BEE1E1E1E1E1E1E1E1E1E1E1E1E1E1E1E1E1E1E1E1E1E1E1E1E1E1E1E1E1E1E1E1E1E1E1E1E1E1E1E1E1E1E1E1E1E1E1E1
310
E1E1E1E1E1E1E1E1E1E1E1E1E1E1E1E1E1E1BEE1E1E1E1E1E1BEBEE1E1E1E1E1E1E1E1E1E1E1E1E1E1BEE1E1E1E1E1E1E1BEE1E1E1E1E1E1E1BEE1E1E1E1E1E1E2E1E1E2E1E2E1E1E1E1E1E1E2E1E2E1E1E1E1E1E1E2E1E2E1E1E1E1E1E1E2E1E2E1E1E1E1E1E1E2BEE2E1E1E1E1E1E1E2E1E2E1E1E1E1E1E1E2E1E2E1E1E1
310
E1E1E1E1E2E2BEBEE2BEBEBEBEBEBEBEBEBEBEBEBEBEBEBEBEBEE1E1E1E1E1E1E10FE1E2E1E2E1E1E1E1E1E1E2E2E1E2E2E1E1E2E1E2E1E1E1E1E1E1E1E1E1E1E1E1E1E1E1E1E1E1E1E1E1E1E1E1E128BEE1E1E1E1E1E1E1E1E1E1E1E1E1E1E1E1E1E1E1E1E1E1E1E1E1E1E1E1E1E1E1E1E1E1E1E1E1E1E1E1E1E1E1E1E1E1
310
E1E1E1E1E1E1E1E1E1E1E1E1E1E1E1E1E1E1E1E1BEE1E1E1E1E1E1BEBEE1E1E1E1E1E1E1E1E1E1E1E1E1E1BEE1E1E1E1E1E1E1BEE1E1E1E1E1E1E1BEE1E1E1E1E1E1E2E1E1E2E2E2E1E1E1E1E1E1E2E2E2E1E1E1E1E1E1E2E2E2E1E1E1E1E1E1E2E2E2E1E1E1E1E1E1E2E2E2E1E1E1E1E1E1E2E2E2E1E1E1E1E1E1E2E2E2E1
310
E1E1E1E1E1E1E2E2E1E1E2E1E1E1E1E1E1E1BEE1E1E1E1E1E1BEE1E1E1E1E1E1E1E1E10FE1E2E2E2E2E2E2E2E2E2E1E2E1E2E2E2E1E2E2E2E2E2E2E1E1E1E1E1E1E1E1E1E1E1E1E1E1E1E1E1E1E1E1E1E128BEE1E1E1E1E1E1E1E1E1E1E1E1E1E1E1E1E1E1E1E1E1E1E1E1E1E1E1E1E1E1E1E1E1E1E1E1E1E1E1E1E1E1E1E1
310
E1E1E1E1E1E1E1E1E1E1E1E1E1E1E1E1E1E1E1E1E1E1BEE1E1E1E1E1E1BEBEE1E1E1E1E1E1E1E1E1E1E1E1E1E1BEE1E1E1E1E1E1E1BEE1E1E1E1E1E1E1BEE1E1E1E1E1E1E2E1E1E1E1E1E1E1E1E1E1E1E1E1E1E1E1E1E1E1E1E1E1E1E1E1E1E1E1E1E1E1E1E1E1E1E1E1E1E1E1E1E1E1E1E1E1E1E1E1E1E1E1E1E1E1E1E1E1
310
E1E1E1E1E1E1E1E1E1E1E1E1E2E1E1E10F0F0FBEBEE1E1E1E1E1E1BEBEE1E1E1E1E1E1E1E10FE1E1E2E2E2E2E2E2E2E2E1E1E2E1E2E2E2E2E2E2E2E2E2E2E1E1E1E1E1E1E1E1E1E1E1E1E1E1E1E1E1E1E1E1E128BEE1E1E1E1E1E1E1E1E1E1E1E1E1E1E1E1E1E1E1E1E1E1E1E1E1E1E1E1E1E1E1E1E1E1E1E1E1E1E1E1E1E1
310
E1E1E1E1E1E1E1E1E1E1E1E1E1E1E1E1E1E1E1E1E1E1E1E1BEE1E1E1E1E1E1BEBEE1E1E1E1E1E1E1E1E1E1E1E1E1E1BEE1E1E1E1E1E1E1BEE1E1E1E1E1E1E1BEE1E1E1E1E1E1E2E1E1E1E1E1E1E1E1E1E1E1E1E1E1E1E1E1E1E1E1E1E1E1E1E1E1E1E1E1E1E1E1E1E1E1E1E1E1E1E1E1E1E1E1E1E1E1E1E1E1E1E1E1E1E1E1
310
E1E1E1E1E1E1E1E1E1E1E1E1E1E1E2E1E1E1E10F0F0FBEE1E1E1E1E1E1BEBEE1E1E1E1E1E1E1E10F0F0F0F0F0F0F0F0F0F0F0F0F0F0F0F0F0F0F0F0F0F0F0F0F0F0F0F0F0F0F0F0F0F0F0F0F0F0F0F0F0F0F0F0F0F0FBEE1E1E1E1E1E1E1E1E1E1E1E1E1E1E1E1E1E1E1E1E1E1E1E1E1E1E1E1E1E1E1E1E1E1E1E1E1E1E1E1
310
E1E1E1E1E1E1E1E1E1E1E1E1E1E1E1E1E1E1E1E1E1E1E1E1E1E1BEE1E1E1E1E1E1BEBEE1E1E1E1E1E1E1E1E1E1E1E1E1E1BEE1E1E1E1E1E1E1BEE1E1E1E1E1E1E1BEE1E1E1E1E1E1E2E1E1E1E1E1E1E1E1E1E1E1E1E1E1E1E1E1E1E1E1E1E1E1E1E1E1E1E1E1E1E1E1E1E1E1E1E1E1E1E1E1E1E1E1E1E1E1E1E1E1E1E1E1E1
310
E1E1E1E1E1E1E1E1E1E1E1E1E1E1E1E1E2E1E1E1E1E10FE1BEE1E1E1E1E1E1BEE1E1E1E1E1E1E1E1E10FE1E1E1E1E1E1E1E1E1E1E1E2E2E2E1E2E2E2E2E2E2E2E2E2E2E2E2E2E2E1E1E1E1E1E1E1E1E1E1E1E1E1E1E1E128BEE1E1E1E1E1E1E1E1E1E1E1E1E1E1E1E1E1E1E1E1E1E1E1E1E1E1E1E1E1E1E1E1E1E1E1E1E1E1
310
E1E1E1E1E1E1E1E1E1E1E1E1E1E1E1E1E1E1E1E1E1E1E1E1E1E1E1E1BEE1E1E1E1E1E1BEBEE1E1E1E1E1E1E1E1E1E1E1E1E1E1BEE1E1E1E1E1E1E1BEE1E1E1E1E1E1E1BEE1E1E1E1E1E1E2E1E1E1E1E1E1E1E1E1E1E1E1E1E1E1E1E1E1E1E1E1E1E1E1E1E1E1E1E1E1E1E1E1E1E1E1E1E1E1E1E1E1E1E1E1E1E1E1E1E1E1E1
310
E1E1E1E1E1E1E1E1E1E1E1E1E1E1E1E1E1E1E2E1E1E10F0F0F0FBEE1E1E1E1E1E1BEE1E1E1E1E1E1E1E1E10FE1E1E1E1E1E1E1E1E1E1E1E2E2E2E1E2E2E2E2E2E2E2E2E2E2E2E1E2E2E1E1E1E1E1E1E1E1E1E1E1E1E1E1E1E128BEE1E1E1E1E1E1E1E1E1E1E1E1E1E1E1E1E1E1E1E1E1E1E1E1E1E1E1E1E1E1E1E1E1E1E1E1
310
E1E1E1E1E1E1E1E1E1E1E1E1E1E1E1E1E1E1E1E1E1E1E1E1E1E1E1E1E1E1BEE1E1E1E1E1E1BEBEE1E1E1E1E1E1E1E1E1E1E1E1E1E1BEE1E1E1E1E1E1E1BEE1E1E1E1E1E1E1BEE1E1E1E1E1E1E2E1E1E1E1E1E1E1E1E1E1E1E1E1E1E1E1E1E1E1E1E1E1E1E1E1E1E1E1E1E1E1E1E1E1E1E1E1E1E1E1E1E1E1E1E1E1E1E1E1E1
310
E1E1E1E1E1E1E1E1E1E1E1E1E1E1E1E1E1E1E1E1E2E1E1E1E1E10FE1BEE1E1E1E1E1E1BEE1E1E1E1E1E1E1E1E10FE1E1E1E1E1E1E1E1E1E1E1E2E2E2E1E2E2E2E2E2E2E2E2E2E2E2E1E2E2E1E1E1E1E1E1E1E1E1E1E1E1E1E1E1E128BEE1E1E1E1E1E1E1E1E1E1E1E1E1E1E1E1E1E1E1E1E1E1E1E1E1E1E1E1E1E1E1E1E1E1
310
E1E1E1E1E1E1E1E1E1E1E1E1E1E1E1E1E1E1E1E1E1E1E1E1E1E1E1E1E1E1E1E1BEE1E1E1E1E1E1BEBEE1E1E1E1E1E1E1E1E1E1E1E1E1E1BEE1E1E1E1E1E1E1BEE1E1E1E1E1E1E1BEE1E1E1E1E1E1E2E1E1E1E1E1E1E1E1E1E1E1E1E1E1E1E1E1E1E1E1E1E1E1E1E1E1E1E1E1E1E1E1E1E1E1E1E1E1E1E1E1E1E1E1E1E1E1E1
310
E1E1E1E1E1E1E1E1E1E1E1E1E1E1E1E1E1E1E1E1E1E1E2E1E1E1E1E1E10FBEE1E1E1E1E1E1BEE1E1E1E1E1E1E1E1E10FE1E1E1E1E1E1E1E1E1E10FE1E1E1E1E1E1E1E1E1E1E1E1E1E10F0FE1E1E1E1E1E1E1E1E1E1E1E1E1E1E1E1E1E128BEE1E1E1E1E1E1E1E1E1E1E1E1E1E1E1E1E1E1E1E1E1E1E1E1E1E1E1E1E1E1E1E1
310
E1E1E1E1E1E1E1E1E1E1E1E1E1E1E1E1E1E1E1E1E1E1E1E1E1E1E1E1E1E1E1E1E1E1BEE1E1E1E1E1E1BEBEE1E1E1E1E1E1E1E1E1E1E1E1E1E1BEE1E1E1E1E1E1E1BEE1E1E1E1E1E1E1BEE1E1E1E1E1E1E2E1E1E1E1E1E1E1E1E1E1E1E1E1E1E1E1E1E1E1E1E1E1E1E1E1E1E1E1E1E1E1E1E1E1E1E1E1E1E1E1E1E1E1E1E1E1
310
E1E1E1E1E1E1E1E1E1E1E1E1E1E1E1E1E1E1E1E1E1E1E1E1E2E1E1E10F0F0FE1BEE1E1E1E1E1E1BEE1E1E1E1E1E1E1E1E10FE10F0F0F0F0F0F0F0F0F0F0F0F0F0F0FE10F0F0F0F0F0F0F0F0F0F0F0F0F0FE1E1E1E1E1E1E1E1E1E1E1E1E1E128BEE1E1E1E1E1E1E1E1E1E1E1E1E1E1E1E1E1E1E1E1E1E1E1E1E1E1E1E1E1E1
310
E1E1E1E1E1E1E1E1E1E1E1E1E1E1E1E1E1E1E1E1E1E1E1E1E1E1E1E1E1E1E1E1E1E1E1E1BEE1E1E1E1E1E1BEBEE1E1E1E1E1E1E1E1E1E1E1E1E1E1BEE1E1E1E1E1E1E1BEE1E1E1E1E1E1E1BEE1E1E1E1E1E1E2E1E1E1E1E1E1E1E1E1E1E1E1E1E1E1E1E1E1E1E1E1E1E1E1E1E1E1E1E1E1E1E1E1E1E1E1E1E1E1E1E1E1E1E1
310
E1E1E1E1E1E1E1E1E1E1E1E1E1E1E1E1E1E1E1E1E1E1E1E1E1E1E2E1E1E1E10F0F0FBEE1E1E1E1E1E1BEE1E1E1E1E1E1E1E1E10F0F0F0F0F0F0F0F0F0F0F0F0F0F0F0F0F0F0F0F0F0F0F0F0F0F0F0F0F0F0F0F0F0F0F0F0F0F0F0F0F0F0F0F0F0F0FBEE1E1E1E1E1E1E1E1E1E1E1E1E1E1E1E1E1E1E1E1E1E1E1E1E1E1E1E1
310
E1E1E1E1E1E1E1E1E1E1E1E1E1E1E1E1E1E1E1E1E1E1E1E1E1E1E1E1E1E1E1E1E1E1E1E1E1E1BEE1E1E1E1E1E1BEBEE1E1E1E1E1E1E1E1E1E1E1E1E1E1BEE1E1E1E1E1E1E1BEE1E1E10F0F0FE1BEE1E1E1E1E1E1E2E1E1E1E1E1E1E1E1E1E1E1E1E1E1E1E1E1E1E1E1E1E1E1E1E1E1E1E1E1E1E1E1E1E1E1E1E1E1E1E1E1E1
310
E1E1E1E1E1E1E1E1E1E1E1E1E1E1E1E1E1E1E1E1E1E1E1E1E1E1E1E1E2E1E1E10F0FE10FBEE1E1E10F0F0FBEE1E1E1E1E1E1E1E1E10FE1E1E1E1E1E1E1E1E1E1E1E1E1E1E1E1E1E1E1E1E1E1E1E1E1E1E1E1E1E1E1E1E1E1E1E1E1E1E10F0F0F0F0F0F28BEE1E1E1E1E1E1E1E1E1E1E1E1E1E1E1E1E1E1E1E1E1E1E1E1E1E1
310
E1E1E1E1E1E1E1E1E1E1E1E1E1E1E1E1E1E1E1E1E1E1E1E1E1E1E1E1E1E1E1E1E1E1E1E1E1E1E1E1BEE1E1E1E1E1E1BEBEE1E1E1E1E1E1E1E1E1E1E1E1E1E1BEE1E1E1E1E1E1E1BEE1E1E10FE10FE1BEE1E1E1E1E1E1E2E1E1E1E1E1E1E1E1E1E1E1E1E1E1E1E1E1E1E1E1E1E1E1E1E1E1E1E1E1E1E1E1E1E1E1E1E1E1E1E1
310
E1E1E1E1E1E1E1E1E1E1E1E1E1E1E1E1E1E1E1E1E1E1E1E1E1E1E1E1E1E1E2E1E1E10F0FE10FBEE1E10F0F0F0FBEE1E1E1E1E1E1E1E1E10FE1BEBEBEBEBEBEE1E1E1E1E1E1E1E1E1E1E1E1E1E1E1E1E1E1E1E1E1E1E1E1E1E1E1E1E1E10F0FBEBEBEBEBEBEBEBEE1E1E1E1E1E1E1E1E1E1E1E1E1E1E1E1E1E1E1E1E1E1E1E1
310
E1E1E1E1E1E1E1E1E1E1E1E1E1E1E1E1E1E1E1E1E1E1E1E1E1E1E1E1E1E1E1E1E1E1E1E1E1E1E1E1E1E1BEE1E1E1E1E1E1BEBEE1E1E1E1E1E1E1E1E1E1E1E1E1E1BEE1E1E1E1E1E1E1BEE1E1E10F0F0FE1BEE1E1E1E1E1E1E2E1E1E1E1E1E1E1E1E1E1E1E1E1E1E1E1E1E1E1E1E1E1E1E1E1E1E1E1E1E1E1E1E1E1E1E1E1E1
310
E1E1E1E1E1E1E1E1E1E1E1E1E1E1E1E1E1E1E1E1E1E1E1E1E1E1E1E1E1E1E1E1E2E1E1E1E1E10FE1BEE1E1E10F0F0FBEE1E1E1E1E1E1E1E1E10FE1BEBEBEBEBEBEBEBEE1E1E2E2E1E1E1E1E1E1E1E1E1E1E1E1E1E1E1E1E1E1E1E1E1E1E1E10F0FE10F0F0F0F0F28BEE1E1E1E1E1E1E1E1E1E1E1E1E1E1E1E1E1E1E1E1E1E1
310
E1E1E1E1E1E1E1E1E1E1E1E1E1E1E1E1E1E1E1E1E1E1E1E1E1E1E1E1E1E1E1E1E1E1E1E1E1E1E1E1E1E1E1E1BEE1E1E1E1E1E1BEBEE1E1E1E1E1E1E1E1E1E1E1E1E1E1BEE1E1E1E1E1E1E1BEE1E1E10FE1E1E1BEE1E1E1E1E1E1E2E1E1E2E2E2E1E1E1E1E1E1E2E2E2E1E1E1E1E1E1E2E2E2E1E1E1E1E1E1E2E2E2E1E1E1E1
310
E1E1E2E2E2E1E1E1E1E1E1E2E2E2E1E1E1E1E1E1E2E2E2E1E1E1E1E1E1E1E2E2E1E1E2E1E1E1E1E1E1E1BEE1E10F0F0F0FBEE1E1E1E1E1E1E1E1E10FE1BEBEBEBEBEBEBEBEBEE1E1E1E1E1E1E1E1E1E1E1E1E1E1E1E1E1E1E1E1E1E1E1E1E1E1E1E1E10F0FE10F0FE128BEE1E1E1E1E1E1E1E1E1E1E1E1E1E1E1E1E1E1E1E1
310
E1E1E1E1E1E1E1E1E1E1E1E1E1E1E1E1E1E1E1E1E1E1E1E1E1E1E1E1E1E1E1E1E1E1E1E1E1E1E1E1E1E1E1E1E1E1BEE1E1E1E1E1E1BEBEE1E1E1E1E1E1E1E1E1E1E1E1E1E1BEE1E1E1E1E1E1E1BEE1E1E10F0F0FE1BEE1E1E1E1E1E1E2E1E1E2E2E2E1E1E1E1E1E1E2E2E2E1E1E1E1E1E1E2E2E2E1E1E1E1E1E1E2E2E2E1E1
310
E1E1E1E1E2E2E2E1E1E1E1E1E1E2E2E2E1E1E1E1E1E1E2E2E2E1E1E1E1E1E1E1E2E2BEBEE2BEBEBEBEBEBEBEBEBEBEE10F0F0FBEE1E1E1E1E1E1E1E1E10F0F0F0F0F0F0F0F0F0F0F0F0F0F0F0F0F0F0F0F0F0F0F0F0F0F0F0F0F0F0F0F0F0F0F0F0F0F0F0F0F0F0F0F0F0F0FBEE1E1E1E1E1E1E1E1E1E1E1E1E1E1E1E1E1E1
310
E1E1E1E1E1E1E1E1E1E1E1E1E1E1E1E1E1E1E1E1E1E1E1E1E1E1E1E1E1E1E1E1E1E1E1E1E1E1E1E1E1E1E1E1E1E1E1E1BEE1E1E1E1E1E1BEBEE1E1E1E1E1E1E1E1E1E1E1E1E1E1BEE1E1E1E1E1E1E1BEE1E1E1E1E10FE1BEE1E1E1E1E1E1E2E1E1E1E1E1E1E1E1E1E1E1E1E1E1E1E1E1E1E1E1E1E1E1E1E1E1E1E1E1E1E1E1
310
E1E1E1E1E1E1E1E1E1E1E1E1E1E1E1E1E1E1E1E1E1E1E1E1E1E1E1E1E1E1E1E1E1E1E1E1E1E1E2E1E1E1E1E1E1E1E1E1E1E10FE1E1BEE1E1E1E1E1E1E1E1E1E1E1E1E1E1E1E1E1E1E1E1E1E1E1E1E1E1E1E1E1E1E1E1E1E1E1E1E1E1E1E1E1E1E1E1E1E1E1E1E1E1E1E1E1E1E128BEE1E1E1E1E1E1E1E1E1E1E1E1E1E1E1E1
310
E1E1E1E1E1E1E1E1E1E1E1E1E1E1E1E1E1E1E1E1E1E1E1E1E1E1E1E1E1E1E1E1E1E1E1E1E1E1E1E1E1E1E1E1E1E1E1E1E1E1BEE1E1E1E1E1E1BEBEE1E1E1E1E1E1E1E1E1E1E1E1E1E1BEE1E1E1E1E1E1E1BEE1E1E1E10F0FE1BEE1E1E1E1E1E1E2E1E1E1E1E1E1E1E1E1E1E1E1E1E1E1E1E1E1E1E1E1E1E1E1E1E1E1E1E1E1
310
E1E1E1E1E1E1E1E1E1E1E1E1E1E1E1E1E1E1E1E1E1E1E1E1E1E1E1E1E1E1E1E1E1E1E1E1E1E1E1E1E2E1E1E1E1E1E1E1E1E1E10F0F0F0FBEE1E1E1E1E1E1E1E1E1E1E1E1E1E1E1E1E1E1E1E1E1E1E1E1E1E1E1E1E1E1E1E1E1E1E1E1E1E1E1E1E1E1E1E1E1E1E1E1E1E1E1E1E1E1E128BEE1E1E1E1E1E1E1E1E1E1E1E1E1E1
310
E1E1E1E1E1E1E1E1E1E1E1E1E1E1E1E1E1E1E1E1E1E1E1E1E1E1E1E1E1E1E1E1E1E1E1E1E1E1E1E1E1E1E1E1E1E1E1E1E1E1E1E1BEE1E1E1E1E1E1BEBEE1E1E1E1E1E1E1E1E1E1E1E1E1E1BEE1E1E1E1E1E1E1BEE1E1E10F0F0FE1BEE1E1E1E1E1E1E2E1E1E1E1E1E1E1E1E1E1E1E1E1E1E1E1E1E1E1E1E1E1E1E1E1E1E1E1
310
E1E1E1E1E1E1E1E1E1E1E1E1E1E1E1E1E1E1E1E1E1E1E1E1E1E1E1E1E1E1E1E1E1E1E1E1E1E1E1E1E1E1E2E1E1E1E1E1E1E1E1E1E1E10F0FE1BEE1E1E1E1E1E1E1E1E1E1E1E1E1E1E1E1E1E1E1E1E1E1E1E1E1E1E1E1E1E1E1E1E1E1E1E1E1E1E1E1E1E1E1E1E1E1E1E1E1E1E1E1E1E1E128BEE1E1E1E1E1E1E1E1E1E1E1E1
310
E1E1E1E1E1E1E1E1E1E1E1E1E1E1E1E1E1E1E1E1E1E1E1E1E1E1E1E1E1E1E1E1E1E1E1E1E1E1E1E1E1E1E1E1E1E1E1E1E1E1E1E1E1E1BEE1E1E1E1E1E1BEBEE1E1E1E1E1E1E1E1E1E1E1E1E1E1BEE1E1E1E1E1E1E1BEE1E1E1E1E1E1E1BEE1E1E1E1E1E1E2E1E1E1E1E1E1E1E1E1E1E1E1E1E1E1E1E1E1E1E1E1E1E1E1E1E1
310
E1E1E1E1E1E1E1E1E1E1E1E1E1E1E1E1E1E1E1E1E1E1E1E1E1E1E1E1E1E1E1E1E1E1E1E1E1E1E1E1E1E1E1E1E2E1E1E1E1E1E1E1E1E1E1E1E1E1E1BEE1E1E1E1E1E1E1E1E1E1E1E1E1E1E1E1E1E1E1E1E1E1E1E1E1E1E1E1E1E1E1E1E1E1E1E1E1E1E1E1E1E1E1E1E1E1E1E1E1E1E1E1E1E1E128BEE1E1E1E1E1E1E1E1E1E1
310
E1E1E1E1E1E1E1E1E1E1E1E1E1E1E1E1E1E1E1E1E1E1E1E1E1E1E1E1E1E1E1E1E1E1E1E1E1E1E1E1E1E1E1E1E1E1E1E1E1E1E1E1E1E1E1E1BEE1E1E1E1E1E1BEBEE1E1E1E1E1E1E1E1E1E1E1E1E1E1BEE1E1E1E1E1E1E1BEE1E1E1E1E1E1E1BEE1E1E1E1E1E1E2E1E1E1E1E1E1E1E1E1E1E1E1E1E1E1E1E1E1E1E1E1E1E1E1
310
E1E1E1E1E1E1E1E1E1E1E1E1E1E1E1E1E1E1E1E1E1E1E1E1E1E1E1E1E1E1E1E1E1E1E1E1E1E1E1E1E1E1E1E1E1E1E2E1E1E1E1E1E1E1E1E1E1E1E1E1E1BEE1E1E1E1E1E1E1E1E1E1E1E1E1E1E1E1E1E1E1E1E1E1E1E1E1E1E1E1E1E1E1E1E1E1E1E1E1E1E1E1E1E1E1E1E1E1E1E1E1E1E1E1E1E1E128BEE1E1E1E1E1E1E1E1
310
E1E1E1E1E1E1E1E1E1E1E1E1E1E1E1E1E1E1E1E1E1E1E1E1E1E1E1E1E1E1E1E1E1E1E1E1E1E1E1E1E1E1E1E1E1E1E1E1E1E1E1E1E1E1E1E1E1E1BEE1E1E1E1E1E1BEBEE1E1E1E1E1E1E1E1E1E1E1E1E1E1BEE1E1E1E1E1E1E1BEE1E1E1E1E1E1E1BEE1E1E1E1E1E1E2E1E1E1E1E1E1E1E1E1E1E1E1E1E1E1E1E1E1E1E1E1E1
310
E1E1E1E1E1E1E1E1E1E1E1E1E1E1E1E1E1E1E1E1E1E1E1E1E1E1E1E1E1E1E1E1E1E1E1E1E1E1E1E1E1E1E1E1E1E1E1E1E2E1E1E1E1E1E1E1E1E1E1E1E1E1E1BEE1E1E1E1E1E1E1E1E1E1E1E1E1E1E1E1E1E1E1E1E1E1E1E1E1E1E1E1E1E1E1E1E1E1E1E1E1E1E1E1E1E1E1E1E1E1E1E1E1E1E1E1E1E1E128BEE1E1E1E1E1E1
310
E1E1E1E1E1E1E1E1E1E1E1E1E1E1E1E1E1E1E1E1E1E1E1E1E1E1E1E1E1E1E1E1E1E1E1E1E1E1E1E1E1E1E1E1E1E1E1E1E1E1E1E1E1E1E1E1E1E1E1E1BEE1E1E1E1E1E1BEBEE1E1E1E1E1E1E1E1E1E1E1E1E1E1BEE1E1E1E1E1E1E1BEE1E1E1E1E1E1E1BEE1E1E1E1E1E1E2E1E1E1E1E1E1E1E1E1E1E1E1E1E1E1E1E1E1E1E1
310
E1E1E1E1E1E1E1E1E1E1E1E1E1E1E1E1E1E1E1E1E1E1E1E1E1E1E1E1E1E1E1E1E1E1E1E1E1E1E1E1E1E1E1E1E1E1E1E1E1E1E2E1E1E1E1E1E1E1E1E1E1E1E1E1E1BEE1E1E1E1E1E1E1E1E1E1E1E1E1E1E1E1E1E1E1E1E1E1E1E1E1E1E1E1E1E1E1E1E1E1E1E1E1E1E1E1E1E1E1E1E1E1E1E1E1E1E1E1E1E1E128BEE1E1E1E1
310
E1E1E1E1E1E1E1E1E1E1E1E1E1E1E1E1E1E1E1E1E1E1E1E1E1E1E1E1E1E1E1E1E1E1E1E1E1E1E1E1E1E1E1E1E1E1E1E1E1E1E1E1E1E1E1E1E1E1E1E1E1E1BEE1E1E1E1E1E1BEBEE1E1E1E1E1E1E1E1E1E1E1E1E1E1BEE1E1E1E1E1E1E1BEE1E1E1E1E1E1E1BEE1E1E1E1E1E1E2E1E1E1E1E1E1E1E1E1E1E1E1E1E1E1E1E1E1
310
E1E1E1E1E1E1E1E1E1E1E1E1E1E1E1E1E1E1E1E1E1E1E1E1E1E1E1E1E1E1E1E1E1E1E1E1E1E1E1E1E1E1E1E1E1E1E1E1E1E1E1E1E2E1E1E1E1E1E1E1E1E1E1E1E1E1E1BEE1E1E1E1E1E1E1E1E1E1E1E1E1E1E1E1E1E1E1E1E1E1E1E1E1E1E1E1E1E1E1E1E1E1E1E1E1E1E1E1E1E1E1E1E1E1E1E1E1E1E1E1E1E1E128BEE1E1
310
E1E1E1E1E1E1E1E1E1E1E1E1E1E1E1E1E1E1E1E1E1E1E1E1E1E1E1E1E1E1E1E1E1E1E1E1E1E1E1E1E1E1E1E1E1E1E1E1E1E1E1E1E1E1E1E1E1E1E1E1E1E1E1E1BEE1E1E1E1E1E1BEBEE1E1E1E1E1E1E1E1E1E1E1E1E1E1BEE1E1E1E1E1E1E1BEE1E1E1E1E1E1E1BEE1E1E1E1E1E1E2E1E1E1E1E1E1E1E1E1E1E1E1E1E1E1E1
310
E1E1E1E1E1E1E1E1E1E1E1E1E1E1E1E1E1E1E1E1E1E1E1E1E1E1E1E1E1E1E1E1E1E1E1E1E1E1E1E1E1E1E1E1E1E1E1E1E1E1E1E1E1E1E2E1E1E1E1E1E1E1E1E1E1E1E1E1E1BEE1E1E1E1E1E1E1E1E1E1E1E1E1E1E1E1E1E1E1E1E1E1E1E1E1E1E1E1E1E1E1E1E1E1E1E1E1E1E1E1E1E1E1E1E1E1E1E1E1E1E1E1E1E1E128BE
310
E1E1E1E1E1E1E1E1E1E1E1E1E1E1E1E1E1E1E1E1E1E1E1E1E1E1E1E1E1E1E1E1E1E1E1E1E1E1E1E1E1E1E1E1E1E1E1E1E1E1E1E1E1E1E1E1E1E1E1E1E1E1E1E1E1E1BEE1E1E1E1E1E1BEBEE1E1E1E1E1E1E1E1E1E1E1E1E1E1BEE1E1E1E1E1E1E1BEE1E1E1E1E1E1E1BEE1E1E1E1E1E1E2E1E1E1E1E1E1E1E1E1E1E1E1E1E1
310
E1E1E1E1E1E1E1E1E1E1E1E1E1E1E1E1E1E1E1E1E1E1E1E1E1E1E1E1E1E1E1E1E1E1E1E1E1E1E1E1E1E1E1E1E1E1E1E1E1E1E1E1E1E1E1E1E2E1E1E1E1E1E1E1E1E1E1E1E1E1E1BEBEE1E1E1E1E1E1E1E1E1E1E1E1E1E1E1E1E1E1E1E1E1E1E1E1E1E1E1E1E1E1E1E1E1E1E1E1E1E1E1E1E1E1E1E1E1E1E1E1E1E1E1E1E1E1
310
28BEE1E1E1E1E1E1E1E1E1E1E1E1E1E1E1E1E1E1E1E1E1E1E1E1E1E1E1E1E1E1E1E1E1E1E1E1E1E1E1E1E1E1E1E1E1E1E1E1E1E1E1E1E1E1E1E1E1E1E1E1E1E1E1E1E1E1BEE1E1E1E1E1E1BE28E1E1E1E1E1E1E1E1E1E1E1E1E1E1BEE1E1E1E1E1E1E1BEE1E1E1E1E1E1E1BEE1E1E1E1E1E1E2E1E1E1E1E1E1E1E1E1E1E1E1
310
E1E1E1E1E1E1E1E1E1E1E1E1E1E1E1E1E1E1E1E1E1E1E1E1E1E1E1E1E1E1E1E1E1E1E1E1E1E1E1E1E1E1E1E1E1E1E1E1E1E1E1E1E1E1E1E1E1E1E2E1E1E1E1E1E1E1E1E1E1E1E1E1E1BEBEE1E1E1E1E1E1E1E1E1E1E1E1E1E1E1E1E1E1E1E1E1E1E1E1E1E1E1E1E1E1E1E1E1E1E1E1E1E1E1E1E1E1E1E1E1E1E1E1E1E1E1E1
310
E1E128BEE1E1E1E1E1E1E1E1E1E1E1E1E1E1E1E1E1E1E1E1E1E1E1E1E1E1E1E1E1E1E1E1E1E1E1E1E1E1E1E1E1E1E1E1E1E1E1E1E1E1E1E1E1E1E1E1E1E1E1E1E1E1E1E1E1E1BEE1E1E1E1E1E1BE28E1E1E1E1E1E1E1E1E1E1E1E1E1E1BEE1E1E1E1E1E1E1BEE1E1E1E1E1E1E1BEE1E1E1E1E1E1E2E1E1E2E2E2E1E1E1E1E1
310
E1E2E2E2E1E1E1E1E1E1E2E2E2E1E1E1E1E1E1E2E2E2E1E1E1E1E1E1E2E2E2E1E1E1E1E1E1E2E2E2E1E1E1E1E1E1E2E2E2E1E1E1E1E1E1E1E2E2E1E1E2E1E1E1E1E1E1E1E1E1E1E1E1E1E1BEE1E1E1E1E1E1E1E1E1E1E1E1E1E1E1E1E1E1E1E1E1E1E1E1E1E1E1E1E1E1E1E1E1E1E1E1E1E1E1E1E1E1E1E1E1E1E1E1E1E1E1
310
E1E1E1E128BEE1E1E1E1E1E1E1E1E1E1E1E1E1E1E1E1E1E1E1E1E1E1E1E1E1E1E1E1E1E1E1E1E1E1E1E1E1E1E1E1E1E1E1E1E1E1E1E1E1E1E1E1E1E1E1E1E1E1E1E1E1E1E1E1E1E1BEE1E1E1E1E1E1BEBEE1E1E1E1E1E1E1E1E1E1E1E1E1E1BEE1E1E1E1E1E1E1BEE1E1E1E1E1E1E1BEE1E1E1E1E1E1E2E1E1E2E1E2E1E1E1
310
E1E1E1E2E1E2E1E1E1E1E1E1E2E1E2E1E1E1E1E1E1E2E1E2E1E1E1E1E1E1E2E1E2E1E1E1E1E1E1E2E1E2E1E1E1E1E1E1E2E1E2E1E1E1E1E1E1E1E2E2BEBEE2BEBEBEBEBEBEBEBEBEBEBEBEBEBEBEBEBEE1E1E1E1E1E1E1E1E1E1E1E1E1E1E1E1E1E1E1E1E1E1E1E1E1E1E1E1E1E1E1E1E1E1E1E1E1E1E1E1E1E1E1E1E1E1E1
310
E1E1E1E1E1E128BEE1E1E1E1E1E1E1E1E1E1E1E1E1E1E1E1E1E1E1E1E1E1E1E1E1E1E1E1E1E1E1E1E1E1E1E1E1E1E1E1E1E1E1E1E1E1E1E1E1E1E1E1E1E1E1E1E1E1E1E1E1E1E1E1E1E1BEE1E1E1E1E1E1BEBEE1E1E1E1E1E1E1E1E1E1E1E1E1E1BEE1E1E1E1E1E1E1BEE1E1E1E1E1E1E1BEE1E1E1E1E1E1E2E1E1E2E2E2E1
310
E1E1E1E1E1E2E2E2E1E1E1E1E1E1E2E2E2E1E1E1E1E1E1E2E2E2E1E1E1E1E1E1E2E2E2E1E1E1E1E1E1E2E2E2E1E1E1E1E1E1E2E2E2E1E1E1E1E1E1E1E2E2E1E1E2E1E1E1E1E1E1E1E1E1E1E1E1E1E1BEE1E1E1E1E1E1E1E1E1E1E1E1E1E1E1E1E1E1E1E1E1E1E1E1E1E1E1E1E1E1E1E1E1E1E1E1E1E1E1E1E1E1E1E1E1E1E1
310
E1E1E1E1E1E1E1E128BEE1E1E1E1E1E1E1E1E1E1E1E1E1E1E1E1E1E1E1E1E1E1E1E1E1E1E1E1E1E1E1E1E1E1E1E1E1E1E1E1E1E1E1E1E1E1E1E1E1E1E1E1E1E1E1E1E1E1E1E1E1E1E1E1E1E1BEE1E1E1E1E1E1BEBEE1E1E1E1E1E1E1E1E1E1E10FE10FBEE1E1E10F0FE10FBEE1E1E1E1E1E1BEBEE1E1E1E1E1E1E2E2E2E1E1
310
E2E1E2E1E1E2E2E1E1E2E1E2E1E1E2E1E2E1E1E2E2E1E1E2E1E2E1E1E2E2E1E1E2E1E2E1E1E2E2E1E1E2E1E2E1E1E2E2E1E1E2E1E2E1E1E2E2E1E1E2E1E2E1E1E2E2E2E1E1E1E1E1E1E1E1E1E10F0F0F0FBEBEE1E1E1E1E1E1E1E1E1E1E1E1E1E1E1E1E1E1E1E1E1E1E1E1E1E1E1E1E1E1E1E1E1E1E1E1E1E1E1E1E1E1E1E1
310
E1E1E1E1E1E1E1E1E1E128BEE1E1E1E1E1E1E1E1E1E1E1E1E1E1E1E1E1E1E1E1E1E1E1E1E1E1E1E1E1E1E1E1E1E1E1E1E1E1E1E1E1E1E1E1E1E1E1E1E1E1E1E1E1E1E1E1E1E1E1E1E1E1E1E1E1E1BEE1E1E1E1E1E1BEBEE1E1E1E1E1E1E1E1E1E1E10F0F0FBEE1E1E10F0F0F0FBEE1E1E1E1E1E1BEBEE1E1E1E1E1E1E2E2E2
310
E1E1E2E1E2E1E1E2E2E1E1E2E1E2E1E1E2E1E2E1E1E2E2E1E1E2E1E2E1E1E2E2E1E1E2E1E2E1E1E2E2E1E1E2E1E2E1E1E2E2E1E1E2E1E2E1E1E2E2E1E1E2E1E2E1E1E2E2E2E1E1E1E1E1E1E1E1E1E1E1E10F0FBEBEE1E1E1E1E1E1E1E1E1E1E1E1E1E1E1E1E1E1E1E1E1E1E1E1E1E1E1E1E1E1E1E1E1E1E1E1E1E1E1E1E1E1
310
E1E1E1E1E1E1E1E1E1E1E1E128BEE1E1E1E1E1E1E1E1E1E1E1E1E1E1E1E1E1E1E1E1E1E1E1E1E1E1E1E1E1E1E1E1E1E1E1E1E1E1E1E1E1E1E1E1E1E1E1E1E1E1E1E1E1E1E1E1E1E1E1E1E1E1E1E1E1E1BEE1E1E1E1E1E1BEBEE1E1E1E1E1E1E1E1E1E1E1E10F0FBEE1E1E10F0FE10FBEE1E1E1E1E1E1E1BEE1E1E1E1E1E1E2
310
E2E2E2E2E2E2E2E2E2E2E2E2E2E2E2E2E2E2E2E2E2E2E2E2E2E2E2E2E2E2E2E2E2E2E2E2E2E2E2E2E2E2E2E2E2E2E2E2E2E2E2E2E2E2E2E2E2E2E2E2E2E2E2E2E2E2E2E2E2E2E2E1E1E1E1E1E1E1E1E1E1E1E10F0FBEE1E1E1E1E1E1E1E1E1E1E1E1E1E1E1E1E1E1E1E1E1E1E1E1E1E1E1E1E1E1E1E1E1E1E1E1E1E1E1E1E1
310
E1E1E1E1E1E1E1E1E1E1E1E1E1E128BEE1E1E1E1E1E1E1E1E1E1E1E1E1E1E1E1E1E1E1E1E1E1E1E1E1E1E1E1E1E1E1E1E1E1E1E1E1E1E1E1E1E1E1E1E1E1E1E1E1E1E1E1E1E1E1E1E1E1E1E1E1E1E1E1E1E1BEE1E1E1E1E1E1BEBEE1E1E1E1E1E1E1E1E1E1E10F0F0FBEE1E1E10F0F0F0FBEE1E1E1E1E1BEBEBEBEBEBEBEBE
310
BEE2BEBEE2E2E2E1E1E2E2E1E1E2E2E2E1E1E2E2E1E1E2E2E2E1E1E2E2E1E1E2E2E2E1E1E2E2E1E1E1E2E2E1E1E2E2E1E1E1E2E2E1E1E2E2E2E1E1E2E2E1E1E2E2E2E1E1E2E2E1E1E2E1E1E1E1E1E1E1E1E1E10F0F0F0FBEE1E1E1E1E1E1E1E1E1E1E1E1E1E1E1E1E1E1E1E1E1E1E1E1E1E1E1E1E1E1E1E1E1E1E1E1E1E1E1
310
E1E1E1E1E1E1E1E1E1E1E1E1E1E1E1E128BEE1E1E1E1E1E1E1E1E1E1E1E1E1E1E1E1E1E1E1E1E1E1E1E1E1E1E1E1E1E1E1E1E1E1E1E1E1E1E1E1E1E1E1E1E1E1E1E1E1E1E1E1E1E1E1E1E1E1E1E1E1E1E1E1E1E1BEE1E1E1E1E1E1BEBEE1E1E1E1E1E1E1E1E1E1E10F0F0FBEE1E1E1E1E10FE1BEE1E1E1E1E1E1E1E1E1E1E1
310
E1E1E1E2E2E2E1E1E1E2E2E1E1E2E2E1E1E1E2E2E1E1E2E2E1E1E1E2E2E1E1E2E2E1E1E1E2E2E1E1E2E2E1E1E1E2E2E1E1E1E2E2E1E1E2E2E1E1E1E2E2E1E1E2E2E1E1E1E2E2E1E1E2E2E2E1E1E1E1E1E1E1E1E1E1E1E1E10FBEE1E1E1E1E1E1E1E1E1E1E1E1E1E1E1E1E1E1E1E1E1E1E1E1E1E1E1E1E1E1E1E1E1E1E1E1E1
310
E1E1E1E1E1E1E1E1E1E1E1E1E1E1E1E1E1E128BEE1E1E1E1E1E1E1E1E1E1E1E1E1E1E1E1E1E1E1E1E1E1E1E1E1E1E1E1E1E1E1E1E1E1E1E1E1E1E1E1E1E1E1E1E1E1E1E1E1E1E1E1E1E1E1E1E1E1E1E1E1E1E1E1E1E1BEE1E1E1E1E1E1BEBEE1E1E1E1E1E1E1E1E1E1E10F0F0FBEE1E1E10F0F0F0FBEE1E1E1E1E1E1E1E1E1
310
E1E1E1E1E1E2E2E2E1E1E2E2E2E1E1E2E2E1E1E1E2E2E1E1E2E2E1E1E1E2E2E1E1E2E2E2E1E1E2E2E1E1E2E2E2E1E1E2E2E1E1E2E2E2E1E1E2E2E1E1E2E2E2E1E1E2E2E1E1E2E2E2E1E1E2E2E2E1E1E1E1E1E1E1E1E1E1E1E1E10FBEE1E1E1E1E1E1E1E1E1E1E1E1E1E1E1E1E1E1E1E1E1E1E1E1E1E1E1E1E1E1E1E1E1E1E1
310
E1E1E1E1E1E1E1E1E1E1E1E1E1E1E1E1E1E1E1E128BEE1E1E1E1E1E1E1E1E1E1E1E1E1E1E1E1E1E1E1E1E1E1E1E1E1E1E1E1E1E1E1E1E1E1E1E1E1E1E1E1E1E1E1E1E1E1E1E1E1E1E1E1E1E1E1E1E1E1E1E1E1E1E1E1E1E1BEE1E1E1E1E1E1BEBEE1E1E1E1E1E1E1E1E1E1E10F0F0FBEE1E1E1E1E10FE1BEE1E1E1E1E1BEBE
310
BEBEBEBEBEBEBEE2BEBEE2E2E2E1E1E2E2E1E1E2E2E2E1E1E2E2E1E1E2E2E2E1E1E2E2E1E1E2E2E2E1E1E2E2E1E1E1E2E2E1E1E2E2E1E1E1E2E2E1E1E2E2E2E1E1E2E2E1E1E2E2E2E1E1E2E2E1E1E2E1E1E1E1E1E1E1E1E1E10F0F0F0FBEE1E1E1E1E1E1E1E1E1E1E1E1E1E1E1E1E1E1E1E1E1E1E1E1E1E1E1E1E1E1E1E1E1
310
E1E1E1E1E1E1E1E1E1E1E1E1E1E1E1E1E1E1E1E1E1E128BEE1E1E1E1E1E1E1E1E1E1E1E1E1E1E1E1E1E1E1E1E1E1E1E1E1E1E1E1E1E1E1E1E1E1E1E1E1E1E1E1E1E1E1E1E1E1E1E1E1E1E1E1E1E1E1E1E1E1E1E1E1E1E1E1E1E1BEE1E1E1E1E1E1BEBEE1E1E1E1E1E1E1E1E1E1E1E1E10FBEE1E1E1E1E1E10FBEE1E1E1E1E1
310
E1E1BEE1E1E1E1E1E1E2E1E1E2E2E1E1E1E2E2E1E1E2E2E1E1E1E2E2E1E1E1E2E2E1E1E2E2E1E1E1E2E2E1E1E2E2E1E1E1E2E2E1E1E2E2E1E1E1E2E2E1E1E2E2E1E1E1E2E2E1E1E2E2E1E1E1E2E2E1E1E2E1E1E1E1E1E1E1E1E1E1E1E10F0FBEE1E1E1E1E1E1E1E1E1E1E1E1E1E1E1E1E1E1E1E1E1E1E1E1E1E1E1E1E1E1E1
310
E1E1E1E1E1E1E1E1E1E1E1E1E1E1E1E1E1E1E1E1E1E1E1E128BEE1E1E1E1E1E1E1E1E1E1E1E1E1E1E1E1E1E1E1E1E1E1E1E1E1E1E1E1E1E1E1E1E1E1E1E1E1E1E1E1E1E1E1E1E1E1E1E1E1E1E1E1E1E1E1E1E1E1E1E1E1E1E1E1E1E1BEE1E1E1E1E1E1BEBEE1E1E1E1E1E1E1E1E1E1E10F0F0FBEE1E1E10F0F0F0FBEE1E1E1
310
E1E1E1BEBEE1E1E1E1E1E1E2E2E2E1E1E2E2E2E1E1E2E2E1E1E2E2E2E1E1E2E2E2E1E1E2E2E1E1E2E2E2E1E1E2E2E1E1E2E2E2E1E1E2E2E1E1E2E2E2E1E1E2E2E1E1E2E2E2E1E1E2E2E1E1E2E2E2E1E1E2E2E2E1E1E1E1E1E1E1E1E1E10F0F0F0FBEBEE1E1E1E1E1E1E1E1E1E1E1E1E1E1E1E1E1E1E1E1E1E1E1E1E1E1E1E1
310
E1E1E1E1E1E1E1E1E1E1E1E1E1E1E1E1E1E1E1E1E1E1E1E1E1E128BEE1E1E1E1E1E1E1E1E1E1E1E1E1E1E1E1E1E1E1E1E1E1E1E1E1E1E1E1E1E1E1E1E1E1E1E1E1E1E1E1E1E1E1E1E1E1E1E1E1E1E1E1E1E1E1E1E1E1E1E1E1E1E1E1E1E1BEE1E1E1E1E1E1BEBEE1E1E1E1E1E1E1E1E1E1E10F0F0FBEE1E1E10F0F0FE1BEE1
310
E1E1E1E1E1BEBEE1E1E1E1E1E1E2E2E2E1E1E2E1E2E1E1E2E2E1E1E2E1E2E1E1E2E1E2E1E1E2E2E1E1E2E1E2E1E1E2E2E1E1E2E1E2E1E1E2E2E1E1E2E1E2E1E1E2E2E1E1E2E1E2E1E1E2E2E1E1E2E1E2E1E1E2E2E2E1E1E1E1E1E1E1E1E1E10FE10F0FBEBEE1E1E1E1E1E1E1E1E1E1E1E1E1E1E1E1E1E1E1E1E1E1E1E1E1E1
310
E1E1E1E1E1E1E1E1E1E1E1E1E1E1E1E1E1E1E1E1E1E1E1E1E1E1E1E128BEE1E1E1E1E1E1E1E1E1E1E1E1E1E1E1E1E1E1E1E1E1E1E1E1E1E1E1E1E1E1E1E1E1E1E1E1E1E1E1E1E1E1E1E1E1E1E1E1E1E1E1E1E1E1E1E1E1E1E1E1E1E1E1E1E1E1BEE1E1E1E1E1E1BEBEE1E1E1E1E1E1E1E1E1E1E1E1E1E1BEE1E1E1E1E1E1E1
310
BEE1E1E1E1E1E1E1BEE1E1E1E1E1E1E2E1E1E2E2E2E1E1E1E1E1E1E2E2E2E1E1E1E1E1E1E2E2E2E1E1E1E1E1E1E2E2E2E1E1E1E1E1E1E2E2E2E1E1E1E1E1E1E2E2E2E1E1E1E1E1E1E2E2E2E1E1E1E1E1E1E1E2E2E1E1E2E1E1E1E1E1E1E1E1E1E1E1E1E1E1BEE1E1E1E1E1E1E1E1E1E1E1E1E1E1E1E1E1E1E1E1E1E1E1E1E1
310
E1E1E1E1E1E1E1E1E1E1E1E1E1E1E1E1E1E1E1E1E1E1E1E1E1E1E1E1E1E128BEE1E1E1E1E1E1E1E1E1E1E1E1E1E1E1E1E1E1E1E1E1E1E1E1E1E1E1E1E1E1E1E1E1E1E1E1E1E1E1E1E1E1E1E1E1E1E1E1E1E1E1E1E1E1E1E1E1E1E1E1E1E1E1E1E1E1BEE1E1E1E1E1E1BEBEE1E1E1E1E1E1E1E1E1E1E1E1E1E1BEE1E1E1E1E1
310
E1E1BEE1E1E1E1E1E1E1BEE1E1E1E1E1E1E2E1E1E2E1E2E1E1E1E1E1E1E2E1E2E1E1E1E1E1E1E2E1E2E1E1E1E1E1E1E2E1E2E1E1E1E1E1E1E2E1E2E1E1E1E1E1E1E2E1E2E1E1E1E1E1E1E2E1E2E1E1E1E1E1E1E1E2E2BEBEE2BEBEBEBEBEBEBEBEBEBEBEBEBEBEBEBEBEE1E1E1E1E1E1E1E1E1E1E1E1E1E1E1E1E1E1E1E1E1
310
E1E1E1E1E1E1E1E1E1E1E1E1E1E1E1E1E1E1E1E1E1E1E1E1E1E1E1E1E1E1E1E128BEE1E1E1E1E1E1E1E1E1E1E1E1E1E1E1E1E1E1E1E1E1E1E1E1E1E1E1E1E1E1E1E1E1E1E1E1E1E1E1E1E1E1E1E1E1E1E1E1E1E1E1E1E1E1E1E1E1E1E1E1E1E1E1E1E1E1BEE1E1E1E1E1E1BEBEE1E1E1E1E1E1E1E1E1E1E1E1E1E1BEE1E1E1
310
E1E1E1E1BEE1E1E1E1E1E1E1BEE1E1E1E1E1E1E2E1E1E2E2E2E1E1E1E1E1E1E2E2E2E1E1E1E1E1E1E2E2E2E1E1E1E1E1E1E2E2E2E1E1E1E1E1E1E2E2E2E1E1E1E1E1E1E2E2E2E1E1E1E1E1E1E2E2E2E1E1E1E1E1E1E1E2E2E1E1E2E1E1E1E1E1E1E1BEE1E1E1E1E1E1BEE1E1E1E1E1E1E1E1E1E1E1E1E1E1E1E1E1E1E1E1E1
310
E1E1E1E1E1E1E1E1E1E1E1E1E1E1E1E1E1E1E1E1E1E1E1E1E1E1E1E1E1E1E1E1E1E128BEE1E1E1E1E1E1E1E1E1E1E1E1E1E1E1E1E1E1E1E1E1E1E1E1E1E1E1E1E1E1E1E1E1E1E1E1E1E1E1E1E1E1E1E1E1E1E1E1E1E1E1E1E1E1E1E1E1E1E1E1E1E1E1E1E1E1BEE1E1E1E1E1E1BEBEE1E1E1E1E1E1E1E1E1E1E1E1E1E1BEE1
310
E1E1E1E1E1E1BEE1E1E1E1E1E1E1BEE1E1E1E1E1E1E2E1E1E1E1E1E1E1E1E1E1E1E1E1E1E1E1E1E1E1E1E1E1E1E1E1E1E1E1E1E1E1E1E1E1E1E1E1E1E1E1E1E1E1E1E1E1E1E1E1E1E1E1E1E1E1E1E1E1E1E1E1E1E1E1E1E1E1E1E1E1E2E1E1E1E1E10FBEBEE1E1E1E1E1E1BEBEE1E1E1E1E1E1E1E1E1E1E1E1E1E1E1E1E1E1
310
E1E1E1E1E1E1E1E1E1E1E1E1E1E1E1E1E1E1E1E1E1E1E1E1E1E1E1E1E1E1E1E1E1E1E1E128BEE1E1E1E1E1E1E1E1E1E1E1E1E1E1E1E1E1E1E1E1E1E1E1E1E1E1E1E1E1E1E1E1E1E1E1E1E1E1E1E1E1E1E1E1E1E1E1E1E1E1E1E1E1E1E1E1E1E1E1E1E1E1E1E1E1E1BEE1E1E1E1E1E1BEBEE1E1E1E1E1E1E1E1E1E1E1E1E1E1
310
BEE1E1E1E1E1E1E1BEE1E1E1E1E1E1E1BEE1E1E1E1E1E1E2E1E1E1E1E1E1E1E1E1E1E1E1E1E1E1E1E1E1E1E1E1E1E1E1E1E1E1E1E1E1E1E1E1E1E1E1E1E1E1E1E1E1E1E1E1E1E1E1E1E1E1E1E1E1E1E1E1E1E1E1E1E1E1E1E1E1E1E1E1E1E2E1E1E10F0F0F0FBEE1E1E1E1E1E1BEBEE1E1E1E1E1E1E1E1E1E1E1E1E1E1E1E1
310
E1E1E1E1E1E1E1E1E1E1E1E1E1E1E1E1E1E1E1E1E1E1E1E1E1E1E1E1E1E1E1E1E1E1E1E1E1E128BEE1E1E1E1E1E1E1E1E1E1E1E1E1E1E1E1E1E1E1E1E1E1E1E1E1E1E1E1E1E1E1E1E1E1E1E1E1E1E1E1E1E1E1E1E1E1E1E1E1E1E1E1E1E1E1E1E1E1E1E1E1E1E1E1E1E1BEE1E1E1E1E1E1BEBEE1E1E1E1E1E1E1E1E1E1E1E1
310
E1E1BEE1E1E1E1E1E1E1BEE1E1E1E1E1E1E1BEE1E1E1E1E1E1E2E1E1E1E1E1E1E1E1E1E1E1E1E1E1E1E1E1E1E1E1E1E1E1E1E1E1E1E1E1E1E1E1E1E1E1E1E1E1E1E1E1E1E1E1E1E1E1E1E1E1E1E1E1E1E1E1E1E1E1E1E1E1E1E1E1E1E1E1E1E1E2E1E1E1E1E10FE1BEE1E1E1E1E1E1BEE1E1E1E1E1E1E1E1E1E1E1E1E1E1E1
310
E1E1E1E1E1E1E1E1E1E1E1E1E1E1E1E1E1E1E1E1E1E1E1E1E1E1E1E1E1E1E1E1E1E1E1E1E1E1E1E128BEE1E1E1E1E1E1E1E1E1E1E1E1E1E1E1E1E1E1E1E1E1E1E1E1E1E1E1E1E1E1E1E1E1E1E1E1E1E1E1E1E1E1E1E1E1E1E1E1E1E1E1E1E1E1E1E1E1E1E1E1E1E1E1E1E1E1BEE1E1E1E1E1E1BEBEE1E1E1E1E1E1E1E1E1E1
310
E1E1E1E1BEE1E1E1E1E1E1E1BEE1E1E1E1E1E1E1BEE1E1E1E1E1E1E2E1E1E1E1E1E1E1E1E1E1E1E1E1E1E1E1E1E1E1E1E1E1E1E1E1E1E1E1E1E1E1E1E1E1E1E1E1E1E1E1E1E1E1E1E1E1E1E1E1E1E1E1E1E1E1E1E1E1E1E1E1E1E1E1E1E1E1E1E1E1E2E1E1E10F0F0FE1BEE1E1E1E1E1E1BEE1E1E1E1E1E1E1E1E1E1E1E1E1
310
E1E1E1E1E1E1E1E1E1E1E1E1E1E1E1E1E1E1E1E1E1E1E1E1E1E1E1E1E1E1E1E1E1E1E1E1E1E1E1E1E1E128BEE1E1E1E1E1E1E1E1E1E1E1E1E1E1E1E1E1E1E1E1E1E1E1E1E1E1E1E1E1E1E1E1E1E1E1E1E1E1E1E1E1E1E1E1E1E1E1E1E1E1E1E1E1E1E1E1E1E1E1E1E1E1E1E1E1E1BEE1E1E1E1E1E1BEBEE1E1E1E1E1E1E1E1
310
E1E1E1E1E1E1BEE1E1E1E1E1E1E1BEE1E1E1E1E1E1E1BEE1E1E1E1E1E1E2E1E1E1E1E1E1E1E1E1E1E1E1E1E1E1E1E1E1E1E1E1E1E1E1E1E1E1E1E1E1E1E1E1E1E1E1E1E1E1E1E1E1E1E1E1E1E1E1E1E1E1E1E1E1E1E1E1E1E1E1E1E1E1E1E1E1E1E1E1E1E2E1E1E1E10F0F0FBEE1E1E1E1E1E1BEE1E1E1E1E1E1E1E1E1E1E1
310
E1E1E1E1E1E1E1E1E1E1E1E1E1E1E1E1E1E1E1E1E1E1E1E1E1E1E1E1E1E1E1E1E1E1E1E1E1E1E1E1E1E1E1E128BEE1E1E1E1E1E1E1E1E1E1E1E1E1E1E1E1E1E1E1E1E1E1E1E1E1E1E1E1E1E1E1E1E1E1E1E1E1E1E1E1E1E1E1E1E1E1E1E1E1E1E1E1E1E1E1E1E1E1E1E1E1E1E1E1E1E1BEE1E1E1E1E1E1BEBEE1E1E1E1E1E1
310
E1E1E1E1E1E1E1E1BEE1E1E1E1E1E1E1BEE1E1E1E1E1E1E1BEE1E1E1E1E1E1E2E1E1E1E1E1E1E1E1E1E1E1E1E1E1E1E1E1E1E1E1E1E1E1E1E1E1E1E1E1E1E1E1E1E1E1E1E1E1E1E1E1E1E1E1E1E1E1E1E1E1E1E1E1E1E1E1E1E1E1E1E1E1E1E1E1E1E1E1E1E1E2E1E1E1E1E1E10FBEE1E1E1E1E1E1BEE1E1E1E1E1E1E1E1E1
310
E1E1E1E1E1E1E1E1E1E1E1E1E1E1E1E1E1E1E1E1E1E1E1E1E1E1E1E1E1E1E1E1E1E1E1E1E1E1E1E1E1E1E1E1E1E128BEE1E1E1E1E1E1E1E1E1E1E1E1E1E1E1E1E1E1E1E1E1E1E1E1E1E1E1E1E1E1E1E1E1E1E1E1E1E1E1E1E1E1E1E1E1E1E1E1E1E1E1E1E1E1E1E1E1E1E1E1E1E1E1E1E1E1BEE1E1E1E1E1E1BEBEE1E1E1E1
310
E1E1E1E1E1E1E1E1E1E1BEE1E1E1E1E1E1E1BEE1E1E1E1E1E1E1BEE1E1E1E1E1E1E2E1E1E1E1E1E1E1E1E1E1E1E1E1E1E1E1E1E1E1E1E1E1E1E1E1E1E1E1E1E1E1E1E1E1E1E1E1E1E1E1E1E1E1E1E1E1E1E1E1E1E1E1E1E1E1E1E1E1E1E1E1E1E1E1E1E1E1E1E1E1E2E1E1E1E1E10FE1BEE1E1E1E1E1E1BEE1E1E1E1E1E1E1
310
E1E1E1E1E1E1E1E1E1E1E1E1E1E1E1E1E1E1E1E1E1E1E1E1E1E1E1E1E1E1E1E1E1E1E1E1E1E1E1E1E1E1E1E1E1E1E1E128BEE1E1E1E1E1E1E1E1E1E1E1E1E1E1E1E1E1E1E1E1E1E1E1E1E1E1E1E1E1E1E1E1E1E1E1E1E1E1E1E1E1E1E1E1E1E1E1E1E1E1E1E1E1E1E1E1E1E1E1E1E1E1E1E1E1E1BEE1E1E1E1E1E1BEBEE1E1
310
E1E1E1E1E1E1E1E1E1E1E1E1BEE1E1E1E1E1E1E1BEE1E1E1E1E1E1E1BEE1E1E1E1E1E1E2E1E1E1E1E1E1E1E1E1E1E1E1E1E1E1E1E1E1E1E1E1E1E1E1E1E1E1E1E1E1E1E1E1E1E1E1E1E1E1E1E1E1E1E1E1E1E1E1E1E1E1E1E1E1E1E1E1E1E1E1E1E1E1E1E1E1E1E1E1E1E2E1E1E10F0F0F0FBEE1E1E1E1E1E1BEE1E1E1E1E1
310
E1E1E1E1E1E1E1E1E1E1E1E1E1E1E1E1E1E1E1E1E1E1E1E1E1E1E1E1E1E1E1E1E1E1E1E1E1E1E1E1E1E1E1E1E1E1E1E1E1E128BEE1E1E1E1E1E1E1E1E1E1E1E1E1E1E1E1E1E1E1E1E1E1E1E1E1E1E1E1E1E1E1E1E1E1E1E1E1E1E1E1E1E1E1E1E1E1E1E1E1E1E1E1E1E1E1E1E1E1E1E1E1E1E1E1E1E1BEE1E1E1E1E1E1BEBE
310
E1E1E1E1E1E1E1E1E1E1E1E1E1E1BEE1E1E1E1E1E1E1BEE1E1E10F0F0FE1BEE1E1E1E1E1E1E2E1E1E1E1E1E1E1E1E1E1E1E1E1E1E1E1E1E1E1E1E1E1E1E1E1E1E1E1E1E1E1E1E1E1E1E1E1E1E1E1E1E1E1E1E1E1E1E1E1E1E1E1E1E1E1E1E1E1E1E1E1E1E1E1E1E1E1E1E1E1E2E1E1E1E1E10FBEBEE1E1E10F0F0FBEE1E1E1
310
E1E1E1E1E1E1E1E1E1E1E1E1E1E1E1E1E1E1E1E1E1E1E1E1E1E1E1E1E1E1E1E1E1E1E1E1E1E1E1E1E1E1E1E1E1E1E1E1E1E1E1E128BEE1E1E1E1E1E1E1E1E1E1E1E1E1E1E1E1E1E1E1E1E1E1E1E1E1E1E1E1E1E1E1E1E1E1E1E1E1E1E1E1E1E1E1E1E1E1E1E1E1E1E1E1E1E1E1E1E1E1E1E1E1E1E1E1E1E1BEE1E1E1E1E1E1
310
BEBEE1E1E1E1E1E1E1E1E1E1E1E1E1E1BEE1E1E1E1E1E1E1BEE1E1E10FE10FE1BEE1E1E1E1E1E1E2E1E1E1E1E1E1E1E1E1E1E1E1E1E1E1E1E1E1E1E1E1E1E1E1E1E1E1E1E1E1E1E1E1E1E1E1E1E1E1E1E1E1E1E1E1E1E1E1E1E1E1E1E1E1E1E1E1E1E1E1E1E1E1E1E1E1E1E1E1E1E2E1E1E10F0FE10FBEE1E10F0F0F0FBEE1
310
E1E1E1E1E1E1E1E1E1E1E1E1E1E1E1E1E1E1E1E1E1E1E1E1E1E1E1E1E1E1E1E1E1E1E1E1E1E1E1E1E1E1E1E1E1E1E1E1E1E1E1E1E1E128BEE1E1E1E1E1E1E1E1E1E1E1E1E1E1E1E1E1E1E1E1E1E1E1E1E1E1E1E1E1E1E1E1E1E1E1E1E1E1E1E1E1E1E1E1E1E1E1E1E1E1E1E1E1E1E1E1E1E1E1E1E1E1E1E1E1E1BEE1E1E1E1
310
E1E1BEBEE1E1E1E1E1E1E1E1E1E1E1E1E1E1BEE1E1E1E1E1E1E1BEE1E1E10F0F0FE1BEE1E1E1E1E1E1E2E1E1E1E1E1E1E1E1E1E1E1E1E1E1E1E1E1E1E1E1E1E1E1E1E1E1E1E1E1E1E1E1E1E1E1E1E1E1E1E1E1E1E1E1E1E1E1E1E1E1E1E1E1E1E1E1E1E1E1E1E1E1E1E1E1E1E1E1E1E1E2E1E1E10F0F0F0FBEE1E1E10F0F0F
310
BEE1E1E1E1E1E1E1E1E1E1E1E1E1E1E1E1E1E1E1E1E1E1E1E1E1E1E1E1E1E1E1E1E1E1E1E1E1E1E1E1E1E1E1E1E1E1E1E1E1E1E1E1E1E1E128BEE1E1E1E1E1E1E1E1E1E1E1E1E1E1E1E1E1E1E1E1E1E1E1E1E1E1E1E1E1E1E1E1E1E1E1E1E1E1E1E1E1E1E1E1E1E1E1E1E1E1E1E1E1E1E1E1E1E1E1E1E1E1E1E1E1E1BEE1E1
310
E1E1E1E1BEBEE1E1E1E1E1E1E1E1E1E1E1E1E1E1BEE1E1E1E1E1E1E1BEE1E1E10FE10FE1BEE1E1E1E1E1E1E2E1E1E2E2E2E1E1E1E1E1E1E2E2E2E1E1E1E1E1E1E2E2E2E1E1E1E1E1E1E2E2E2E1E1E1E1E1E1E2E2E2E1E1E1E1E1E1E2E2E2E1E1E1E1E1E1E2E2E2E1E1E1E1E1E1E1E2E2E1E1E2E1E1E1E1E1E1E1BEE1E10F0F
310
0F0FBEE1E1E1E1E1E1E1E1E1E1E1E1E1E1E1E1E1E1E1E1E1E1E1E1E1E1E1E1E1E1E1E1E1E1E1E1E1E1E1E1E1E1E1E1E1E1E1E1E1E1E1E1E1E1E128BEE1E1E1E1E1E1E1E1E1E1E1E1E1E1E1E1E1E1E1E1E1E1E1E1E1E1E1E1E1E1E1E1E1E1E1E1E1E1E1E1E1E1E1E1E1E1E1E1E1E1E1E1E1E1E1E1E1E1E1E1E1E1E1E1E1E1BE
310
E1E1E1E1E1E1BEBEE1E1E1E1E1E1E1E1E1E1E1E1E1E1BEE1E1E1E1E1E1E1BEE1E1E10F0F0FE1BEE1E1E1E1E1E1E2E1E1E2E1E2E1E1E1E1E1E1E2E1E2E1E1E1E1E1E1E2E1E2E1E1E1E1E1E1E2E1E2E1E1E1E1E1E1E2E1E2E1E1E1E1E1E1E2E1E2E1E1E1E1E1E1E2E1E2E1E1E1E1E1E1E1E2E2BEBEE2BEBEBEBEBEBEBEBEBEBE
310
E10F0F0FBEE1E1E1E1E1E1E1E1E1E1E1E1E1E1E1E1E1E1E1E1E1E1E1E1E1E1E1E1E1E1E1E1E1E1E1E1E1E1E1E1E1E1E1E1E1E1E1E1E1E1E1E1E1E1E128BEE1E1E1E1E1E1E1E1E1E1E1E1E1E1E1E1E1E1E1E1E1E1E1E1E1E1E1E1E1E1E1E1E1E1E1E1E1E1E1E1E1E1E1E1E1E1E1E1E1E1E1E1E1E1E1E1E1E1E1E1E1E1E1E1E1
310
E1BEE1E1E1E1E1E1BEBEE1E1E1E1E1E1E1E1E1E1E1E1E1E1BEE1E1E1E1E1E1E1BEE1E1E1E1E10FE1BEE1E1E1E1E1E1E2E1E1E2E2E2E1E1E1E1E1E1E2E2E2E1E1E1E1E1E1E2E2E2E1E1E1E1E1E1E2E2E2E1E1E1E1E1E1E2E2E2E1E1E1E1E1E1E2E2E2E1E1E1E1E1E1E2E2E2E1E1E1E1E1E1E1E2E2E1E1E2E1E1E1E1E1E1E1E1
310
E1E1E1E1E10FBEE1E1E1E1E1E1E1E1E1E1E1E1E1E1E1E1E1E1E1E1E1E1E1E1E1E1E1E1E1E1E1E1E1E1E1E1E1E1E1E1E1E1E1E1E1E1E1E1E1E1E1E1E1E1E128BEE1E1E1E1E1E1E1E1E1E1E1E1E1E1E1E1E1E1E1E1E1E1E1E1E1E1E1E1E1E1E1E1E1E1E1E1E1E1E1E1E1E1E1E1E1E1E1E1E1E1E1E1E1E1E1E1E1E1E1E1E1E1E1
310
E1E1E1BEE1E1E1E1E1E1BEBEE1E1E1E1E1E1E1E1E1E1E1E1E1E1BEE1E1E1E1E1E1E1BEE1E1E1E10F0FE1BEE1E1E1E1E1E1E2E1E1E1E1E1E1E1E1E1E1E1E1E1E1E1E1E1E1E1E1E1E1E1E1E1E1E1E1E1E1E1E1E1E1E1E1E1E1E1E1E1E1E1E1E1E1E1E1E1E1E1E1E1E1E1E1E1E1E1E1E1E1E1E1E1E1E1E1E1E1E2E1E1E1E1E1E1
310
E1E1E1E10F0F0F0FBEE1E1E1E1E1E1E1E1E1E1E1E1E1E1E1E1E1E1E1E1E1E1E1E1E1E1E1E1E1E1E1E1E1E1E1E1E1E1E1E1E1E1E1E1E1E1E1E1E1E1E1E1E1E1E128BEE1E1E1E1E1E1E1E1E1E1E1E1E1E1E1E1E1E1E1E1E1E1E1E1E1E1E1E1E1E1E1E1E1E1E1E1E1E1E1E1E1E1E1E1E1E1E1E1E1E1E1E1E1E1E1E1E1E1E1E1E1
310
E1E1E1E1E1BEE1E1E1E1E1E1BEBEE1E1E1E1E1E1E1E1E1E1E1E1E1E1BEE1E1E1E1E1E1E1BEE1E1E10F0F0FE1BEE1E1E1E1E1E1E2E1E1E1E1E1E1E1E1E1E1E1E1E1E1E1E1E1E1E1E1E1E1E1E1E1E1E1E1E1E1E1E1E1E1E1E1E1E1E1E1E1E1E1E1E1E1E1E1E1E1E1E1E1E1E1E1E1E1E1E1E1E1E1E1E1E1E1E1E1E1E2E1E1E1E1
310
E1E1E1E1E1E1E10F0F0FBEE1E1E1E1E1E1E1E1E1E1E1E1E1E1E1E1E1E1E1E1E1E1E1E1E1E1E1E1E1E1E1E1E1E1E1E1E1E1E1E1E1E1E1E1E1E1E1E1E1E1E1E1E1E1E128BEE1E1E1E1E1E1E1E1E1E1E1E1E1E1E1E1E1E1E1E1E1E1E1E1E1E1E1E1E1E1E1E1E1E1E1E1E1E1E1E1E1E1E1E1E1E1E1E1E1E1E1E1E1E1E1E1E1E1E1
310
E1E1E1E1E1E1E1BEE1E1E1E1E1E1BEBEE1E1E1E1E1E1E1E1E1E1E1E1E1E1BEE1E1E1E1E1E1E1BEE1E1E1E1E1E1E1BEE1E1E1E1E1E1E2E1E1E1E1E1E1E1E1E1E1E1E1E1E1E1E1E1E1E1E1E1E1E1E1E1E1E1E1E1E1E1E1E1E1E1E1E1E1E1E1E1E1E1E1E1E1E1E1E1E1E1E1E1E1E1E1E1E1E1E1E1E1E1E1E1E1E1E1E1E1E2E1E1
310
E1E1E1E1E1E1E1E1E1E1E1E1BEE1E1E1E1E1E1E1E1E1E1E1E1E1E1E1E1E1E1E1E1E1E1E1E1E1E1E1E1E1E1E1E1E1E1E1E1E1E1E1E1E1E1E1E1E1E1E1E1E1E1E1E1E1E1E128BEE1E1E1E1E1E1E1E1E1E1E1E1E1E1E1E1E1E1E1E1E1E1E1E1E1E1E1E1E1E1E1E1E1E1E1E1E1E1E1E1E1E1E1E1E1E1E1E1E1E1E1E1E1E1E1E1E1
310
E1E1E1E1E1E1E1E1E1BEE1E1E1E1E1E1BEBEE1E1E1E1E1E1E1E1E1E1E1E1E1E1BEE1E1E1E1E1E1E1BEE1E1E1E1E1E1E1BEE1E1E1E1E1E1E2E1E1E1E1E1E1E1E1E1E1E1E1E1E1E1E1E1E1E1E1E1E1E1E1E1E1E1E1E1E1E1E1E1E1E1E1E1E1E1E1E1E1E1E1E1E1E1E1E1E1E1E1E1E1E1E1E1E1E1E1E1E1E1E1E1E1E1E1E1E1E2
310
E1E1E1E1E1E1E1E1E1E1E1E1E1E1BEE1E1E1E1E1E1E1E1E1E1E1E1E1E1E1E1E1E1E1E1E1E1E1E1E1E1E1E1E1E1E1E1E1E1E1E1E1E1E1E1E1E1E1E1E1E1E1E1E1E1E1E1E1E1E128BEE1E1E1E1E1E1E1E1E1E1E1E1E1E1E1E1E1E1E1E1E1E1E1E1E1E1E1E1E1E1E1E1E1E1E1E1E1E1E1E1E1E1E1E1E1E1E1E1E1E1E1E1E1E1E1
310
E1E1E1E1E1E1E1E1E1E1E1BEE1E1E1E1E1E1BE28E1E1E1E1E1E1E1E1E1E1E1E1E1E1BEE1E1E1E1E1E1E1BEE1E1E1E1E1E1E1BEE1E1E1E1E1E1E2E1E1E1E1E1E1E1E1E1E1E1E1E1E1E1E1E1E1E1E1E1E1E1E1E1E1E1E1E1E1E1E1E1E1E1E1E1E1E1E1E1E1E1E1E1E1E1E1E1E1E1E1E1E1E1E1E1E1E1E1E1E1E1E1E1E1E1E1E1
310
E1E2E1E1E1E1E1E1E1E1E1E1E1E1E1E1BEE1E1E1E1E1E1E1E1E1E1E1E1E1E1E1E1E1E1E1E1E1E1E1E1E1E1E1E1E1E1E1E1E1E1E1E1E1E1E1E1E1E1E1E1E1E1E1E1E1E1E1E1E1E1E128BEE1E1E1E1E1E1E1E1E1E1E1E1E1E1E1E1E1E1E1E1E1E1E1E1E1E1E1E1E1E1E1E1E1E1E1E1E1E1E1E1E1E1E1E1E1E1E1E1E1E1E1E1E1
310
E1E1E1E1E1E1E1E1E1E1E1E1E1BEE1E1E1E1E1E1BEBEE1E1E1E1E1E1E1E1E1E1E1E1E1E1BEE1E1E1E1E1E1E1BEE1E1E1E1E1E1E1BEE1E1E1E1E1E1E2E1E1E1E1E1E1E1E1E1E1E1E1E1E1E1E1E1E1E1E1E1E1E1E1E1E1E1E1E1E1E1E1E1E1E1E1E1E1E1E1E1E1E1E1E1E1E1E1E1E1E1E1E1E1E1E1E1E1E1E1E1E1E1E1E1E1E1
310
E1E1E1E2E1E1E1E1E1E1E1E1E1E1E1E1E1E1BEE1E1E1E1E1E1E1E1E1E1E1E1E1E1E1E1E1E1E1E1E1E1E1E1E1E1E1E1E1E1E1E1E1E1E1E1E1E1E1E1E1E1E1E1E1E1E1E1E1E1E1E1E1E1E128BEE1E1E1E1E1E1E1E1E1E1E1E1E1E1E1E1E1E1E1E1E1E1E1E1E1E1E1E1E1E1E1E1E1E1E1E1E1E1E1E1E1E1E1E1E1E1E1E1E1E1E1
310
E1E1E1E1E1E1E1E1E1E1E1E1E1E1E1BEE1E1E1E1E1E1BEBEE1E1E1E1E1E1E1E1E1E1E1E1E1E1BEE1E1E1E1E1E1E1BEE1E1E1E1E1E1E1BEE1E1E1E1E1E1E2E1E1E1E1E1E1E1E1E1E1E1E1E1E1E1E1E1E1E1E1E1E1E1E1E1E1E1E1E1E1E1E1E1E1E1E1E1E1E1E1E1E1E1E1E1E1E1E1E1E1E1E1E1E1E1E1E1E1E1E1E1E1E1E1E1
310
E1E1E1E1E1E2E1E1E1E1E1E1E1E1E1E1E1E1E1E1BEE1E1E1E1E1E1E1E1E1E1E1E1E1E1E1E1E1E1E1E1E1E1E1E1E1E1E1E1E1E1E1E1E1E1E1E1E1E1E1E1E1E1E1E1E1E1E1E1E1E1E1E1E1E1E128BEE1E1E1E1E1E1E1E1E1E1E1E1E1E1E1E1E1E1E1E1E1E1E1E1E1E1E1E1E1E1E1E1E1E1E1E1E1E1E1E1E1E1E1E1E1E1E1E1E1
310
E1E1E1E1E1E1E1E1E1E1E1E1E1E1E1E1E1BEE1E1E1E1E1E1BEBEE1E1E1E1E1E1E1E1E1E1E1E1E1E1BEE1E1E1E1E1E1E1BEE1E1E1E1E1E1E1BEE1E1E1E1E1E1E2E1E1E1BEE1E1E1E1E1E1E1E1BEE1E1E1E1E1E1E1E1E1E1E1E1E1E1E1E1E1E1E1E1E1E1E1E1E1E1E1E1E1E1E1E1E1E1E1E1E1E1E1E1E1E1E1E1E1E1E1E1E1E1
310
E1E1E1BEE1E1E1E2E1E1E1E1E1E1E1E1E1E1E1E1E1E1BEE1E1E1E1E1E1E1E1E1E1E1E1E1E1E1E1E1E1E1E1E1E1E1E1E1E1E1E1E1E1E1E1E1E1E1E1E1E1E1E1E1E1E1E1E1E1E1E1E1E1E1E1E1E1E128BEE1E1E1E1E1E1E1E1E1E1E1E1E1E1E1E1E1E1E1E1E1E1E1E1E1E1E1E1E1E1E1E1E1E1E1E1E1E1E1E1E1E1E1E1E1E1E1
310
E1E1E1E1E1E1E1E1E1E1E1E1E1E1E1E1E1E1E1BEE1E1E1E1E1E1BEBEE1E1E1E1E1E1E1E1E1E1E1E1E1E1BEE1E1E1E1E1E1E1BEE1E1E1E1E1E1E1BEE1E1E1E1E1E1E2E1E1E1BEE1E1E1E1E1E1E1E1BEE1E1E1E1E1E1E1E1E1E1E1E1E1E1E1E1E1E1E1E1E1E1E1E1E1E1E1E1E1E1E1E1E1E1E1E1E1E1E1E1E1E1E1E1E1E1E1E1
310
E1E1E1E1E1BEE1E1E1E2E1E1E1E1E1E1E1E1E1E1E1E1E1E1BEBEE1E1E1E1E1E1E1E1E1E1E1E1E1E1E1E1E1E1E1E1E1E1E1E1E1E1E1E1E1E1E1E1E1E1E1E1E1E1E1E1E1E1E1E1E1E1E1E1E1E1E1E1E1E128BEE1E1E1E1E1E1E1E1E1E1E1E1E1E1E1E1E1E1E1E1E1E1E1E1E1E1E1E1E1E1E1E1E1E1E1E1E1E1E1E1E1E1E1E1E1
310
E1E1E1E1E1E1E1E1E1E1E1E1E1E1E1E1E1E1E1E1E1BEE1E1E1E1E1E1BE28E1E1E1E1E1E1E1E1E1E1E1E1E1E1BEE1E1E1E1E1E1E1BEE1E1E1E1E1E1E1BEE1E1E1E1E1E1E2E1E1E1BEE1E1E1E1E1E1E1E1BEE1E1E1E1E1E1E1E1E1E1E1E1E1E1E1E1E1E1E1E1E1E1E1E1E1E1E1E1E1E1E1E1E1E1E1E1E1E1E1E1E1E1E1E1E1E1
310
E1E1E1E1E1E1E1BEE1E1E1E2E1E1E1E1E1E1E1E1E1E1E1E1E1E1BEBEE1E1E1E1E1E1E1E1E1E1E1E1E1E1E1E1E1E1E1E1E1E1E1E1E1E1E1E1E1E1E1E1E1E1E1E1E1E1E1E1E1E1E1E1E1E1E1E1E1E1E1E1E1E128BEE1E1E1E1E1E1E1E1E1E1E1E1E1E1E1E1E1E1E1E1E1E1E1E1E1E1E1E1E1E1E1E1E1E1E1E1E1E1E1E1E1E1E1
310
E1E1E1E1E1E1E1E1E1E1E1E1E1E1E1E1E1E1E1E1E1E1E1BEE1E1E1E1E1E1E128E1E1E1E1E1E1E1E1E1E1E1E1E1E1BEE1E1E1E1E1E1E1BEE1E1E1E1E1E1E1BEE1E1E1E1E1E1E2E1E1E2E2E2E1E1E1E1E1E1E2E2E2E1E1E1E1E1E1E2E2E2E1E1E1E1E1E1E2E2E2E1E1E1E1E1E1E2E2E2E1E1E1E1E1E1E2E2E2E1E1E1E1E1E1E2
310
E2E2E1E1E1E1E1E1E1E2E2E1E1E2E1E1E1E1E1E1E1E1E1E1E1E1E1E1BEE1E1E1E1E1E1E1E1E1E1E1E1E1E1E1E1E1E1E1E1E1E1E1E1E1E1E1E1E1E1E1E1E1E1E1E1E1E1E1E1E1E1E1E1E1E1E1E1E1E1E1E1E1E1E128BEE1E1E1E1E1E1E1E1E1E1E1E1E1E1E1E1E1E1E1E1E1E1E1E1E1E1E1E1E1E1E1E1E1E1E1E1E1E1E1E1E1
310
E1E1E1E1E1E1E1E1E1E1E1E1E1E1E1E1E1E1E1E1E1E1E1E1E1BEE1E1E1E1E1E1E128E1E1E1E1E1E1E1E1E1E1E1E1E1E1BEE1E1E1E1E1E1E1BEE1E1E1E1E1E1E1BEE1E1E1E1E1E1E2E1E1E2BEE2E1E1E1E1E1E1E2BEE2E1E1E1E1E1E1E2E1E2E1E1E1E1E1E1E2E1E2E1E1E1E1E1E1E2E1E2E1E1E1E1E1E1E2E1E2E1E1E1E1E1
310
E1E2E1E2E1E1E1E1E1E1E1E2E2BEBEE2BEBEBEBEBEBEBEBEBEBEBEBEBEBEBEBEBEE1E1E1E1E1E1E1E1E1E1E1E1E1E1E1E1E1E1E1E1E1E1E1E1E1E1E1E1E1E1E1E1E1E1E1E1E1E1E1E1E1E1E1E1E1E1E1E1E1E1E1E1E128BEE1E1E1E1E1E1E1E1E1E1E1E1E1E1E1E1E1E1E1E1E1E1E1E1E1E1E1E1E1E1E1E1E1E1E1E1E1E1E1
310
E1E1E1E1E1E1E1E1E1E1E1E1E1E1E1E1E1E1E1E1E1E1E1E1E1E1E1BEE1E1E1E1E1E1E128E1E1E1E1E1E1E1E1E1E1E1E1E1E1BEE1E1E1E1E1E1E1BEE1E1E1E1E1E1E1BEE1E1E1E1E1E1E2E1E1E2E2E2E1E1E1E1E1E1E2E2E2E1E1E1E1E1E1E2E2E2E1E1E1E1E1E1E2E2E2E1E1E1E1E1E1E2E2E2E1E1E1E1E1E1E2E2E2E1E1E1
310
E1E1E1E2E2E2E1E1E1E1E1E1E1E2E2E1E1E2E1E1E1E1E1E1E1E1E1E1E1E1E1E1E1E1E1E1E1E1E1E1E1E1E1E1E1E1E1E1E1E1E1E1E1E1E1E1E1E1E1E1E1E1E1E1E1E1E1E1E1E1E1E1E1E1E1E1E1E1E1E1E1E1E1E1E1E1E1E128BEE1E1E1E1E1E1E1E1E1E1E1E1E1E1E1E1E1E1E1E1E1E1E1E1E1E1E1E1E1E1E1E1E1E1E1E1E1
310
E1E1E1E1E1E1E1E1E1E1E1E1E1E1E1E1E1E1E1E1E1E1E1E1E1E1E1E1E1BEE1E1E1E1E1E1E128E1E1E1E1E1E1E1E1E1E1E1E1E1E1BEE1E1E1E1E1E1E1BEE1E1E1E1E1E1BEBEE1E1E1E1E1E1E2E2E2E1BEE2E1E2E1E1E2E2E1BEE2E1E2E1E1E2E1E2E1E1E2E2E1E1E2E1E2E1E1E2E2E1E1E2E1E2E1E1E2E2E1E1E2E1E2E1E1E2
310
E2E1E1E2E1E2E1E1E2E2E1E1E2E1E2BEE1E2E2E2E1E1E1E1E1E1E1E1E1E1E1E1E1E1E1E1E1E1E1E1E1E1E1E1E1E1E1E1E1E1E1E1E1E1E1E1E1E1E1E1E1E1E1E1E1E1E1E1E1E1E1E1E1E1E1E1E1E1E1E1E1E1E1E1E1E1E1E1E1E128BEE1E1E1E1E1E1E1E1E1E1E1E1E1E1E1E1E1E1E1E1E1E1E1E1E1E1E1E1E1E1E1E1E1E1E1
310
E1E1E1E1E1E1E1E1E1E1E1E1E1E1E1E1E1E1E1E1E1E1E1E1E1E1E1E1E1E1E1BEE1E1E1E1E1E1E128E1E1E1E1E1E1E1E1E1E1E1E1E1E1BEBEE1E1E1E1E1E1BEE1E1E1E1E1E1BEBEE1E1E1E1E1E1E2E2E2E1BEE2E1E2BEE1E2E2E1BEE2E1E2E1BEE2E1E2E1E1E2E2E1E1E2E1E2E1E1E2E2E1E1E2E1E2E1E1E2E2E1E1E2E1E2E1
310
E1E2E2E1E1E2E1E2E1E1E2E2E1E1E2E1E2BEE1E2E2E2E1E1E1E1E1E1E1E1E1E1E1E1E1E1E1E1E1E1E1E1E1E1E1E1E1E1E1E1E1E1E1E1E1E1E1E1E1E1E1E1E1E1E1E1E1E1E1E1E1E1E1E1E1E1E1E1E1E1E1E1E1E1E1E1E1E1E1E1E1E128BEE1E1E1E1E1E1E1E1E1E1E1E1E1E1E1E1E1E1E1E1E1E1E1E1E1E1E1E1E1E1E1E1E1
310
E1E1E1E1E1E1E1E1E1E1E1E1E1E1E1E1E1E1E1E1E1E1E1E1E1E1E1E1E1E1E1E1E1BEE1E1E1E1E1E1E128E1E1E1E1E1E1E1E1E1E1E1E1E1E1BEBEE1E1E1E1E1E1BEE1E1E1E1E1E1E1BEE1E1E1E1E1E1E2E2E2E2E2E2E2E2E2E2E2E2E2E2E2E2E2E2E2E2E2E2E2E2E2E2E2E2E2E2E2E2E2E2E2E2E2E2E2E2E2E2E2E2E2E2E2E2
310
E2E2E2E2E2E2E2E2E2E2E2E2E2E2E2E2E2E2E2E2E2E2E2E2E1E1E1E1E1E1E1E1E1E1E1E1E1E1E1E1E1E1E1E1E1E1E1E1E1E1E1E1E1E1E1E1E1E1E1E1E1E1E1E1E1E1E1E1E1E1E1E1E1E1E1E1E1E1E1E1E1E1E1E1E1E1E1E1E1E1E1E1E1E128BEE1E1E1E1E1E1E1E1E1E1E1E1E1E1E1E1E1E1E1E1E1E1E1E1E1E1E1E1E1E1E1
310
E1E1E1E1E1E1E1E1E1E1E1E1E1E1E1E1E1E1E1E1E1E1E1E1E1E1E1E1E1E1E1E1E1E1E1BEE1E1E1E1E1E1E128E1E1E1E1E1E1E1E1E1E1E1E1E1E1BEBEE1E1E1E1BEBEBEBEBEBEBEBEBEBEBEBEBEBEBEBEBEE2BEBEE2E2E2E1E1E2E2E1E1E2E2E2E1E1E2E2E1E1E2E2E2E1E1E2E2E1E1E2E2E2E1E1E2E2E1E1E1E2E2E1E1E2E2
310
E1E1E1E2E2E1E1E2E2E2E1E1E2E2E1E1E2E2E2E1E1E2E2E1E1E2E1E1E1E1E1E1E1E1E1E1E1E1E1E1E1E1E1E1E1E1E1E1E1E1E1E1E1E1E1E1E1E1E1E1E1E1E1E1E1E1E1E1E1E1E1E1E1E1E1E1E1E1E1E1E1E1E1E1E1E1E1E1E1E1E1E1E1E1E1E128BEE1E1E1E1E1E1E1E1E1E1E1E1E1E1E1E1E1E1E1E1E1E1E1E1E1E1E1E1E1
310
E1E1E1E1E1E1E1E1E1E1E1E1E1E1E1E1E1E1E1E1E1E1E1E1E1E1E1E1E1E1E1E1E1E1E1E1E1BEE1E1E1E1E1E1E128E1E1E1E1E1E1E1E1E1E1E1E1E1E1BEE1E1E1E1E1E1E1E1E1E1E1E1E1E1E1E1E1E1E1E1E1E1E2E1E1E1E2E1E1E1E2E1E1E1E1E2E1E1E1E1E2E1E1E1E2E1E1E1E1E2E1E1E1E2E1E1E1E1E2E1E1E1E2E1E1E1
310
E1E2E1E1E1E2E1E1E1E1E2E1E1E1E2E1E1E1E1E2E1E1E1E2E1E1E1E2E1E1E1E1E1E1E1E1E1E1E1E1E1E1E1E1E1E1E1E1E1E1E1E1E1E1E1E1E1E1E1E1E1E1E1E1E1E1E1E1E1E1E1E1E1E1E1E1E1E1E1E1E1E1E1E1E1E1E1E1E1E1E1E1E1E1E1E1E1E128BEE1E1E1E1E1E1E1E1E1E1E1E1E1E1E1E1E1E1E1E1E1E1E1E1E1E1E1
310
E1E1E1E1E1E1E1E1E1E1E1E1E1E1E1E1E1E1E1E1E1E1E1E1E1E1E1E1E1E1E1E1E1E1E1E1E1E1E1BEE1E1E1E1E1E1E128E1E1E1E1E1E1E1E1E1E1E1E1E1BEBEBEBEBEBEBEBEBEBEBEBEBEBEBEBEBEBEBEBEBEBEBEBEE2E2E2E2E2E2E2E2E2E2E2E2E2E2E2E2E2E2E2E2E2E2E2E2E2E2E2E2E2E2E2E2E2E2E2E2E2E2E2E2E2E2
310
E2E2E2E2E2E2E2E2E2E2E2E2E2E2E2E2E2E2E2E2E2E2E2E2E2E2E2E2E2E2E1E1E1E1E1E1E1E1E1E1E1E1E1E1E1E1E1E1E1E1E1E1E1E1E1E1E1E1E1E1E1E1E1E1E1E1E1E1E1E1E1E1E1E1E1E1E1E1E1E1E1E1E1E1E1E1E1E1E1E1E1E1E1E1E1E1E1E1E1E128BEE1E1E1E1E1E1E1E1E1E1E1E1E1E1E1E1E1E1E1E1E1E1E1E1E1
310
E1E1E1E1E1E1E1E1E1E1E1E1E1E1E1E1E1E1E1E1E1E1E1E1E1E1E1E1E1E1E1E1E1E1E1E1E1E1E1E1E1BEE1E1E1E1E1E1E128E1E1E1E1E1E1E1E1E1E1E1E1E1E1E1E1E1E1E1E1E1E1E1E1E1E1E1E1E1E1E1E1E1E1E1E1E1BEE1E1E1BEE1E1E1BEE1E1E1E1BEE1E1E1E1BEE1E1E1E1E1E1E1E1E1E1E1E1E1E1E1E1E1E1E1E1E1
310
E1E1E1E1E1E1E1E1E1E1E1E1E1E1E1E1E1E1E1E1E1E1E1E1E1E1E1BEE1E1E1BEE1E1E1E1E1E1E1E1E1E1E1E1E1E1E1E1E1E1E1E1E1E1E1E1E1E1E1E1E1E1E1E1E1E1E1E1E1E1E1E1E1E1E1E1E1E1E1E1E1E1E1E1E1E1E1E1E1E1E1E1E1E1E1E1E1E1E1E1E1E128BEE1E1E1E1E1E1E1E1E1E1E1E1E1E1E1E1E1E1E1E1E1E1E1
310
E1E1E1E1E1E1E1E1E1E1E1E1E1E1E1E1E1E1E1E1E1E1E1E1E1E1E1E1E1E1E1E1E1E1E1E1E1E1E1E1E1E1E1BEE1E1E1E1E1E1E128E1E1E1E1E1E1E1E1E1E1E1E1E1E1E1E1E1E1E1E1E1E1E1E1E1E1E1E1E1E1E1E1E1E1E1E1E1BEE1E1E1BEE1E1E1E1E1E1E1E1E1E1E1E1E1E1E1E1E1E1E1E1E1E1E1E1E1E1E1E1E1E1E1E1E1
310
E1E1E1E1E1E1E1E1E1E1E1E1E1E1E1E1E1E1E1E1E1E1E1E1E1E1E1E1E1BEE1E1E1BEE1E1E1E1E1E1E1E1E1E1E1E1E1E1E1E1E1E1E1E1E1E1E1E1E1E1E1E1E1E1E1E1E1E1E1E1E1E1E1E1E1E1E1E1E1E1E1E1E1E1E1E1E1E1E1E1E1E1E1E1E1E1E1E1E1E1E1E1E1E128BEE1E1E1E1E1E1E1E1E1E1E1E1E1E1E1E1E1E1E1E1E1
310
E1E1E1E1E1E1E1E1E1E1E1E1E1E1E1E1E1E1E1E1E1E1E1E1E1E1E1E1E1E1E1E1E1E1E1E1E1E1E1E1E1E1E1E1E1BEE1E1E1E1E1E1E128E1E1E1E1E1E1E1E1E1E1E1E1E1E1E1E1E1E1E1E1E1E1E1E1E1E1E1E1E1E1E1E1E1E1E1E1E1BEE1E1E1BEE1E1E1E1E1E1E1E1E1E1E1E1E1E1E1E1E1E1E1E1E1E1E1E1E1E1E1E1E1E1E1
310
E1E1E1E1E1E1E1E1E1E1E1E1E1E1E1E1E1E1E1E1E1E1E1E1E1E1E1E1E1E1E1BEE1E1E1BEE1E1E1E1E1E1E1E1E1E1E1E1E1E1E1E1E1E1E1E1E1E1E1E1E1E1E1E1E1E1E1E1E1E1E1E1E1E1E1E1E1E1E1E1E1E1E1E1E1E1E1E1E1E1E1E1E1E1E1E1E1E1E1E1E1E1E1E1E1E128BEE1E1E1E1E1E1E1E1E1E1E1E1E1E1E1E1E1E1E1
310
E1E1E1E1E1E1E1E1E1E1E1E1E1E1E1E1E1E1E1E1E1E1E1E1E1E1E1E1E1E1E1E1E1E1E1E1E1E1E1E1E1E1E1E1E1E1E1BEE1E1E1E1E1E1E128E1E1E1E1E1E1E1E1E1E1E1E1E1E1E1E1E1E1E1E1E1E1E1E1E1E1E1E1E1E1E1E1E1E1E1E1E1BEE1E1E1BEE1E1E1E1E1E1E1E1E1E1E1E1E1E1E1E1E1E1E1E1E1E1E1E1E1E1E1E1E1
310
E1E1E1E1E1E1E1E1E1E1E1E1E1E1E1E1E1E1E1E1E1E1E1E1E1E1E1E1E1E1E1E1E1BEE1E1E1BEE1E1E1E1E1E1E1E1E1E1E1E1E1E1E1E1E1E1E1E1E1E1E1E1E1E1E1E1E1E1E1E1E1E1E1E1E1E1E1E1E1E1E1E1E1E1E1E1E1E1E1E1E1E1E1E1E1E1E1E1E1E1E1E1E1E1E1E1E1E128BEE1E1E1E1E1E1E1E1E1E1E1E1E1E1E1E1E1
310
E1E1E1E1E1E1E1E1E1E1E1E1E1E1E1E1E1E1E1E1E1E1E1E1E1E1E1E1E1E1E1E1E1E1E1E1E1E1E1E1E1E1E1E1E1E1E1E1E1BEE1E1E1E1E1E1E128E1E1E1E1E1E1E1E1E1E1E1E1E1E1E1E1E1E1E1E1E1E1E1E1E1E1E1E1E1E1E1E1E1E1E1E1E1BEE1E1E1BEE1E1E1E1E1E1E1E1E1E1E1E1E1E1E1E1E1E1E1E1E1E1E1E1E1E1E1
310
E1E1E1E1E1E1E1E1E1E1E1E1E1E1E1E1E1E1E1E1E1E1E1E1E1E1E1E1E1E1E1E1E1E1E1BEE1E1E1BEE1E1E1E1E1E1E1E1E1E1E1E1E1E1E1E1E1E1E1E1E1E1E1E1E1E1E1E1E1E1E1E1E1E1E1E1E1E1E1E1E1E1E1E1E1E1E1E1E1E1E1E1E1E1E1E1E1E1E1E1E1E1E1E1E1E1E1E1E1E128BEE1E1E1E1E1E1E1E1E1E1E1E1E1E1E1
310
E1E1E1E1E1E1E1E1E1E1E1E1E1E1E1E1E1E1E1E1E1E1E1E1E1E1E1E1E1E1E1E1E1E1E1E1E1E1E1E1E1E1E1E1E1E1E1E1E1E1E1BEE1E1E1E1E1E1E128E1E1E1E1E1E1E1E1E1E1E1E1E1E1E1E1E1E1E1E1E1E1E1E1E1E1E1E1E1E1E1E1E1E1E1E1E1BEE1E1E1BEE1E1E1E1E1E1E1E1E1E1E1E1E1E1E1E1E1E1E1E1E1E1E1E1E1
310
E1E1E1E1E1E1E1E1E1E1E1E1E1E1E1E1E1E1E1E1E1E1E1E1E1E1E1E1E1E1E1E1E1E1E1E1E1BEE1E1E1BEE1E1E1E1E1E1E1E1E1E1E1E1E1E1E1E1E1E1E1E1E1E1E1E1E1E1E1E1E1E1E1E1E1E1E1E1E1E1E1E1E1E1E1E1E1E1E1E1E1E1E1E1E1E1E1E1E1E1E1E1E1E1E1E1E1E1E1E1E1E128BEE1E1E1E1E1E1E1E1E1E1E1E1E1
310
E1E1E1E1E1E1E1E1E1E1E1E1E1E1E1E1E1E1E1E1E1E1E1E1E1E1E1E1E1E1E1E1E1E1E1E1E1E1E1E1E1E1E1E1E1E1E1E1E1E1E1E1E1BEE1E1E1E1E1E1E128E1E1E1E1E1E1E1E1E1E1E1E1E1E1E1E1E1E1E1E1E1E1E1E1E1E1BEBEBEBEBEBEBEBEBEBEBEBEBEBEBEBEBEBEBEBEBEBEBEBEBEBEBEBEBEBEBEBEBEBEBEBEBEBEBE
310
BEBEBEBEBEBEBEBEBEBEBEBEBEBEBEBEBEBEBEBEBEBEBEBEBEBEBEBEBEBEBEBEBEBEBEBEBEBEBEBEBEBEBEBEBEBEBEBEBEBEBEBEBEBEBEE1E1E1E1E1E1E1E1E1E1E1E1E1E1E1E1E1E1E1E1E1E1E1E1E1E1E1E1E1E1E1E1E1E1E1E1E1E1E1E1E1E1E1E1E1E1E1E1E1E1E1E1E1E1E1E1E1E1E128BEE1E1E1E1E1E1E1E1E1E1E1
310
E1E1E1E1E1E1E1E1E1E1E1E1E1E1E1E1E1E1E1E1E1E1E1E1E1E1E1E1E1E1E1E1E1E1E1E1E1E1E1E1E1E1E1E1E1E1E1E1E1E1E1E1E1E1E1BEE1E1E1E1E1E1E128E1E1E1E1E1E1E1E1E1E1E1E1E1E1E1E1E1E1E1E1E1E1E1E1E1E1E1E10F0F0F0F0F0F0FE1E1BEE1E1E1BEE1E1E1E1E1E1E1E1E1E1E1E1E1E1E1E1E1E1E1E1E1
310
E1E1E1E1E10F0FE10F0FE1E10F0F0FE1E1E1E1E1E1E1E1E1E1E1E1E1E1E1E1E1E1E1E1E1E1E1E1E1E1BEE1E1E1BEE1E1E1E1E10F0F0F0F0F0FE1E1E1E1E1E1E1E1E1E1E1E1E1E1E1E1E1E1E1E1E1E1E1E1E1E1E1E1E1E1E1E1E1E1E1E1E1E1E1E1E1E1E1E1E1E1E1E1E1E1E1E1E1E1E1E1E1E1E128BEE1E1E1E1E1E1E1E1E1
310
E1E1E1E1E1E1E1E1E1E1E1E1E1E1E1E1E1E1E1E1E1E1E1E1E1E1E1E1E1E1E1E1E1E1E1E1E1E1E1E1E1E1E1E1E1E1E1E1E1E1E1E1E1E1E1E1E1BEE1E1E1E1E1E1E128E1E1E1E1E1E1E1E1E1E1E1E1E1E1E1E1E1E1E1E1E1E1E1E1E1E1E1E10FE10FE1E1E10FE1E1BEE1E1E1BEE1E1E1E1E1E1E1E1E1E1E1E1E1E1E1E1E1E1E1
310
E1E1E1E1E1E1E10F0FE1E10FE1E10FE1E10FE1E1E1E1E1E1E1E1E1E1E1E1E1E1E1E1E1E1E1E1E1E1E1E1E1BEE1E1E1BEE1E1E1E1E10FE10FE1E10FE1E1E1E1E1E1E1E1E1E1E1E1E1E1E1E1E1E1E1E1E1E1E1E1E1E1E1E1E1E1E1E1E1E1E1E1E1E1E1E1E1E1E1E1E1E1E1E1E1E1E1E1E1E1E1E1E1E1E128BEE1E1E1E1E1E1E1
310
E1E1E1E1E1E1E1E1E1E1E1E1E1E1E1E1E1E1E1E1E1E1E1E1E1E1E1E1E1E1E1E1E1E1E1E1E1E1E1E1E1E1E1E1E1E1E1E1E1E1E1E1E1E1E1E1E1E1E1BEE1E1E1E1E1E1E128E1E1E1E1E1E1E1E1E1E1E1E1E1E1E1E1E1E1E1E1E1E1E1E1E1E1E1E10F0FE10FE10F0FE1E1BEE1E1E1E1E1E1E1E1E1E1E1E1E1E1E1E1E1E1E1E1E1
310
E1E1E1E1E1E1E1E1E10F0FE10F0FE1E10F0F0FE1E1E1E1E1E1E1E1E1E1E1E1E1E1E1E1E1E1E1E1E1E1E1E1E1E1E1E1E1E1BEE1E1E1E10F0F0F0FE10F0FE1E1E1E1E1E1E1E1E1E1E1E1E1E1E1E1E1E1E1E1E1E1E1E1E1E1E1E1E1E1E1E1E1E1E1E1E1E1E1E1E1E1E1E1E1E1E1E1E1E1E1E1E1E1E1E1E1E1E128BEE1E1E1E1E1
310
E1E1E1E1E1E1E1E1E1E1E1E1E1E1E1E1E1E1E1E1E1E1E1E1E1E1E1E1E1E1E1E1E1E1E1E1E1E1E1E1E1E1E1E1E1E1E1E1E1E1E1E1E1E1E1E1E1E1E1E1E1BEE1E1E1E1E1E1E128E1E1E1E1E1E1E1E1E1E1E1E1E1E1E1E1E1E1E1E1E1E1E1E1E1E1E1E10FE10FE1E10F0FE1E1BEE1E1E1E1E1E1E1E1E1E1E1E1E1E1E1E1E1E1E1
310
E1E1E1E1E1E1E1E1E1E1E1E1E1E1E1E1E1E10F0F0FE1E1E1E1E1E1E1E1E1E1E1E1E1E1E1E1E1E1E1E1E1E1E1E1E1E1E1E1E1E1BEE1E1E1E1E10F0F0FE10F0FE1E1E1E1E1E1E1E1E1E1E1E1E1E1E1E1E1E1E1E1E1E1E1E1E1E1E1E1E1E1E1E1E1E1E1E1E1E1E1E1E1E1E1E1E1E1E1E1E1E1E1E1E1E1E1E1E1E1E128BEE1E1E1
310
E1E1E1E1E1E1E1E1E1E1E1E1E1E1E1E1E1E1E1E1E1E1E1E1E1E1E1E1E1E1E1E1E1E1E1E1E1E1E1E1E1E1E1E1E1E1E1E1E1E1E1E1E1E1E1E1E1E1E1E1E1E1E1BEE1E1E1E1E1E1E128E1E1E1E1E1E1E1E1E1E1E1E1E1E1E1E1E1E1E1E1E1E1E1E1E1E1E1E1E1E1E1E1E1E1E1E1E1BEE1E1E1E1E1E1E1E1E1E1E1E1E1E1E1E1E1
310
E1E1E1E1E1E1E1E1E1E1E1E1E1E1E1E1E1E1E1E1E1E1E1E1E1E1E1E1E1E1E1E1E1E1E1E1E1E1E1E1E1E1E1E1E1E1E1E1E1E1E1E1E1BEE1E1E1E1E1E1E1E1E1E1E1E1E1E1E1E1E1E1E1E1E1E1E1E1E1E1E1E1E1E1E1E1E1E1E1E1E1E1E1E1E1E1E1E1E1E1E1E1E1E1E1E1E1E1E1E1E1E1E1E1E1E1E1E1E1E1E1E1E1E128BEE1
310
E1E1E1E1E1E1E1E1E1E1E1E1E1E1E1E1E1E1E1E1E1E1E1E1E1E1E1E1E1E1E1E1E1E1E1E1E1E1E1E1E1E1E1E1E1E1E1E1E1E1E1E1E1E1E1E1E1E1E1E1E1E1E1E1E1BEE1E1E1E1E1E1E128E1E1E1E1E1E1E1E1E1E1E1E1E1E1E1E1E1E1E1E1E1E1E1E1E1E1E1E1E1E1E1E1E1E1E1E1E1BEE1E1E1E1E1E1E1E1E1E1E1E1E1E1E1
310
E1E1E1E1E1E1E1E1E1E1E1E1E1E1E1E1E1E1E1E1E1E1E1E1E1E1E1E1E1E1E1E1E1E1E1E1E1E1E1E1E1E1E1E1E1E1E1E1E1E1E1E1E1E1E1BEE1E1E1E1E1E1E1E1E1E1E1E1E1E1E1E1E1E1E1E1E1E1E1E1E1E1E1E1E1E1E1E1E1E1E1E1E1E1E1E1E1E1E1E1E1E1E1E1E1E1E1E1E1E1E1E1E1E1E1E1E1E1E1E1E1E1E1E1E1E128
310
BEE1E1E1E1E1E1E1E1E1E1E1E1E1E1E1E1E1E1E1E1E1E1E1E1E1E1E1E1E1E1E1E1E1E1E1E1E1E1E1E1E1E1E1E1E1E1E1E1E1E1E1E1E1E1E1E1E1E1E1E1E1E1E1E1E1E1BEE1E1E1E1E1E1E128E1E1E1E1E1E1E1E1E1E1E1E1E1E1E1E1E1E1E1E1E1E1E1E1E1E1E1E1E1E1E1E1E1E1E1E1E1BEE1BEBEE1E1E1E1E1E1E1E1E1E1
310
E1E1E1E1E1E1E1E1E1E1E1E1E1E1E1E1E1E1E1E1E1E1E1E1E1E1E1E1E1E1E1E1E1E1E1E1E1E1E1E1E1E1E1E1E1E1E1E1E1E1E1E1E1E1BEBEE1BEE1E1E1E1E1E1E1E1E1E1E1E1E1E1E1E1E1E1E1E1E1E1E1E1E1E1E1E1E1E1E1E1E1E1E1E1E1E1E1E1E1E1E1E1E1E1E1E1E1E1E1E1E1E1E1E1E1E1E1E1E1E1E1E1E1E1E1E1E1
310
E128BEE1E1E1E1E1E1E1E1E1E1E1E1E1E1E1E1E1E1E1E1E1E1E1E1E1E1E1E1E1E1E1E1E1E1E1E1E1E1E1E1E1E1E1E1E1E1E1E1E1E1E1E1E1E1E1E1E1E1E1E1E1E1E1E1E1E1BEE1E1E1E1E1E1E128E1E1E1E1E1E1E1E1E1E1E1E1E1E1E1E1E1E1E1E1E1E1E1E1E1E1E1E1E1E1E1E1E1E1E1E1E1BEBEBEBEBEBEBEBEBEBEBEBE
310
BEBEBEBEBEBEBEBEBEBEBEBEBEBEBEBEBEBEBEBEBEBEBEBEBEBEBEBEBEBEBEBEBEBEBEBEBEBEBEBEBEBEBEBEBEBEBEBEBEBEBEBEBEBEBEBEBEBEBEBEE1E1E1E1E1E1E1E1E1E1E1E1E1E1E1E1E1E1E1E1E1E1E1E1E1E1E1E1E1E1E1E1E1E1E1E1E1E1E1E1E1E1E1E1E1E1E1E1E1E1E1E1E1E1E1E1E1E1E1E1E1E1E1E1E1E1E1
310
E1E1E128BEE1E1E1E1E1E1E1E1E1E1E1E1E1E1E1E1E1E1E1E1E1E1E1E1E1E1E1E1E1E1E1E1E1E1E1E1E1E1E1E1E1E1E1E1E1E1E1E1E1E1E1E1E1E1E1E1E1E1E1E1E1E1E1E1E1E1BEE1E1E1E1E1E1E128E1E1E1E1E1E1E1E1E1E1E1E1E1E1E1E1E1E1E1E1E1E1E1E1E1E1E1E1E1E1E1E1E1E1E1E1E1BEE1E1E1E1E1E1E1E1E1
310
E1E1E1E1E1E1E1E1E1E1E1E1E1E1E1E1E1E1E1E1E1E1E1E1E1E10FE1E1E1E1E1E1E1E1E1E1E1E1E1E1E1E1E1E1E1E1E1E1E1E1E1E1E1E1E1E1E1E1E1E1BEE1E1E1E1E1E1E1E1E1E1E1E1E1E1E1E1E1E1E1E1E1E1E1E1E1E1E1E1E1E1E1E1E1E1E1E1E1E1E1E1E1E1E1E1E1E1E1E1E1E1E1E1E1E1E1E1E1E1E1E1E1E1E1E1E1
310
E1E1E1E1E128BEE1E1E1E1E1E1E1E1E1E1E1E1E1E1E1E1E1E1E1E1E1E1E1E1E1E1E1E1E1E1E1E1E1E1E1E1E1E1E1E1E1E1E1E1E1E1E1E1E1E1E1E1E1E1E1E1E1E1E1E1E1E1E1E1E1E1BEE1E1E1E1E1E1E128E1E1E1E1E1E1E1E1E1E1E1E1E1E1E1E1E1E1E1E1E1E1E1E1E1E1E1E1E1E1E1E1E1E1E1E1E1E1E1E1E1E1E1E1E1
310
E1E1E1E1E1E1E1E1E1E1E1E1E1E1E1E1E1E1E1E1E1E1E1E1E1E1E1E10FE1E1E1E1E1E1E1E1E1E1E1E1E1E1E1E1E1E1E1E1E1E1E1E1E1E1E1E1E1E1E1E1E1E1E1E1E1E1E1E1E1E1E1E1E1E1E1E1E1E1E1E1E1E1E1E1E1E1E1E1E1E1E1E1E1E1E1E1E1E1E1E1E1E1E1E1E1E1E1E1E1E1E1E1E1E1E1E1E1E1E1E1E1E1E1E1E1E1
310
E1E1E1E1E1E1E128BEE1E1E1E1E1E1E1E1E1E1E1E1E1E1E1E1E1E1E1E1E1E1E1E1E1E1E1E1E1E1E1E1E1E1E1E1E1E1E1E1E1E1E1E1E1E1E1E1E1E1E1E1E1E1E1E1E1E1E1E1E1E1E1E1E1E1BEE1E1E1E1E1E1E128E1E1E1E1E1E1E1E1E1E1E1E1E1E1E1E1E1E1E1E1E1E1E1E1E1E1E1E1E1E1E1E1E1E1E1E1E1E1E1E1E1E1E1
310
E1E1E1E1E1E1E1E1E1E1E1E1E1E1E1E1E1E1E1E1E1E1E1E1E1E1E1E1E10F0FE1E1E1E1E1E1E1E1E1E1E1E1E1E1E1E1E1E1E1E1E1E1E1E1E1E1E1E1E1E1E1E1E1E1E1E1E1E1E1E1E1E1E1E1E1E1E1E1E1E1E1E1E1E1E1E1E1E1E1E1E1E1E1E1E1E1E1E1E1E1E1E1E1E1E1E1E1E1E1E1E1E1E1E1E1E1E1E1E1E1E1E1E1E1E1E1
310
E1E1E1E1E1E1E1E1E128BEE1E1E1E1E1E1E1E1E1E1E1E1E1E1E1E1E1E1E1E1E1E1E1E1E1E1E1E1E1E1E1E1E1E1E1E1E1E1E1E1E1E1E1E1E1E1E1E1E1E1E1E1E1E1E1E1E1E1E1E1E1E1E1E1E1E1BEE1E1E1E1E1E1E128E1E1E1E1E1E1E1E1E1E1E1E1E1E1E1E1E1E1E1E1E1E1E1E1E1E1E1E1E1E1E1E1E1E1E1E1E1E1E1E1E1
310
E1E1E1E1E1E1E1E1E1E1E1E1E1E1E1E1E1E1E1E1E1E1E1E1E1E1E1E1E1E1E1E1E1E1E1E1E1E1E1E1E1E1E1E1E1E1E1E1E1E1E1E1E1E1E1E1E1E1E1E1E1E1E1E1E1E1E1E1E1E1E1E1E1E1E1E1E1E1E1E1E1E1E1E1E1E1E1E1E1E1E1E1E1E1E1E1E1E1E1E1E1E1E1E1E1E1E1E1E1E1E1E1E1E1E1E1E1E1E1E1E1E1E1E1E1E1E1
310
E1E1E1E1E1E1E1E1E1E1E128BEE1E1E1E1E1E1E1E1E1E1E1E1E1E1E1E1E1E1E1E1E1E1E1E1E1E1E1E1E1E1E1E1E1E1E1E1E1E1E1E1E1E1E1E1E1E1E1E1E1E1E1E1E1E1E1E1E1E1E1E1E1E1E1E1E1E1BEE1E1E1E1E1E1E128E1E1E1E1E1E1E1E1E1E1E1E1E1E1E1E1E1E1E1E1E1E1E1E1E1E1E1E1E1E1E1E1E1E1E1E1E1E1E1
310
E1E1E1E1E1E1E1E1E1E1E1E1E1E1E1E1E1E1E1E1E1E1E1E1E1E1E1E1E1E1E1E1E1E1E1E1E1E1E1E1E1E1E1E1E1E1E1E1E1E1E1E1E1E1E1E1E1E1E1E1E1E1E1E1E1E1E1E1E1E1E1E1E1E1E1E1E1E1E1E1E1E1E1E1E1E1E1E1E1E1E1E1E1E1E1E1E1E1E1E1E1E1E1E1E1E1E1E1E1E1E1E1E1E1E1E1E1E1E1E1E1E1E1E1E1E1E1
310
E1E1E1E1E1E1E1E1E1E1E1E1E128BEE1E1E1E1E1E1E1E1E1E1E1E1E1E1E1E1E1E1E1E1E1E1E1E1E1E1E1E1E1E1E1E1E1E1E1E1E1E1E1E1E1E1E1E1E1E1E1E1E1E1E1E1E1E1E1E1E1E1E1E1E1E1E1E1E1E1BEE1E1E1E1E1E1E128E1E1E1E1E1E1E1E1E1E1E1E1E1E1E1E1E1E1E1E1E1E1E1E1E1E1E1E1E1E1E1E1E1E1E1E1E1
310
E1E1E1E1E1E1E1E1E1E1E1E1E1E1E1E1E1E1E1E1E1E1E1E1E1E1E1E1E1E1E1E1E1E1E1E1E1E1E1E1E1E1E1E1E1E1E1E1E1E1E1E1E1E1E1E1E1E1E1E1E1E1E1E1E1E1E1E1E1E1E1E1E1E1E1E1E1E1E1E1E1E1E1E1E1E1E1E1E1E1E1E1E1E1E1E1E1E1E1E1E1E1E1E1E1E1E1E1E1E1E1E1E1E1E1E1E1E1E1E1E1E1E1E1E1E1E1
310
E1E1E1E1E1E1E1E1E1E1E1E1E1E1E128BEE1E1E1E1E1E1E1E1E1E1E1E1E1E1E1E1E1E1E1E1E1E1E1E1E1E1E1E1E1E1E1E1E1E1E1E1E1E1E1E1E1E1E1E1E1E1E1E1E1E1E1E1E1E1E1E1E1E1E1E1E1E1E1E1E1E1BEE1E1E1E1E1E1E128E1E1E1E1E1E1E1E1E1E1E1E1E1E1E1E1E1E1E1E1E1E1E1E1E1E1E1E1E1E1E1E1E1E1E1
310
E1E1E1E1E1E1E1E1E1E1E1E1E1E1E1E1E1E1E1E1E1E1E1E1E1E1E1E1E1E1E1E1E1E1E1E1E1E1E1E1E1E1E1E1E1E1E1E1E1E1E1E1E1E1E1E1E1E1E1E1E1E1E1E1E1E1E1E1E1E1E1E1E1E1E1E1E1E1E1E1E1E1E1E1E1E1E1E1E1E1E1E1E1E1E1E1E1E1E1E1E1E1E1E1E1E1E1E1E1E1E1E1E1E1E1E1E1E1E1E1E1E1E1E1E1E1E1
310
E1E1E1E1E1E1E1E1E1E1E1E1E1E1E1E1E128BEE1E1E1E1E1E1E1E1E1E1E1E1E1E1E1E1E1E1E1E1E1E1E1E1E1E1E1E1E1E1E1E1E1E1E1E1E1E1E1E1E1E1E1E1E1E1E1E1E1E1E1E1E1E1E1E1E1E1E1E1E1E1E1E1E1E1BEE1E1E1E1E1E1E128E1E1E1E1E1E1E1E1E1E1E1E1E1E1E1E1E1E1E1E1E1E1E1E1E1E1E1E1E1E1E1E1E1
310
E1E1E1E1E1E1E1E1E1E1E1E1E1E1E1E1E1E1E1E1E1E1E1E1E1E1E1E1E1E1E1E1E1E1E1E1E1E1E1E1E1E1E1E1E1E1E1E1E1E1E1E1E1E1E1E1E1E1E1E1E1E1E1E1E1E1E1E1E1E1E1E1E1E1E1E1E1E1E1E1E1E1E1E1E1E1E1E1E1E1E1E1E1E1E1E1E1E1E1E1E1E1E1E1E1E1E1E1E1E1E1E1E1E1E1E1E1E1E1E1E1E1E1E1E1E1E1
310
E1E1E1E1E1E1E1E1E1E1E1E1E1E1E1E1E1E1E128BEE1E1E1E1E1E1E1E1E1E1E1E1E1E1E1E1E1E1E1E1E1E1E1E1E1E1E1E1E1E1E1E1E1E1E1E1E1E1E1E1E1E1E1E1E1E1E1E1E1E1E1E1E1E1E1E1E1E1E1E1E1E1E1E1E1E1BEE1E1E1E1E1E1E128E1E1E1E1E1E1E1E1E1E1E1E1E1E1E1E1E1E1E1E1E1E1E1E1E1E1E1E1E1E1E1
310
E1E1E1E1E1E1E1E1E1E1E1E1E1E1E1E1E1E1E1E1E1E1E1E1E1E1E1E1E1E1E1E1E1E1E1E1E1E1E1E1E1E1E1E1E1E1E1E1E1E1E1E1E1E1E1E1E1E1E1E1E1E1E1E1E1E1E1E1E1E1E1E1E1E1E1E1E1E1E1E1E1E1E1E1E1E1E1E1E1E1E1E1E1E1E1E1E1E1E1E1E1E1E1E1E1E1E1E1E1E1E1E1E1E1E1E1E1E1E1E1E1E1E1E1E1E1E1
310
E1E1E1E1E1E1E1E1E1E1E1E1E1E1E1E1E1E1E1E1E128BEE1E1E1E1E1E1E1E1E1E1E1E1E1E1E1E1E1E1E1E1E1E1E1E1E1E1E1E1E1E1E1E1E1E1E1E1E1E1E1E1E1E1E1E1E1E1E1E1E1E1E1E1E1E1E1E1E1E1E1E1E1E1E1E1E1E1BEE1E1E1E1E1E1E128E1E1E1E1E1E1E1E1E1E1E1E1E1E1E1E1E1E1E1E1E1E1E1E1E1E1E1E1E1
310
E1E1E1E1E1E1E1E1E1E1E1E1E1E1E1E1E1E1E1E1E1E1E1E1E1E1E1E1E1E1E1E1E1E1E1E1E1E1E1E1E1E1E1E1E1E1E1E1E1E1E1E1E1E1E1E1E1E1E1E1E1E1E1E1E1E1E1E1E1E1E1E1E1E1E1E1E1E1E1E1E1E1E1E1E1E1E1E1E1E1E1E1E1E1E1E1E1E1E1E1E1E1E1E1E1E1E1E1E1E1E1E1E1E1E1E1E1E1E1E1E1E1E1E1E1E1E1
310
E1E1E1E1E1E1E1E1E1E1E1E1E1E1E1E1E1E1E1E1E1E1E128BEE1E1E1E1E1E1E1E1E1E1E1E1E1E1E1E1E1E1E1E1E1E1E1E1E1E1E1E1E1E1E1E1E1E1E1E1E1E1E1E1E1E1E1E1E1E1E1E1E1E1E1E1E1E1E1E1E1E1E1E1E1E1E1E1E1E1BEE1E1E1E1E1E1E128282828282828282828282828282828282828282828282828282828
310
28282828282828282828282828282828282828282828282828282828282828282828282828282828282828282828282828282828282828282828282828282828282828282828282828282828282828282828282828282828282828282828282828282828282828282828282828282828282828282828282828282828282828
310
2828282828282828282828282828282828282828282828282828BEE1E1E1E1E1E1E1E1E1E1E1E1E1E1E1E1E1E1E1E1E1E1E1E1E1E1E1E1E1E1E1E1E1E1E1E1E1E1E1E1E1E1E1E1E1E1E1E1E1E1E1E1E1E1E1E1E1E1E1E1E1E1E1E1E1E1BEE1E1E1E1E1E1E1E1E1E1E1E1E1E1E1E1E1E1E1E1E1E1E1E1E1E1E1E1E1E1E1E1E1
310
E1E1E1E1E1E1E1E1E1E1E1E1E1E1E1E1E1E1E1E1E1E1BEE1E1E1E1E1E1E1E1E1E1E1E1E1E1E1E1E1E1E1E1E1E1E1E1E1E1E1E1E1E1E1E1E1E1E1E1E1E1E1E1E1E1E1E1E1E1E1BEE1E1E1E1E1E1E1E1E1E1E1E1E1E1E1E1E1E1E1E1E1E1E1E1E1E1E1E1E1E1E1E1E1E1E1E1E1E1E1E1E1E1E1E1E1E1E1E1E1E1E1E1E1E1E1E1
310
E1E1E1E1E1E1E1E1E1E1E1E1E1E1E1E1E1E1E1E1E1E1E1E1E1E1E1E1BEE1E1E1E1E1E1E1E1E1E1E1E1E1E1E1E1E1E1E1E1E1E1E1E1E1E1E1E1E1E1E1E1E1E1E1E1E1E1E1E1E1E1E1E1E1E1E1E1E1E1E1E1E1E1E1E1E1E1E1E1E1E1E1E1E1E1BEBEBEBEBEBEBEBEBEBEBEBEBEBEBEBEBEBEBEBEBEBEBEBEBEBEBEBEBEBEBEBE
310
BEBEBEBEBEBEBEBEBEBEBEBEBEBEBEBEBEBEBEBEBEBEBEBEBEBEBEBEBEBEBEBEBEBEBEBEBEBEBEBEBEBEBEBEBEBEBEBEBEBEBEBEBEBEBEBEBEBEBEBEBEBEBEBEBEBEBEBEBEBEBEBEBEBEBEBEBEBEBEBEBEBEBEBEBEBEBEBEBEBEBEBEBEBEBEBEBEBEBEBEBEBEBEBEBEBEBEBEBEBEBEBEBEBEBEBEBEBEBEBEBEBEBEBEBEBEBE
310
BEBEBEBEBEBEBEBEBEBEBEBEBEBEBEBEBEBEBEBEBEBEBEBEBEBEBEBEBEBEBEE1E1E1E1E1E1E1E1E1E1E1E1E1E1E1E1E1E1E1E1E1E1E1E1E1E1E1E1E1E1E1E1E1
  0
XRECORD
  5
EB8
102
{ACAD_REACTORS
330
DB4
102
}
330
DB4
100
AcDbXrecord
280
     1
102
MATERIAL
148
0.0
149
0.0
149
0.0
 93
        0
 94
      127
282
     0
 72
     0
 77
     0
171
     0
175
     0
179
     0
273
     0
  0
XRECORD
  5
DB6
102
{ACAD_REACTORS
330
DB4
102
}
330
DB4
100
AcDbXrecord
280
     1
270
     1
271
     1
  0
XRECORD
  5
DB5
102
{ACAD_REACTORS
330
DB4
102
}
330
DB4
100
AcDbXrecord
280
     1
270
     1
271
     1
  0
XRECORD
  5
DB9
102
{ACAD_REACTORS
330
DB4
102
}
330
DB4
100
AcDbXrecord
280
     1
270
     1
271
     1
  0
XRECORD
  5
DB8
102
{ACAD_REACTORS
330
DB4
102
}
330
DB4
100
AcDbXrecord
280
     1
270
     1
271
     1
  0
XRECORD
  5
DBA
102
{ACAD_REACTORS
330
DB4
102
}
330
DB4
100
AcDbXrecord
280
     1
270
     1
271
     1
  0
XRECORD
  5
DB7
102
{ACAD_REACTORS
330
DB4
102
}
330
DB4
100
AcDbXrecord
280
     1
270
     1
271
     1
  0
XRECORD
  5
EB7
102
{ACAD_REACTORS
330
DAC
102
}
330
DAC
100
AcDbXrecord
280
     1
102
MATERIAL
148
0.0
149
0.0
149
0.0
 93
        0
 94
      127
282
     0
 72
     0
 77
     0
171
     0
175
     0
179
     0
273
     0
  0
XRECORD
  5
DAE
102
{ACAD_REACTORS
330
DAC
102
}
330
DAC
100
AcDbXrecord
280
     1
270
     1
271
     1
  0
XRECORD
  5
DAD
102
{ACAD_REACTORS
330
DAC
102
}
330
DAC
100
AcDbXrecord
280
     1
270
     1
271
     1
  0
XRECORD
  5
DB1
102
{ACAD_REACTORS
330
DAC
102
}
330
DAC
100
AcDbXrecord
280
     1
270
     1
271
     1
  0
XRECORD
  5
DB0
102
{ACAD_REACTORS
330
DAC
102
}
330
DAC
100
AcDbXrecord
280
     1
270
     1
271
     1
  0
XRECORD
  5
DB2
102
{ACAD_REACTORS
330
DAC
102
}
330
DAC
100
AcDbXrecord
280
     1
270
     1
271
     1
  0
XRECORD
  5
DAF
102
{ACAD_REACTORS
330
DAC
102
}
330
DAC
100
AcDbXrecord
280
     1
270
     1
271
     1
  0
XRECORD
  5
EB9
102
{ACAD_REACTORS
330
DBC
102
}
330
DBC
100
AcDbXrecord
280
     1
102
MATERIAL
148
0.0
149
0.0
149
0.0
 93
        0
 94
      127
282
     0
 72
     0
 77
     0
171
     0
175
     0
179
     0
273
     0
  0
XRECORD
  5
DBE
102
{ACAD_REACTORS
330
DBC
102
}
330
DBC
100
AcDbXrecord
280
     1
270
     1
271
     1
  0
XRECORD
  5
DBD
102
{ACAD_REACTORS
330
DBC
102
}
330
DBC
100
AcDbXrecord
280
     1
270
     1
271
     1
  0
XRECORD
  5
DC1
102
{ACAD_REACTORS
330
DBC
102
}
330
DBC
100
AcDbXrecord
280
     1
270
     1
271
     1
  0
XRECORD
  5
DC0
102
{ACAD_REACTORS
330
DBC
102
}
330
DBC
100
AcDbXrecord
280
     1
270
     1
271
     1
  0
XRECORD
  5
DC2
102
{ACAD_REACTORS
330
DBC
102
}
330
DBC
100
AcDbXrecord
280
     1
270
     1
271
     1
  0
XRECORD
  5
DBF
102
{ACAD_REACTORS
330
DBC
102
}
330
DBC
100
AcDbXrecord
280
     1
270
     1
271
     1
  0
CELLSTYLEMAP
  5
EB2
102
{ACAD_REACTORS
330
EB1
102
}
330
EB1
100
AcDbCellStyleMap
 90
        3
300
CELLSTYLE
  1
TABLEFORMAT_BEGIN
 90
        5
170
     1
 91
        0
 92
    32768
 62
   257
 93
        1
300
CONTENTFORMAT
  1
CONTENTFORMAT_BEGIN
 90
        0
 91
        0
 92
      512
 93
        0
300

 40
0.0
140
1.0
 94
        5
 62
     0
340
F
144
6.0
309
CONTENTFORMAT_END
171
     1
301
MARGIN
  1
CELLMARGIN_BEGIN
 40
1.5
 40
1.5
 40
1.5
 40
1.5
 40
4.5
 40
4.5
309
CELLMARGIN_END
 94
        6
 95
        1
302
GRIDFORMAT
  1
GRIDFORMAT_BEGIN
 90
        0
 91
        1
 62
     0
 92
       -2
340
0
 93
        0
 40
1.125
309
GRIDFORMAT_END
 95
        2
302
GRIDFORMAT
  1
GRIDFORMAT_BEGIN
 90
        0
 91
        1
 62
     0
 92
       -2
340
0
 93
        0
 40
1.125
309
GRIDFORMAT_END
 95
        4
302
GRIDFORMAT
  1
GRIDFORMAT_BEGIN
 90
        0
 91
        1
 62
     0
 92
       -2
340
0
 93
        0
 40
1.125
309
GRIDFORMAT_END
 95
        8
302
GRIDFORMAT
  1
GRIDFORMAT_BEGIN
 90
        0
 91
        1
 62
     0
 92
       -2
340
0
 93
        0
 40
1.125
309
GRIDFORMAT_END
 95
       16
302
GRIDFORMAT
  1
GRIDFORMAT_BEGIN
 90
        0
 91
        1
 62
     0
 92
       -2
340
0
 93
        0
 40
1.125
309
GRIDFORMAT_END
 95
       32
302
GRIDFORMAT
  1
GRIDFORMAT_BEGIN
 90
        0
 91
        1
 62
     0
 92
       -2
340
0
 93
        0
 40
1.125
309
GRIDFORMAT_END
309
TABLEFORMAT_END
  1
CELLSTYLE_BEGIN
 90
        1
 91
        1
300
_TITLE
309
CELLSTYLE_END
300
CELLSTYLE
  1
TABLEFORMAT_BEGIN
 90
        5
170
     1
 91
        0
 92
        0
 62
   257
 93
        1
300
CONTENTFORMAT
  1
CONTENTFORMAT_BEGIN
 90
        0
 91
        0
 92
      512
 93
        0
300

 40
0.0
140
1.0
 94
        5
 62
     0
340
F
144
4.5
309
CONTENTFORMAT_END
171
     1
301
MARGIN
  1
CELLMARGIN_BEGIN
 40
1.5
 40
1.5
 40
1.5
 40
1.5
 40
4.5
 40
4.5
309
CELLMARGIN_END
 94
        6
 95
        1
302
GRIDFORMAT
  1
GRIDFORMAT_BEGIN
 90
        0
 91
        1
 62
     0
 92
       -2
340
0
 93
        0
 40
1.125
309
GRIDFORMAT_END
 95
        2
302
GRIDFORMAT
  1
GRIDFORMAT_BEGIN
 90
        0
 91
        1
 62
     0
 92
       -2
340
0
 93
        0
 40
1.125
309
GRIDFORMAT_END
 95
        4
302
GRIDFORMAT
  1
GRIDFORMAT_BEGIN
 90
        0
 91
        1
 62
     0
 92
       -2
340
0
 93
        0
 40
1.125
309
GRIDFORMAT_END
 95
        8
302
GRIDFORMAT
  1
GRIDFORMAT_BEGIN
 90
        0
 91
        1
 62
     0
 92
       -2
340
0
 93
        0
 40
1.125
309
GRIDFORMAT_END
 95
       16
302
GRIDFORMAT
  1
GRIDFORMAT_BEGIN
 90
        0
 91
        1
 62
     0
 92
       -2
340
0
 93
        0
 40
1.125
309
GRIDFORMAT_END
 95
       32
302
GRIDFORMAT
  1
GRIDFORMAT_BEGIN
 90
        0
 91
        1
 62
     0
 92
       -2
340
0
 93
        0
 40
1.125
309
GRIDFORMAT_END
309
TABLEFORMAT_END
  1
CELLSTYLE_BEGIN
 90
        2
 91
        1
300
_HEADER
309
CELLSTYLE_END
300
CELLSTYLE
  1
TABLEFORMAT_BEGIN
 90
        5
170
     1
 91
        0
 92
        0
 62
   257
 93
        1
300
CONTENTFORMAT
  1
CONTENTFORMAT_BEGIN
 90
        0
 91
        0
 92
      512
 93
        0
300

 40
0.0
140
1.0
 94
        2
 62
     0
340
F
144
4.5
309
CONTENTFORMAT_END
171
     1
301
MARGIN
  1
CELLMARGIN_BEGIN
 40
1.5
 40
1.5
 40
1.5
 40
1.5
 40
4.5
 40
4.5
309
CELLMARGIN_END
 94
        6
 95
        1
302
GRIDFORMAT
  1
GRIDFORMAT_BEGIN
 90
        0
 91
        1
 62
     0
 92
       -2
340
0
 93
        0
 40
1.125
309
GRIDFORMAT_END
 95
        2
302
GRIDFORMAT
  1
GRIDFORMAT_BEGIN
 90
        0
 91
        1
 62
     0
 92
       -2
340
0
 93
        0
 40
1.125
309
GRIDFORMAT_END
 95
        4
302
GRIDFORMAT
  1
GRIDFORMAT_BEGIN
 90
        0
 91
        1
 62
     0
 92
       -2
340
0
 93
        0
 40
1.125
309
GRIDFORMAT_END
 95
        8
302
GRIDFORMAT
  1
GRIDFORMAT_BEGIN
 90
        0
 91
        1
 62
     0
 92
       -2
340
0
 93
        0
 40
1.125
309
GRIDFORMAT_END
 95
       16
302
GRIDFORMAT
  1
GRIDFORMAT_BEGIN
 90
        0
 91
        1
 62
     0
 92
       -2
340
0
 93
        0
 40
1.125
309
GRIDFORMAT_END
 95
       32
302
GRIDFORMAT
  1
GRIDFORMAT_BEGIN
 90
        0
 91
        1
 62
     0
 92
       -2
340
0
 93
        0
 40
1.125
309
GRIDFORMAT_END
309
TABLEFORMAT_END
  1
CELLSTYLE_BEGIN
 90
        3
 91
        2
300
_DATA
309
CELLSTYLE_END
  0
XRECORD
  5
EE0
102
{ACAD_REACTORS
330
EB1
102
}
330
EB1
100
AcDbXrecord
280
     1
102
ACAD_ROUNDTRIP_PRE2007_TABLESTYLE
 90
      512
 91
        0
  1

 92
      512
 93
        0
  2

 94
      512
 95
        0
  3

  0
XRECORD
  5
EC5
102
{ACAD_REACTORS
330
EC4
102
}
330
EC4
100
AcDbXrecord
280
     1
102
RTVSPropertyOp0
 70
     1
102
RTVSPropertyOp1
 70
     1
102
RTVSPropertyOp2
 70
     1
102
RTVSPropertyOp3
 70
     1
102
RTVSPropertyOp4
 70
     1
102
RTVSPropertyOp5
 70
     1
102
RTVSPropertyOp6
 70
     1
102
RTVSPropertyOp7
 70
     1
102
RTVSPropertyOp8
 70
     1
102
RTVSPropertyOp9
 70
     1
102
RTVSPropertyOp10
 70
     1
102
RTVSPropertyOp11
 70
     1
102
RTVSPropertyOp12
 70
     1
102
RTVSPropertyOp13
 70
     1
102
RTVSPropertyOp14
 70
     1
102
RTVSPropertyOp15
 70
     1
102
RTVSPropertyOp16
 70
     1
102
RTVSPropertyOp17
 70
     1
102
RTVSPropertyOp18
 70
     1
102
RTVSPropertyOp19
 70
     1
102
RTVSPropertyOp20
 70
     1
102
RTVSPropertyOp21
 70
     1
102
RTVSPropertyOp22
 70
     1
102
RTVSPropertyOp23
 70
     1
102
RTVSPropertyOp24
 70
     1
102
RTVSPropertyOp25
 70
     1
102
RTVSPropertyOp26
 70
     1
102
RTVSPropertyOp27
 70
     1
  0
XRECORD
  5
EC9
102
{ACAD_REACTORS
330
EC8
102
}
330
EC8
100
AcDbXrecord
280
     1
102
RTVSPropertyOp0
 70
     1
102
RTVSPropertyOp1
 70
     1
102
RTVSPropertyOp2
 70
     1
102
RTVSPropertyOp3
 70
     1
102
RTVSPropertyOp4
 70
     1
102
RTVSPropertyOp5
 70
     1
102
RTVSPropertyOp6
 70
     1
102
RTVSPropertyOp7
 70
     1
102
RTVSPropertyOp8
 70
     1
102
RTVSPropertyOp9
 70
     1
102
RTVSPropertyOp10
 70
     1
102
RTVSPropertyOp11
 70
     1
102
RTVSPropertyOp12
 70
     1
102
RTVSPropertyOp13
 70
     1
102
RTVSPropertyOp14
 70
     1
102
RTVSPropertyOp15
 70
     1
102
RTVSPropertyOp16
 70
     1
102
RTVSPropertyOp17
 70
     1
102
RTVSPropertyOp18
 70
     1
102
RTVSPropertyOp19
 70
     1
102
RTVSPropertyOp20
 70
     1
102
RTVSPropertyOp21
 70
     1
102
RTVSPropertyOp22
 70
     1
102
RTVSPropertyOp23
 70
     1
102
RTVSPropertyOp24
 70
     1
102
RTVSPropertyOp25
 70
     1
102
RTVSPropertyOp26
 70
     1
102
RTVSPropertyOp27
 70
     1
  0
XRECORD
  5
EC7
102
{ACAD_REACTORS
330
EC6
102
}
330
EC6
100
AcDbXrecord
280
     1
102
RTVSPropertyOp0
 70
     1
102
RTVSPropertyOp1
 70
     1
102
RTVSPropertyOp2
 70
     1
102
RTVSPropertyOp3
 70
     1
102
RTVSPropertyOp4
 70
     1
102
RTVSPropertyOp5
 70
     1
102
RTVSPropertyOp6
 70
     1
102
RTVSPropertyOp7
 70
     1
102
RTVSPropertyOp8
 70
     1
102
RTVSPropertyOp9
 70
     1
102
RTVSPropertyOp10
 70
     1
102
RTVSPropertyOp11
 70
     1
102
RTVSPropertyOp12
 70
     1
102
RTVSPropertyOp13
 70
     1
102
RTVSPropertyOp14
 70
     1
102
RTVSPropertyOp15
 70
     1
102
RTVSPropertyOp16
 70
     1
102
RTVSPropertyOp17
 70
     1
102
RTVSPropertyOp18
 70
     1
102
RTVSPropertyOp19
 70
     1
102
RTVSPropertyOp20
 70
     1
102
RTVSPropertyOp21
 70
     1
102
RTVSPropertyOp22
 70
     1
102
RTVSPropertyOp23
 70
     1
102
RTVSPropertyOp24
 70
     1
102
RTVSPropertyOp25
 70
     1
102
RTVSPropertyOp26
 70
     1
102
RTVSPropertyOp27
 70
     1
  0
XRECORD
  5
EC3
102
{ACAD_REACTORS
330
EC2
102
}
330
EC2
100
AcDbXrecord
280
     1
102
RTVSPropertyOp0
 70
     1
102
RTVSPropertyOp1
 70
     1
102
RTVSPropertyOp2
 70
     1
102
RTVSPropertyOp3
 70
     1
102
RTVSPropertyOp4
 70
     1
102
RTVSPropertyOp5
 70
     1
102
RTVSPropertyOp6
 70
     1
102
RTVSPropertyOp7
 70
     1
102
RTVSPropertyOp8
 70
     1
102
RTVSPropertyOp9
 70
     1
102
RTVSPropertyOp10
 70
     1
102
RTVSPropertyOp11
 70
     1
102
RTVSPropertyOp12
 70
     1
102
RTVSPropertyOp13
 70
     1
102
RTVSPropertyOp14
 70
     1
102
RTVSPropertyOp15
 70
     1
102
RTVSPropertyOp16
 70
     1
102
RTVSPropertyOp17
 70
     1
102
RTVSPropertyOp18
 70
     1
102
RTVSPropertyOp19
 70
     1
102
RTVSPropertyOp20
 70
     1
102
RTVSPropertyOp21
 70
     1
102
RTVSPropertyOp22
 70
     1
102
RTVSPropertyOp23
 70
     1
102
RTVSPropertyOp24
 70
     1
102
RTVSPropertyOp25
 70
     1
102
RTVSPropertyOp26
 70
     1
102
RTVSPropertyOp27
 70
     1
  0
XRECORD
  5
ED1
102
{ACAD_REACTORS
330
ED0
102
}
330
ED0
100
AcDbXrecord
280
     1
102
RTVSPropertyOp0
 70
     1
102
RTVSPropertyOp1
 70
     1
102
RTVSPropertyOp2
 70
     1
102
RTVSPropertyOp3
 70
     1
102
RTVSPropertyOp4
 70
     1
102
RTVSPropertyOp5
 70
     1
102
RTVSPropertyOp6
 70
     1
102
RTVSPropertyOp7
 70
     1
102
RTVSPropertyOp8
 70
     1
102
RTVSPropertyOp9
 70
     1
102
RTVSPropertyOp10
 70
     1
102
RTVSPropertyOp11
 70
     1
102
RTVSPropertyOp12
 70
     1
102
RTVSPropertyOp13
 70
     1
102
RTVSPropertyOp14
 70
     1
102
RTVSPropertyOp15
 70
     1
102
RTVSPropertyOp16
 70
     1
102
RTVSPropertyOp17
 70
     1
102
RTVSPropertyOp18
 70
     1
102
RTVSPropertyOp19
 70
     1
102
RTVSPropertyOp20
 70
     1
102
RTVSPropertyOp21
 70
     1
102
RTVSPropertyOp22
 70
     1
102
RTVSPropertyOp23
 70
     1
102
RTVSPropertyOp24
 70
     1
102
RTVSPropertyOp25
 70
     1
102
RTVSPropertyOp26
 70
     1
102
RTVSPropertyOp27
 70
     1
  0
XRECORD
  5
ED9
102
{ACAD_REACTORS
330
ED8
102
}
330
ED8
100
AcDbXrecord
280
     1
102
RTVSPropertyOp0
 70
     1
102
RTVSPropertyOp1
 70
     1
102
RTVSPropertyOp2
 70
     1
102
RTVSPropertyOp3
 70
     1
102
RTVSPropertyOp4
 70
     1
102
RTVSPropertyOp5
 70
     1
102
RTVSPropertyOp6
 70
     1
102
RTVSPropertyOp7
 70
     1
102
RTVSPropertyOp8
 70
     1
102
RTVSPropertyOp9
 70
     1
102
RTVSPropertyOp10
 70
     1
102
RTVSPropertyOp11
 70
     1
102
RTVSPropertyOp12
 70
     1
102
RTVSPropertyOp13
 70
     1
102
RTVSPropertyOp14
 70
     1
102
RTVSPropertyOp15
 70
     1
102
RTVSPropertyOp16
 70
     1
102
RTVSPropertyOp17
 70
     1
102
RTVSPropertyOp18
 70
     1
102
RTVSPropertyOp19
 70
     1
102
RTVSPropertyOp20
 70
     1
102
RTVSPropertyOp21
 70
     1
102
RTVSPropertyOp22
 70
     1
102
RTVSPropertyOp23
 70
     1
102
RTVSPropertyOp24
 70
     1
102
RTVSPropertyOp25
 70
     1
102
RTVSPropertyOp26
 70
     1
102
RTVSPropertyOp27
 70
     1
  0
XRECORD
  5
ECB
102
{ACAD_REACTORS
330
ECA
102
}
330
ECA
100
AcDbXrecord
280
     1
102
RTVSPropertyOp0
 70
     1
102
RTVSPropertyOp1
 70
     1
102
RTVSPropertyOp2
 70
     1
102
RTVSPropertyOp3
 70
     1
102
RTVSPropertyOp4
 70
     1
102
RTVSPropertyOp5
 70
     1
102
RTVSPropertyOp6
 70
     1
102
RTVSPropertyOp7
 70
     1
102
RTVSPropertyOp8
 70
     1
102
RTVSPropertyOp9
 70
     1
102
RTVSPropertyOp10
 70
     1
102
RTVSPropertyOp11
 70
     1
102
RTVSPropertyOp12
 70
     1
102
RTVSPropertyOp13
 70
     1
102
RTVSPropertyOp14
 70
     1
102
RTVSPropertyOp15
 70
     1
102
RTVSPropertyOp16
 70
     1
102
RTVSPropertyOp17
 70
     1
102
RTVSPropertyOp18
 70
     1
102
RTVSPropertyOp19
 70
     1
102
RTVSPropertyOp20
 70
     1
102
RTVSPropertyOp21
 70
     1
102
RTVSPropertyOp22
 70
     1
102
RTVSPropertyOp23
 70
     1
102
RTVSPropertyOp24
 70
     1
102
RTVSPropertyOp25
 70
     1
102
RTVSPropertyOp26
 70
     1
102
RTVSPropertyOp27
 70
     1
  0
XRECORD
  5
ECF
102
{ACAD_REACTORS
330
ECE
102
}
330
ECE
100
AcDbXrecord
280
     1
102
RTVSPropertyOp0
 70
     1
102
RTVSPropertyOp1
 70
     1
102
RTVSPropertyOp2
 70
     1
102
RTVSPropertyOp3
 70
     1
102
RTVSPropertyOp4
 70
     1
102
RTVSPropertyOp5
 70
     1
102
RTVSPropertyOp6
 70
     1
102
RTVSPropertyOp7
 70
     1
102
RTVSPropertyOp8
 70
     1
102
RTVSPropertyOp9
 70
     1
102
RTVSPropertyOp10
 70
     1
102
RTVSPropertyOp11
 70
     1
102
RTVSPropertyOp12
 70
     1
102
RTVSPropertyOp13
 70
     1
102
RTVSPropertyOp14
 70
     1
102
RTVSPropertyOp15
 70
     1
102
RTVSPropertyOp16
 70
     1
102
RTVSPropertyOp17
 70
     1
102
RTVSPropertyOp18
 70
     1
102
RTVSPropertyOp19
 70
     1
102
RTVSPropertyOp20
 70
     1
102
RTVSPropertyOp21
 70
     1
102
RTVSPropertyOp22
 70
     1
102
RTVSPropertyOp23
 70
     1
102
RTVSPropertyOp24
 70
     1
102
RTVSPropertyOp25
 70
     1
102
RTVSPropertyOp26
 70
     1
102
RTVSPropertyOp27
 70
     1
  0
XRECORD
  5
EDF
102
{ACAD_REACTORS
330
EDE
102
}
330
EDE
100
AcDbXrecord
280
     1
102
RTVSPropertyOp0
 70
     0
102
RTVSPropertyOp1
 70
     0
102
RTVSPropertyOp2
 70
     0
102
RTVSPropertyOp3
 70
     0
102
RTVSPropertyOp4
 70
     0
102
RTVSPropertyOp5
 70
     0
102
RTVSPropertyOp6
 70
     0
102
RTVSPropertyOp7
 70
     0
102
RTVSPropertyOp8
 70
     0
102
RTVSPropertyOp9
 70
     0
102
RTVSPropertyOp10
 70
     0
102
RTVSPropertyOp11
 70
     0
102
RTVSPropertyOp12
 70
     0
102
RTVSPropertyOp13
 70
     0
102
RTVSPropertyOp14
 70
     2
102
RTVSPropertyOp15
 70
     0
102
RTVSPropertyOp16
 70
     0
102
RTVSPropertyOp17
 70
     0
102
RTVSPropertyOp18
 70
     0
102
RTVSPropertyOp19
 70
     0
102
RTVSPropertyOp20
 70
     0
102
RTVSPropertyOp21
 70
     0
102
RTVSPropertyOp22
 70
     0
102
RTVSPropertyOp23
 70
     0
102
RTVSPropertyOp24
 70
     0
102
RTVSPropertyOp25
 70
     0
102
RTVSPropertyOp26
 70
     0
102
RTVSPropertyOp27
 70
     0
  0
XRECORD
  5
ED7
102
{ACAD_REACTORS
330
ED6
102
}
330
ED6
100
AcDbXrecord
280
     1
102
RTVSPropertyOp0
 70
     1
102
RTVSPropertyOp1
 70
     1
102
RTVSPropertyOp2
 70
     1
102
RTVSPropertyOp3
 70
     1
102
RTVSPropertyOp4
 70
     1
102
RTVSPropertyOp5
 70
     1
102
RTVSPropertyOp6
 70
     1
102
RTVSPropertyOp7
 70
     1
102
RTVSPropertyOp8
 70
     1
102
RTVSPropertyOp9
 70
     1
102
RTVSPropertyOp10
 70
     1
102
RTVSPropertyOp11
 70
     1
102
RTVSPropertyOp12
 70
     1
102
RTVSPropertyOp13
 70
     1
102
RTVSPropertyOp14
 70
     1
102
RTVSPropertyOp15
 70
     1
102
RTVSPropertyOp16
 70
     1
102
RTVSPropertyOp17
 70
     1
102
RTVSPropertyOp18
 70
     1
102
RTVSPropertyOp19
 70
     1
102
RTVSPropertyOp20
 70
     1
102
RTVSPropertyOp21
 70
     1
102
RTVSPropertyOp22
 70
     1
102
RTVSPropertyOp23
 70
     1
102
RTVSPropertyOp24
 70
     1
102
RTVSPropertyOp25
 70
     1
102
RTVSPropertyOp26
 70
     1
102
RTVSPropertyOp27
 70
     1
  0
XRECORD
  5
EBB
102
{ACAD_REACTORS
330
EBA
102
}
330
EBA
100
AcDbXrecord
280
     1
102
RTVSPropertyOp0
 70
     1
102
RTVSPropertyOp1
 70
     1
102
RTVSPropertyOp2
 70
     1
102
RTVSPropertyOp3
 70
     1
102
RTVSPropertyOp4
 70
     1
102
RTVSPropertyOp5
 70
     1
102
RTVSPropertyOp6
 70
     1
102
RTVSPropertyOp7
 70
     1
102
RTVSPropertyOp8
 70
     1
102
RTVSPropertyOp9
 70
     1
102
RTVSPropertyOp10
 70
     1
102
RTVSPropertyOp11
 70
     1
102
RTVSPropertyOp12
 70
     1
102
RTVSPropertyOp13
 70
     1
102
RTVSPropertyOp14
 70
     1
102
RTVSPropertyOp15
 70
     1
102
RTVSPropertyOp16
 70
     1
102
RTVSPropertyOp17
 70
     1
102
RTVSPropertyOp18
 70
     1
102
RTVSPropertyOp19
 70
     1
102
RTVSPropertyOp20
 70
     1
102
RTVSPropertyOp21
 70
     1
102
RTVSPropertyOp22
 70
     1
102
RTVSPropertyOp23
 70
     1
102
RTVSPropertyOp24
 70
     1
102
RTVSPropertyOp25
 70
     1
102
RTVSPropertyOp26
 70
     1
102
RTVSPropertyOp27
 70
     1
  0
XRECORD
  5
EBD
102
{ACAD_REACTORS
330
EBC
102
}
330
EBC
100
AcDbXrecord
280
     1
102
RTVSPropertyOp0
 70
     1
102
RTVSPropertyOp1
 70
     1
102
RTVSPropertyOp2
 70
     1
102
RTVSPropertyOp3
 70
     1
102
RTVSPropertyOp4
 70
     1
102
RTVSPropertyOp5
 70
     1
102
RTVSPropertyOp6
 70
     1
102
RTVSPropertyOp7
 70
     1
102
RTVSPropertyOp8
 70
     1
102
RTVSPropertyOp9
 70
     1
102
RTVSPropertyOp10
 70
     1
102
RTVSPropertyOp11
 70
     1
102
RTVSPropertyOp12
 70
     1
102
RTVSPropertyOp13
 70
     1
102
RTVSPropertyOp14
 70
     1
102
RTVSPropertyOp15
 70
     1
102
RTVSPropertyOp16
 70
     1
102
RTVSPropertyOp17
 70
     1
102
RTVSPropertyOp18
 70
     1
102
RTVSPropertyOp19
 70
     1
102
RTVSPropertyOp20
 70
     1
102
RTVSPropertyOp21
 70
     1
102
RTVSPropertyOp22
 70
     1
102
RTVSPropertyOp23
 70
     1
102
RTVSPropertyOp24
 70
     1
102
RTVSPropertyOp25
 70
     1
102
RTVSPropertyOp26
 70
     1
102
RTVSPropertyOp27
 70
     1
  0
XRECORD
  5
EBF
102
{ACAD_REACTORS
330
EBE
102
}
330
EBE
100
AcDbXrecord
280
     1
102
RTVSPropertyOp0
 70
     1
102
RTVSPropertyOp1
 70
     1
102
RTVSPropertyOp2
 70
     1
102
RTVSPropertyOp3
 70
     1
102
RTVSPropertyOp4
 70
     1
102
RTVSPropertyOp5
 70
     1
102
RTVSPropertyOp6
 70
     1
102
RTVSPropertyOp7
 70
     1
102
RTVSPropertyOp8
 70
     1
102
RTVSPropertyOp9
 70
     1
102
RTVSPropertyOp10
 70
     1
102
RTVSPropertyOp11
 70
     1
102
RTVSPropertyOp12
 70
     1
102
RTVSPropertyOp13
 70
     1
102
RTVSPropertyOp14
 70
     1
102
RTVSPropertyOp15
 70
     1
102
RTVSPropertyOp16
 70
     1
102
RTVSPropertyOp17
 70
     1
102
RTVSPropertyOp18
 70
     1
102
RTVSPropertyOp19
 70
     1
102
RTVSPropertyOp20
 70
     1
102
RTVSPropertyOp21
 70
     1
102
RTVSPropertyOp22
 70
     1
102
RTVSPropertyOp23
 70
     1
102
RTVSPropertyOp24
 70
     1
102
RTVSPropertyOp25
 70
     1
102
RTVSPropertyOp26
 70
     1
102
RTVSPropertyOp27
 70
     1
  0
XRECORD
  5
EC1
102
{ACAD_REACTORS
330
EC0
102
}
330
EC0
100
AcDbXrecord
280
     1
102
RTVSPropertyOp0
 70
     1
102
RTVSPropertyOp1
 70
     1
102
RTVSPropertyOp2
 70
     1
102
RTVSPropertyOp3
 70
     1
102
RTVSPropertyOp4
 70
     1
102
RTVSPropertyOp5
 70
     1
102
RTVSPropertyOp6
 70
     1
102
RTVSPropertyOp7
 70
     1
102
RTVSPropertyOp8
 70
     1
102
RTVSPropertyOp9
 70
     1
102
RTVSPropertyOp10
 70
     1
102
RTVSPropertyOp11
 70
     1
102
RTVSPropertyOp12
 70
     1
102
RTVSPropertyOp13
 70
     1
102
RTVSPropertyOp14
 70
     1
102
RTVSPropertyOp15
 70
     1
102
RTVSPropertyOp16
 70
     1
102
RTVSPropertyOp17
 70
     1
102
RTVSPropertyOp18
 70
     1
102
RTVSPropertyOp19
 70
     1
102
RTVSPropertyOp20
 70
     1
102
RTVSPropertyOp21
 70
     1
102
RTVSPropertyOp22
 70
     1
102
RTVSPropertyOp23
 70
     1
102
RTVSPropertyOp24
 70
     1
102
RTVSPropertyOp25
 70
     1
102
RTVSPropertyOp26
 70
     1
102
RTVSPropertyOp27
 70
     1
  0
XRECORD
  5
EDB
102
{ACAD_REACTORS
330
EDA
102
}
330
EDA
100
AcDbXrecord
280
     1
102
RTVSPropertyOp0
 70
     0
102
RTVSPropertyOp1
 70
     0
102
RTVSPropertyOp2
 70
     0
102
RTVSPropertyOp3
 70
     0
102
RTVSPropertyOp4
 70
     0
102
RTVSPropertyOp5
 70
     0
102
RTVSPropertyOp6
 70
     0
102
RTVSPropertyOp7
 70
     0
102
RTVSPropertyOp8
 70
     0
102
RTVSPropertyOp9
 70
     0
102
RTVSPropertyOp10
 70
     0
102
RTVSPropertyOp11
 70
     0
102
RTVSPropertyOp12
 70
     0
102
RTVSPropertyOp13
 70
     0
102
RTVSPropertyOp14
 70
     2
102
RTVSPropertyOp15
 70
     0
102
RTVSPropertyOp16
 70
     0
102
RTVSPropertyOp17
 70
     0
102
RTVSPropertyOp18
 70
     0
102
RTVSPropertyOp19
 70
     0
102
RTVSPropertyOp20
 70
     0
102
RTVSPropertyOp21
 70
     0
102
RTVSPropertyOp22
 70
     0
102
RTVSPropertyOp23
 70
     0
102
RTVSPropertyOp24
 70
     0
102
RTVSPropertyOp25
 70
     0
102
RTVSPropertyOp26
 70
     0
102
RTVSPropertyOp27
 70
     0
  0
XRECORD
  5
ED5
102
{ACAD_REACTORS
330
ED4
102
}
330
ED4
100
AcDbXrecord
280
     1
102
RTVSPropertyOp0
 70
     1
102
RTVSPropertyOp1
 70
     1
102
RTVSPropertyOp2
 70
     1
102
RTVSPropertyOp3
 70
     1
102
RTVSPropertyOp4
 70
     1
102
RTVSPropertyOp5
 70
     1
102
RTVSPropertyOp6
 70
     1
102
RTVSPropertyOp7
 70
     1
102
RTVSPropertyOp8
 70
     1
102
RTVSPropertyOp9
 70
     1
102
RTVSPropertyOp10
 70
     1
102
RTVSPropertyOp11
 70
     1
102
RTVSPropertyOp12
 70
     1
102
RTVSPropertyOp13
 70
     1
102
RTVSPropertyOp14
 70
     1
102
RTVSPropertyOp15
 70
     1
102
RTVSPropertyOp16
 70
     1
102
RTVSPropertyOp17
 70
     1
102
RTVSPropertyOp18
 70
     1
102
RTVSPropertyOp19
 70
     1
102
RTVSPropertyOp20
 70
     1
102
RTVSPropertyOp21
 70
     1
102
RTVSPropertyOp22
 70
     1
102
RTVSPropertyOp23
 70
     1
102
RTVSPropertyOp24
 70
     1
102
RTVSPropertyOp25
 70
     1
102
RTVSPropertyOp26
 70
     1
102
RTVSPropertyOp27
 70
     1
  0
XRECORD
  5
EDD
102
{ACAD_REACTORS
330
EDC
102
}
330
EDC
100
AcDbXrecord
280
     1
102
RTVSPropertyOp0
 70
     0
102
RTVSPropertyOp1
 70
     0
102
RTVSPropertyOp2
 70
     0
102
RTVSPropertyOp3
 70
     0
102
RTVSPropertyOp4
 70
     0
102
RTVSPropertyOp5
 70
     0
102
RTVSPropertyOp6
 70
     0
102
RTVSPropertyOp7
 70
     0
102
RTVSPropertyOp8
 70
     0
102
RTVSPropertyOp9
 70
     0
102
RTVSPropertyOp10
 70
     0
102
RTVSPropertyOp11
 70
     0
102
RTVSPropertyOp12
 70
     0
102
RTVSPropertyOp13
 70
     0
102
RTVSPropertyOp14
 70
     2
102
RTVSPropertyOp15
 70
     0
102
RTVSPropertyOp16
 70
     0
102
RTVSPropertyOp17
 70
     0
102
RTVSPropertyOp18
 70
     0
102
RTVSPropertyOp19
 70
     0
102
RTVSPropertyOp20
 70
     0
102
RTVSPropertyOp21
 70
     0
102
RTVSPropertyOp22
 70
     0
102
RTVSPropertyOp23
 70
     0
102
RTVSPropertyOp24
 70
     0
102
RTVSPropertyOp25
 70
     0
102
RTVSPropertyOp26
 70
     0
102
RTVSPropertyOp27
 70
     0
  0
XRECORD
  5
ECD
102
{ACAD_REACTORS
330
ECC
102
}
330
ECC
100
AcDbXrecord
280
     1
102
RTVSPropertyOp0
 70
     1
102
RTVSPropertyOp1
 70
     1
102
RTVSPropertyOp2
 70
     1
102
RTVSPropertyOp3
 70
     1
102
RTVSPropertyOp4
 70
     1
102
RTVSPropertyOp5
 70
     1
102
RTVSPropertyOp6
 70
     1
102
RTVSPropertyOp7
 70
     1
102
RTVSPropertyOp8
 70
     1
102
RTVSPropertyOp9
 70
     1
102
RTVSPropertyOp10
 70
     1
102
RTVSPropertyOp11
 70
     1
102
RTVSPropertyOp12
 70
     1
102
RTVSPropertyOp13
 70
     1
102
RTVSPropertyOp14
 70
     1
102
RTVSPropertyOp15
 70
     1
102
RTVSPropertyOp16
 70
     1
102
RTVSPropertyOp17
 70
     1
102
RTVSPropertyOp18
 70
     1
102
RTVSPropertyOp19
 70
     1
102
RTVSPropertyOp20
 70
     1
102
RTVSPropertyOp21
 70
     1
102
RTVSPropertyOp22
 70
     1
102
RTVSPropertyOp23
 70
     1
102
RTVSPropertyOp24
 70
     1
102
RTVSPropertyOp25
 70
     1
102
RTVSPropertyOp26
 70
     1
102
RTVSPropertyOp27
 70
     1
  0
XRECORD
  5
ED3
102
{ACAD_REACTORS
330
ED2
102
}
330
ED2
100
AcDbXrecord
280
     1
102
RTVSPropertyOp0
 70
     1
102
RTVSPropertyOp1
 70
     1
102
RTVSPropertyOp2
 70
     1
102
RTVSPropertyOp3
 70
     1
102
RTVSPropertyOp4
 70
     1
102
RTVSPropertyOp5
 70
     1
102
RTVSPropertyOp6
 70
     1
102
RTVSPropertyOp7
 70
     1
102
RTVSPropertyOp8
 70
     1
102
RTVSPropertyOp9
 70
     1
102
RTVSPropertyOp10
 70
     1
102
RTVSPropertyOp11
 70
     1
102
RTVSPropertyOp12
 70
     1
102
RTVSPropertyOp13
 70
     1
102
RTVSPropertyOp14
 70
     1
102
RTVSPropertyOp15
 70
     1
102
RTVSPropertyOp16
 70
     1
102
RTVSPropertyOp17
 70
     1
102
RTVSPropertyOp18
 70
     1
102
RTVSPropertyOp19
 70
     1
102
RTVSPropertyOp20
 70
     1
102
RTVSPropertyOp21
 70
     1
102
RTVSPropertyOp22
 70
     1
102
RTVSPropertyOp23
 70
     1
102
RTVSPropertyOp24
 70
     1
102
RTVSPropertyOp25
 70
     1
102
RTVSPropertyOp26
 70
     1
102
RTVSPropertyOp27
 70
     1
  0
DICTIONARY
  5
E68
102
{ACAD_REACTORS
330
E67
102
}
330
E67
100
AcDbDictionary
280
     1
281
     1
  3
PH_GRPMEMBERS
360
E69
  0
PH_GROUP
  5
E6A
102
{ACAD_REACTORS
330
E67
102
}
330
E67
  0
PH_GROUP
  5
E69
102
{ACAD_REACTORS
330
E68
102
}
330
E68
  0
ENDSEC
  0
EOF
