  0
SECTION
  2
HEADER
  9
$ACADVER
  1
AC1015
  9
$ACADMAINTVER
 70
    20
  9
$DWGCODEPAGE
  3
ANSI_1252
  9
$INSBASE
 10
0.0
 20
0.0
 30
0.0
  9
$EXTMIN
 10
-0.0250966949211033
 20
-0.0151043071313097
 30
-0.0000000349181948
  9
$EXTMAX
 10
418.0256144232835
 20
295.0147025573799
 30
0.0000000814935746
  9
$LIMMIN
 10
0.0
 20
0.0
  9
$LIMMAX
 10
420.0
 20
297.0
  9
$ORTHOMODE
 70
     1
  9
$REGENMODE
 70
     1
  9
$FILLMODE
 70
     1
  9
$QTEXTMODE
 70
     0
  9
$MIRRTEXT
 70
     1
  9
$LTSCALE
 40
1.0
  9
$ATTMODE
 70
     1
  9
$TEXTSIZE
 40
2.5
  9
$TRACEWID
 40
1.0
  9
$TEXTSTYLE
  7
STANDARD
  9
$CLAYER
  8
0
  9
$CELTYPE
  6
ACAD_ISO02W100
  9
$CECOLOR
 62
     5
  9
$CELTSCALE
 40
1.0
  9
$DISPSILH
 70
     0
  9
$DIMSCALE
 40
1.0
  9
$DIMASZ
 40
2.5
  9
$DIMEXO
 40
0.625
  9
$DIMDLI
 40
3.75
  9
$DIMRND
 40
0.0
  9
$DIMDLE
 40
0.0
  9
$DIMEXE
 40
1.25
  9
$DIMTP
 40
0.0
  9
$DIMTM
 40
0.0
  9
$DIMTXT
 40
2.5
  9
$DIMCEN
 40
2.5
  9
$DIMTSZ
 40
0.0
  9
$DIMTOL
 70
     0
  9
$DIMLIM
 70
     0
  9
$DIMTIH
 70
     0
  9
$DIMTOH
 70
     0
  9
$DIMSE1
 70
     0
  9
$DIMSE2
 70
     0
  9
$DIMTAD
 70
     1
  9
$DIMZIN
 70
     0
  9
$DIMBLK
  1

  9
$DIMASO
 70
     1
  9
$DIMSHO
 70
     1
  9
$DIMPOST
  1

  9
$DIMAPOST
  1

  9
$DIMALT
 70
     0
  9
$DIMALTD
 70
     4
  9
$DIMALTF
 40
0.0394
  9
$DIMLFAC
 40
1.0
  9
$DIMTOFL
 70
     1
  9
$DIMTVP
 40
0.0
  9
$DIMTIX
 70
     0
  9
$DIMSOXD
 70
     0
  9
$DIMSAH
 70
     0
  9
$DIMBLK1
  1

  9
$DIMBLK2
  1

  9
$DIMSTYLE
  2
STANDARD
  9
$DIMCLRD
 70
     0
  9
$DIMCLRE
 70
     0
  9
$DIMCLRT
 70
     0
  9
$DIMTFAC
 40
1.0
  9
$DIMGAP
 40
0.625
  9
$DIMJUST
 70
     0
  9
$DIMSD1
 70
     0
  9
$DIMSD2
 70
     0
  9
$DIMTOLJ
 70
     1
  9
$DIMTZIN
 70
     0
  9
$DIMALTZ
 70
     0
  9
$DIMALTTZ
 70
     0
  9
$DIMUPT
 70
     0
  9
$DIMDEC
 70
     4
  9
$DIMTDEC
 70
     4
  9
$DIMALTU
 70
     8
  9
$DIMALTTD
 70
     4
  9
$DIMTXSTY
  7
STANDARD
  9
$DIMAUNIT
 70
     0
  9
$DIMADEC
 70
     0
  9
$DIMALTRND
 40
0.0
  9
$DIMAZIN
 70
     0
  9
$DIMDSEP
 70
    46
  9
$DIMATFIT
 70
     3
  9
$DIMFRAC
 70
     0
  9
$DIMLDRBLK
  1

  9
$DIMLUNIT
 70
     6
  9
$DIMLWD
 70
    -2
  9
$DIMLWE
 70
    -2
  9
$DIMTMOVE
 70
     0
  9
$LUNITS
 70
     2
  9
$LUPREC
 70
     4
  9
$SKETCHINC
 40
1.0
  9
$FILLETRAD
 40
10.0
  9
$AUNITS
 70
     0
  9
$AUPREC
 70
     0
  9
$MENU
  1
.
  9
$ELEVATION
 40
0.0
  9
$PELEVATION
 40
0.0
  9
$THICKNESS
 40
0.0
  9
$LIMCHECK
 70
     0
  9
$CHAMFERA
 40
10.0
  9
$CHAMFERB
 40
10.0
  9
$CHAMFERC
 40
20.0
  9
$CHAMFERD
 40
0.0
  9
$SKPOLY
 70
     0
  9
$TDCREATE
 40
2451107.667011180
  9
$TDUCREATE
 40
2451107.625344514
  9
$TDUPDATE
 40
2457045.613996227
  9
$TDUUPDATE
 40
2457045.572329561
  9
$TDINDWG
 40
0.0362823380
  9
$TDUSRTIMER
 40
0.0362823380
  9
$USRTIMER
 70
     1
  9
$ANGBASE
 50
0.0
  9
$ANGDIR
 70
     0
  9
$PDMODE
 70
    35
  9
$PDSIZE
 40
-2.0
  9
$PLINEWID
 40
0.0
  9
$SPLFRAME
 70
     0
  9
$SPLINETYPE
 70
     6
  9
$SPLINESEGS
 70
     8
  9
$HANDSEED
  5
19E0
  9
$SURFTAB1
 70
     6
  9
$SURFTAB2
 70
     6
  9
$SURFTYPE
 70
     6
  9
$SURFU
 70
     6
  9
$SURFV
 70
     6
  9
$UCSBASE
  2

  9
$UCSNAME
  2

  9
$UCSORG
 10
0.0
 20
0.0
 30
0.0
  9
$UCSXDIR
 10
1.0
 20
0.0
 30
0.0
  9
$UCSYDIR
 10
0.0
 20
1.0
 30
0.0
  9
$UCSORTHOREF
  2

  9
$UCSORTHOVIEW
 70
     0
  9
$UCSORGTOP
 10
0.0
 20
0.0
 30
0.0
  9
$UCSORGBOTTOM
 10
0.0
 20
0.0
 30
0.0
  9
$UCSORGLEFT
 10
0.0
 20
0.0
 30
0.0
  9
$UCSORGRIGHT
 10
0.0
 20
0.0
 30
0.0
  9
$UCSORGFRONT
 10
0.0
 20
0.0
 30
0.0
  9
$UCSORGBACK
 10
0.0
 20
0.0
 30
0.0
  9
$PUCSBASE
  2

  9
$PUCSNAME
  2

  9
$PUCSORG
 10
0.0
 20
0.0
 30
0.0
  9
$PUCSXDIR
 10
1.0
 20
0.0
 30
0.0
  9
$PUCSYDIR
 10
0.0
 20
1.0
 30
0.0
  9
$PUCSORTHOREF
  2

  9
$PUCSORTHOVIEW
 70
     0
  9
$PUCSORGTOP
 10
0.0
 20
0.0
 30
0.0
  9
$PUCSORGBOTTOM
 10
0.0
 20
0.0
 30
0.0
  9
$PUCSORGLEFT
 10
0.0
 20
0.0
 30
0.0
  9
$PUCSORGRIGHT
 10
0.0
 20
0.0
 30
0.0
  9
$PUCSORGFRONT
 10
0.0
 20
0.0
 30
0.0
  9
$PUCSORGBACK
 10
0.0
 20
0.0
 30
0.0
  9
$USERI1
 70
     0
  9
$USERI2
 70
     0
  9
$USERI3
 70
     0
  9
$USERI4
 70
     0
  9
$USERI5
 70
     0
  9
$USERR1
 40
0.0
  9
$USERR2
 40
0.0
  9
$USERR3
 40
0.0
  9
$USERR4
 40
0.0
  9
$USERR5
 40
0.0
  9
$WORLDVIEW
 70
     1
  9
$SHADEDGE
 70
     3
  9
$SHADEDIF
 70
    70
  9
$TILEMODE
 70
     1
  9
$MAXACTVP
 70
    48
  9
$PINSBASE
 10
0.0
 20
0.0
 30
0.0
  9
$PLIMCHECK
 70
     0
  9
$PEXTMIN
 10
1.000000000000000E+20
 20
1.000000000000000E+20
 30
1.000000000000000E+20
  9
$PEXTMAX
 10
-1.000000000000000E+20
 20
-1.000000000000000E+20
 30
-1.000000000000000E+20
  9
$PLIMMIN
 10
0.0
 20
0.0
  9
$PLIMMAX
 10
420.0
 20
297.0
  9
$UNITMODE
 70
     0
  9
$VISRETAIN
 70
     1
  9
$PLINEGEN
 70
     0
  9
$PSLTSCALE
 70
     1
  9
$TREEDEPTH
 70
  3020
  9
$CMLSTYLE
  2
STANDARD
  9
$CMLJUST
 70
     0
  9
$CMLSCALE
 40
20.0
  9
$PROXYGRAPHICS
 70
     1
  9
$MEASUREMENT
 70
     1
  9
$CELWEIGHT
370
    -1
  9
$ENDCAPS
280
     0
  9
$JOINSTYLE
280
     0
  9
$LWDISPLAY
290
     0
  9
$INSUNITS
 70
     0
  9
$HYPERLINKBASE
  1

  9
$STYLESHEET
  1
HP_SW.ctb
  9
$XEDIT
290
     1
  9
$CEPSNTYPE
380
     0
  9
$PSTYLEMODE
290
     1
  9
$FINGERPRINTGUID
  2
{B69C7F8A-3939-11D5-B972-00105A69CB77}
  9
$VERSIONGUID
  2
{EE22E806-1D56-46EC-8F08-231F2808C2BE}
  9
$EXTNAMES
290
     1
  9
$PSVPSCALE
 40
0.0
  9
$OLESTARTUP
290
     0
  0
ENDSEC
  0
SECTION
  2
CLASSES
  0
CLASS
  1
PH_VARS
  2
PhoenixVars
  3
PHOENIX7010
 90
        0
280
     0
281
     0
  0
CLASS
  1
PH_GROUP
  2
PhGroup
  3
PHOENIX7010
 90
        0
280
     0
281
     0
  0
CLASS
  1
ACDBDICTIONARYWDFLT
  2
AcDbDictionaryWithDefault
  3
ObjectDBX Classes
 90
        0
280
     0
281
     0
  0
CLASS
  1
ACDBPLACEHOLDER
  2
AcDbPlaceHolder
  3
ObjectDBX Classes
 90
        0
280
     0
281
     0
  0
CLASS
  1
LAYOUT
  2
AcDbLayout
  3
ObjectDBX Classes
 90
        0
280
     0
281
     0
  0
CLASS
  1
MATERIAL
  2
AcDbMaterial
  3
ObjectDBX Classes
 90
     1153
280
     0
281
     0
  0
CLASS
  1
VISUALSTYLE
  2
AcDbVisualStyle
  3
ObjectDBX Classes
 90
     4095
280
     0
281
     0
  0
CLASS
  1
TABLESTYLE
  2
AcDbTableStyle
  3
ObjectDBX Classes
 90
     4095
280
     0
281
     0
  0
CLASS
  1
SCALE
  2
AcDbScale
  3
ObjectDBX Classes
 90
     1153
280
     0
281
     0
  0
CLASS
  1
MLEADERSTYLE
  2
AcDbMLeaderStyle
  3
ACDB_MLEADERSTYLE_CLASS
 90
     4095
280
     0
281
     0
  0
CLASS
  1
PH_ENTDIMREACTOR
  2
EntDimReactor
  3
PHOENIX7010
 90
        0
280
     0
281
     0
  0
CLASS
  1
DICTIONARYVAR
  2
AcDbDictionaryVar
  3
ObjectDBX Classes
 90
        0
280
     0
281
     0
  0
CLASS
  1
CELLSTYLEMAP
  2
AcDbCellStyleMap
  3
ObjectDBX Classes
 90
     1152
280
     0
281
     0
  0
ENDSEC
  0
SECTION
  2
TABLES
  0
TABLE
  2
VPORT
  5
8
330
0
100
AcDbSymbolTable
 70
     1
  0
VPORT
  5
1853
330
8
100
AcDbSymbolTableRecord
100
AcDbViewportTableRecord
  2
*Active
 70
     0
 10
0.0
 20
0.0
 11
1.0
 21
1.0
 12
209.0002588641812
 22
147.4997991251242
 13
0.0
 23
0.0
 14
10.0
 24
10.0
 15
10.0
 25
10.0
 16
0.0
 26
0.0
 36
1.0
 17
0.0
 27
0.0
 37
0.0
 40
297.1382402213344
 41
1.906175771971496
 42
50.0
 43
0.0
 44
0.0
 50
0.0
 51
0.0
 71
     0
 72
   100
 73
     1
 74
     0
 75
     0
 76
     0
 77
     0
 78
     0
281
     0
 65
     1
110
0.0
120
0.0
130
0.0
111
1.0
121
0.0
131
0.0
112
0.0
122
1.0
132
0.0
 79
     0
146
0.0
  0
ENDTAB
  0
TABLE
  2
LTYPE
  5
5
330
0
100
AcDbSymbolTable
 70
     3
  0
LTYPE
  5
12
330
5
100
AcDbSymbolTableRecord
100
AcDbLinetypeTableRecord
  2
BYBLOCK
 70
     0
  3

 72
    65
 73
     0
 40
0.0
  0
LTYPE
  5
13
330
5
100
AcDbSymbolTableRecord
100
AcDbLinetypeTableRecord
  2
BYLAYER
 70
     0
  3

 72
    65
 73
     0
 40
0.0
  0
LTYPE
  5
14
330
5
100
AcDbSymbolTableRecord
100
AcDbLinetypeTableRecord
  2
CONTINUOUS
 70
     0
  3
Solid line
 72
    65
 73
     0
 40
0.0
  0
LTYPE
  5
33F
330
5
100
AcDbSymbolTableRecord
100
AcDbLinetypeTableRecord
  2
ACAD_ISO04W100
 70
     0
  3
____ . ____ . ____ . ____ . ____ . ____ . ____ 
 72
    65
 73
     4
 40
30.5
 49
24.0
 74
     0
 49
-3.0
 74
     0
 49
0.5
 74
     0
 49
-3.0
 74
     0
  0
LTYPE
  5
1822
330
5
100
AcDbSymbolTableRecord
100
AcDbLinetypeTableRecord
  2
ACAD_ISO02W100
 70
     0
  3
ISO Strichlinie __ __ __ __ __ __ __ __ __ __ _
 72
    65
 73
     2
 40
15.0
 49
12.0
 74
     0
 49
-3.0
 74
     0
  0
ENDTAB
  0
TABLE
  2
LAYER
  5
2
102
{ACAD_XDICTIONARY
360
18AC
102
}
330
0
100
AcDbSymbolTable
 70
     3
  0
LAYER
  5
E
102
{ACAD_XDICTIONARY
360
1980
102
}
330
2
100
AcDbSymbolTableRecord
100
AcDbLayerTableRecord
  2
0
 70
     0
 62
     7
  6
CONTINUOUS
370
    -3
390
184A
  0
LAYER
  5
27D
102
{ACAD_XDICTIONARY
360
1982
102
}
330
2
100
AcDbSymbolTableRecord
100
AcDbLayerTableRecord
  2
PH_HILFSELEMENTE
 70
     0
 62
    -7
  6
CONTINUOUS
370
    -3
390
184A
  0
LAYER
  5
340
330
2
100
AcDbSymbolTableRecord
100
AcDbLayerTableRecord
  2
DEFPOINTS
 70
     0
 62
     7
  6
CONTINUOUS
290
     0
370
    -3
390
184A
  0
ENDTAB
  0
TABLE
  2
STYLE
  5
3
330
0
100
AcDbSymbolTable
 70
     2
  0
STYLE
  5
F
330
3
100
AcDbSymbolTableRecord
100
AcDbTextStyleTableRecord
  2
STANDARD
 70
     0
 40
0.0
 41
1.199999999999999
 50
0.0
 71
     0
 42
2.5
  3
isocp.shx
  4

  0
ENDTAB
  0
TABLE
  2
VIEW
  5
6
330
0
100
AcDbSymbolTable
 70
     0
  0
ENDTAB
  0
TABLE
  2
UCS
  5
7
330
0
100
AcDbSymbolTable
 70
     0
  0
ENDTAB
  0
TABLE
  2
APPID
  5
9
330
0
100
AcDbSymbolTable
 70
     6
  0
APPID
  5
10
330
9
100
AcDbSymbolTableRecord
100
AcDbRegAppTableRecord
  2
ACAD
 70
     0
  0
APPID
  5
266
330
9
100
AcDbSymbolTableRecord
100
AcDbRegAppTableRecord
  2
PHOENIX7010
 70
     0
  0
APPID
  5
197C
330
9
100
AcDbSymbolTableRecord
100
AcDbRegAppTableRecord
  2
AcadAnnoPO
 70
     0
  0
APPID
  5
197E
330
9
100
AcDbSymbolTableRecord
100
AcDbRegAppTableRecord
  2
ACAD_EXEMPT_FROM_CAD_STANDARDS
 70
     0
  0
APPID
  5
199E
330
9
100
AcDbSymbolTableRecord
100
AcDbRegAppTableRecord
  2
ACAD_PSEXT
 70
     0
  0
APPID
  5
19DF
330
9
100
AcDbSymbolTableRecord
100
AcDbRegAppTableRecord
  2
ACAD_MLEADERVER
 70
     0
  0
ENDTAB
  0
TABLE
  2
DIMSTYLE
  5
A
330
0
100
AcDbSymbolTable
 70
     5
100
AcDbDimStyleTable
 71
     1
340
1D
  0
DIMSTYLE
105
1D
330
A
100
AcDbSymbolTableRecord
100
AcDbDimStyleTableRecord
  2
STANDARD
 70
     0
340
F
  0
DIMSTYLE
105
26D
330
A
100
AcDbSymbolTableRecord
100
AcDbDimStyleTableRecord
  2
PHOENIX
 70
     0
  4
"
 41
3.72
 42
0.0
 43
7.0
 44
1.5
 73
     0
 74
     0
 77
     1
 78
     8
140
3.5
141
0.0
143
0.0393700787401575
146
0.6666666666666666
147
2.0
172
     1
173
     1
176
     1
177
     1
178
     5
271
     2
272
     2
284
     8
288
     1
289
     0
340
F
341
267
343
267
344
267
  0
DIMSTYLE
105
26E
330
A
100
AcDbSymbolTableRecord
100
AcDbDimStyleTableRecord
  2
PHOENIX$4
 70
     0
  4
"
 41
3.72
 42
0.0
 43
7.0
 44
1.5
 73
     0
 74
     0
 77
     1
 78
     8
140
3.5
141
0.0
143
0.0393700787401575
146
0.6666666666666666
147
2.0
173
     1
176
     1
177
     1
178
     5
271
     2
272
     2
281
     1
284
     8
288
     1
289
     0
340
F
341
267
343
267
344
267
  0
DIMSTYLE
105
189B
330
A
100
AcDbSymbolTableRecord
100
AcDbDimStyleTableRecord
  2
ISO-25
 70
     0
 41
2.5
 42
0.625
 43
3.75
 44
1.25
 73
     0
 74
     0
 77
     1
 78
     8
140
2.5
141
2.5
143
0.03937007874016
147
0.625
171
     3
172
     1
271
     2
272
     2
274
     3
278
    44
283
     0
284
     8
340
F
  0
ENDTAB
  0
TABLE
  2
BLOCK_RECORD
  5
1
330
0
100
AcDbSymbolTable
 70
    10
  0
BLOCK_RECORD
  5
18
330
1
100
AcDbSymbolTableRecord
100
AcDbBlockTableRecord
  2
*MODEL_SPACE
340
184D
  0
BLOCK_RECORD
  5
15
330
1
100
AcDbSymbolTableRecord
100
AcDbBlockTableRecord
  2
*PAPER_SPACE
340
184E
  0
BLOCK_RECORD
  5
267
330
1
100
AcDbSymbolTableRecord
100
AcDbBlockTableRecord
  2
_OPEN15
340
0
  0
BLOCK_RECORD
  5
2A2
330
1
100
AcDbSymbolTableRecord
100
AcDbBlockTableRecord
  2
PH_GRPBLK
340
0
102
{BLKREFS
331
18A9
331
192B
331
192E
331
1966
102
}
  0
ENDTAB
  0
ENDSEC
  0
SECTION
  2
BLOCKS
  0
BLOCK
  5
19
330
18
100
AcDbEntity
  8
0
100
AcDbBlockBegin
  2
*MODEL_SPACE
 70
     0
 10
0.0
 20
0.0
 30
0.0
  3
*MODEL_SPACE
  1

  0
ENDBLK
  5
1A
330
18
100
AcDbEntity
  8
0
100
AcDbBlockEnd
  0
BLOCK
  5
16
330
15
100
AcDbEntity
 67
     1
  8
0
100
AcDbBlockBegin
  2
*PAPER_SPACE
 70
     0
 10
0.0
 20
0.0
 30
0.0
  3
*PAPER_SPACE
  1

  0
ENDBLK
  5
17
330
15
100
AcDbEntity
 67
     1
  8
0
100
AcDbBlockEnd
  0
BLOCK
  5
26B
330
267
100
AcDbEntity
  8
0
100
AcDbBlockBegin
  2
_OPEN15
 70
     0
 10
1.0
 20
0.0
 30
0.0
  3
_OPEN15
  1

  0
LINE
  5
268
330
267
100
AcDbEntity
  8
0
  6
ByBlock
 62
     0
100
AcDbLine
 10
0.0
 20
0.0
 30
0.0
 11
1.0
 21
0.0
 31
0.0
  0
LINE
  5
269
330
267
100
AcDbEntity
  8
0
  6
ByBlock
 62
     0
100
AcDbLine
 10
1.0
 20
0.0
 30
0.0
 11
0.0
 21
0.1316524975873958
 31
0.0
  0
LINE
  5
26A
330
267
100
AcDbEntity
  8
0
  6
ByBlock
 62
     0
100
AcDbLine
 10
1.0
 20
0.0
 30
0.0
 11
0.0
 21
-0.1316524975873958
 31
0.0
  0
ENDBLK
  5
26C
330
267
100
AcDbEntity
  8
0
100
AcDbBlockEnd
  0
BLOCK
  5
2A4
330
2A2
100
AcDbEntity
  8
0
 62
     7
100
AcDbBlockBegin
  2
PH_GRPBLK
 70
     0
 10
0.0
 20
0.0
 30
0.0
  3
PH_GRPBLK
  1

  0
POINT
  5
2A3
330
2A2
100
AcDbEntity
  8
DEFPOINTS
  6
Continuous
 62
     0
100
AcDbPoint
 10
0.0
 20
0.0
 30
0.0
  0
ENDBLK
  5
2A5
330
2A2
100
AcDbEntity
  8
0
 62
     7
100
AcDbBlockEnd
  0
ENDSEC
  0
SECTION
  2
ENTITIES
  0
LINE
  5
15F0
102
{ACAD_REACTORS
330
15E7
102
}
330
18
100
AcDbEntity
  8
0
  6
Continuous
 62
     1
100
AcDbLine
 10
106.5413220064736
 20
232.2985948161754
 30
0.0
 11
106.5413220064736
 21
248.9652614828421
 31
0.0
1001
PHOENIX7010
1002
{
1070
    41
1040
1.5
1002
}
  0
LINE
  5
15F1
102
{ACAD_REACTORS
330
15E7
102
}
330
18
100
AcDbEntity
  8
0
  6
Continuous
 62
     1
100
AcDbLine
 10
246.5412406262653
 20
232.2985948161754
 30
0.0
 11
246.5412406262653
 21
248.9653428630504
 31
0.0
1001
PHOENIX7010
1002
{
1070
    41
1040
1.5
1002
}
  0
LINE
  5
15F2
102
{ACAD_REACTORS
330
15E7
102
}
330
18
100
AcDbEntity
  8
0
  6
Continuous
 62
     1
100
AcDbLine
 10
98.20798867314033
 20
232.2985948161754
 30
0.0
 11
98.20798867314033
 21
248.9652614828421
 31
0.0
1001
PHOENIX7010
1002
{
1070
    41
1040
1.5
1002
}
  0
LINE
  5
15F3
102
{ACAD_REACTORS
330
15E7
102
}
330
18
100
AcDbEntity
  8
0
  6
Continuous
 62
     1
100
AcDbLine
 10
254.8745739595986
 20
232.2985948161754
 30
0.0
 11
254.8745739595986
 21
248.9652614828421
 31
0.0
1001
PHOENIX7010
1002
{
1070
    41
1040
1.5
1002
}
  0
TEXT
  5
15F4
102
{ACAD_REACTORS
330
15E7
102
}
330
18
100
AcDbEntity
  8
0
 62
     5
100
AcDbText
 10
76.54132200647359
 20
250.9652614828421
 30
0.0
 40
7.0
  1
12.5
100
AcDbText
1001
PHOENIX7010
1002
{
1070
    41
1040
1.5
1002
}
  0
LINE
  5
15F5
102
{ACAD_REACTORS
330
15E7
102
}
330
18
100
AcDbEntity
  8
0
 62
     1
100
AcDbLine
 10
106.5413220064736
 20
232.2985948161754
 30
0.0
 11
106.5413220064736
 21
209.3683376547171
 31
0.0
1001
PHOENIX7010
1002
{
1070
    41
1040
1.5
1002
}
  0
LINE
  5
15F6
102
{ACAD_REACTORS
330
15E7
102
}
330
18
100
AcDbEntity
  8
0
 62
     1
100
AcDbLine
 10
246.5412406262653
 20
232.2985948161754
 30
0.0
 11
246.5412406262653
 21
209.3683376547171
 31
0.0
1001
PHOENIX7010
1002
{
1070
    41
1040
1.5
1002
}
  0
LINE
  5
15F7
102
{ACAD_REACTORS
330
15E7
102
}
330
18
100
AcDbEntity
  8
0
 62
     1
100
AcDbLine
 10
116.5413220064736
 20
236.0726833578421
 30
0.0
 11
116.5413220064736
 21
223.5533555583629
 31
0.0
1001
PHOENIX7010
1002
{
1070
    41
1040
1.5
1002
}
  0
LINE
  5
15F8
102
{ACAD_REACTORS
330
15E7
102
}
330
18
100
AcDbEntity
  8
0
 62
     1
100
AcDbLine
 10
126.5413220064736
 20
236.0726833578421
 30
0.0
 11
126.5413220064736
 21
209.3683783448213
 31
0.0
1001
PHOENIX7010
1002
{
1070
    41
1040
1.5
1002
}
  0
LINE
  5
15F9
102
{ACAD_REACTORS
330
15E7
102
}
330
18
100
AcDbEntity
  8
0
 62
     1
100
AcDbLine
 10
136.5413220064736
 20
236.0726833578421
 30
0.0
 11
136.5413220064736
 21
223.5533555583629
 31
0.0
1001
PHOENIX7010
1002
{
1070
    41
1040
1.5
1002
}
  0
LINE
  5
15FB
330
18
100
AcDbEntity
  8
0
  6
Continuous
 62
     1
100
AcDbLine
 10
98.20798867314033
 20
248.9652614828421
 30
0.0
 11
91.26787433394747
 21
249.8789577719046
 31
0.0
1001
PHOENIX7010
1002
{
1070
    41
1040
1.5
1002
}
  0
LINE
  5
15FC
330
18
100
AcDbEntity
  8
0
  6
Continuous
 62
     1
100
AcDbLine
 10
98.20798867314033
 20
248.9652614828421
 30
0.0
 11
91.26787433394747
 21
248.0515651937796
 31
0.0
1001
PHOENIX7010
1002
{
1070
    41
1040
1.5
1002
}
  0
LINE
  5
15FD
330
18
100
AcDbEntity
  8
0
  6
Continuous
 62
     1
100
AcDbLine
 10
106.5413220064736
 20
248.9652614828421
 30
0.0
 11
113.4814363456662
 21
249.8789577719046
 31
0.0
1001
PHOENIX7010
1002
{
1070
    41
1040
1.5
1002
}
  0
LINE
  5
15FE
330
18
100
AcDbEntity
  8
0
  6
Continuous
 62
     1
100
AcDbLine
 10
106.5413220064736
 20
248.9652614828421
 30
0.0
 11
113.4814363456662
 21
248.0515651937796
 31
0.0
1001
PHOENIX7010
1002
{
1070
    41
1040
1.5
1002
}
  0
LINE
  5
15FF
330
18
100
AcDbEntity
  8
0
  6
Continuous
 62
     1
100
AcDbLine
 10
74.64735024540596
 20
248.9652614828421
 30
0.0
 11
120.0680960950153
 21
248.9652614828421
 31
0.0
1001
PHOENIX7010
1002
{
1070
    41
1040
1.5
1002
}
  0
LINE
  5
1600
330
18
100
AcDbEntity
  8
0
  6
Continuous
 62
     1
100
AcDbLine
 10
246.5412406262653
 20
248.9653428630504
 30
0.0
 11
246.5412406262653
 21
244.9652614828421
 31
0.0
1001
PHOENIX7010
1002
{
1070
    41
1040
1.5
1002
}
  0
LINE
  5
1601
330
18
100
AcDbEntity
  8
0
  6
Continuous
 62
     1
100
AcDbLine
 10
254.8745739595986
 20
248.9652614828421
 30
0.0
 11
254.8745739595986
 21
244.9651801026338
 31
0.0
1001
PHOENIX7010
1002
{
1070
    41
1040
1.5
1002
}
  0
LINE
  5
1602
330
18
100
AcDbEntity
  8
0
  6
Continuous
 62
     1
100
AcDbLine
 10
246.5412406262653
 20
248.9652614828421
 30
0.0
 11
239.6011161145466
 21
249.879039152113
 31
0.0
1001
PHOENIX7010
1002
{
1070
    41
1040
1.5
1002
}
  0
LINE
  5
1603
330
18
100
AcDbEntity
  8
0
  6
Continuous
 62
     1
100
AcDbLine
 10
246.5412406262653
 20
248.9652614828421
 30
0.0
 11
239.6011161145466
 21
248.051646573988
 31
0.0
1001
PHOENIX7010
1002
{
1070
    41
1040
1.5
1002
}
  0
LINE
  5
1604
330
18
100
AcDbEntity
  8
0
  6
Continuous
 62
     1
100
AcDbLine
 10
254.8745739595986
 20
248.9651801026338
 30
0.0
 11
261.8146984713173
 21
249.878795011488
 31
0.0
1001
PHOENIX7010
1002
{
1070
    41
1040
1.5
1002
}
  0
LINE
  5
1605
330
18
100
AcDbEntity
  8
0
  6
Continuous
 62
     1
100
AcDbLine
 10
254.8745739595986
 20
248.9651801026338
 30
0.0
 11
261.8146984713173
 21
248.051402433363
 31
0.0
1001
PHOENIX7010
1002
{
1070
    41
1040
1.5
1002
}
  0
TEXT
  5
1606
330
18
100
AcDbEntity
  8
0
 62
     5
100
AcDbText
 10
264.8745943046506
 20
250.9650987224254
 30
0.0
 40
7.0
  1
12.5
 50
359.9994506835915
100
AcDbText
1001
PHOENIX7010
1002
{
1070
    41
1040
1.5
1002
}
  0
LINE
  5
1607
330
18
100
AcDbEntity
  8
0
  6
Continuous
 62
     1
100
AcDbLine
 10
232.5412406262653
 20
248.9653835531546
 30
0.0
 11
279.3723360038693
 21
248.9653835531546
 31
0.0
1001
PHOENIX7010
1002
{
1070
    41
1040
1.5
1002
}
  0
LINE
  5
1608
330
18
100
AcDbEntity
  8
0
  6
Continuous
 62
     1
100
AcDbLine
 10
106.5413220064736
 20
248.9653835531546
 30
0.0
 11
246.5412406262653
 21
248.9655056234671
 31
0.0
1001
PHOENIX7010
1002
{
1070
    41
1040
1.5
1002
}
  0
LINE
  5
1609
330
18
100
AcDbEntity
  8
0
  6
Continuous
 62
     1
100
AcDbLine
 10
106.5413220064736
 20
248.9652614828421
 30
0.0
 11
106.5413220064736
 21
252.9653835531546
 31
0.0
1001
PHOENIX7010
1002
{
1070
    41
1040
1.5
1002
}
  0
LINE
  5
160A
330
18
100
AcDbEntity
  8
0
  6
Continuous
 62
     1
100
AcDbLine
 10
246.5412406262653
 20
248.9653835531546
 30
0.0
 11
246.5412406262653
 21
252.9655056234671
 31
0.0
1001
PHOENIX7010
1002
{
1070
    41
1040
1.5
1002
}
  0
LINE
  5
160B
330
18
100
AcDbEntity
  8
0
  6
Continuous
 62
     1
100
AcDbLine
 10
106.5413220064736
 20
248.9653835531546
 30
0.0
 11
113.4814363456662
 21
249.8790798422171
 31
0.0
1001
PHOENIX7010
1002
{
1070
    41
1040
1.5
1002
}
  0
LINE
  5
160C
330
18
100
AcDbEntity
  8
0
  6
Continuous
 62
     1
100
AcDbLine
 10
106.5413220064736
 20
248.9653835531546
 30
0.0
 11
113.4814363456662
 21
248.0516872640921
 31
0.0
1001
PHOENIX7010
1002
{
1070
    41
1040
1.5
1002
}
  0
LINE
  5
160D
330
18
100
AcDbEntity
  8
0
  6
Continuous
 62
     1
100
AcDbLine
 10
246.5412406262653
 20
248.9655056234671
 30
0.0
 11
239.6011364595986
 21
249.8792019125296
 31
0.0
1001
PHOENIX7010
1002
{
1070
    41
1040
1.5
1002
}
  0
LINE
  5
160E
330
18
100
AcDbEntity
  8
0
  6
Continuous
 62
     1
100
AcDbLine
 10
246.5412406262653
 20
248.9655056234671
 30
0.0
 11
239.6011364595986
 21
248.0518093344046
 31
0.0
1001
PHOENIX7010
1002
{
1070
    41
1040
1.5
1002
}
  0
TEXT
  5
160F
330
18
100
AcDbEntity
  8
0
 62
     5
100
AcDbText
 10
164.4963065695433
 20
250.9654544309722
 30
0.0
 40
7.0
  1
n x 15
 50
0.0000499579846633
 72
     1
 11
176.5412813163693
 21
250.965464933363
 31
0.0
100
AcDbText
1001
PHOENIX7010
1002
{
1070
    41
1040
1.5
1002
}
  0
LINE
  5
1610
330
18
100
AcDbEntity
  8
0
  6
Continuous
 62
     1
100
AcDbLine
 10
98.20798867314033
 20
265.6319281495088
 30
0.0
 11
254.8745739595986
 21
265.6319281495088
 31
0.0
1001
PHOENIX7010
1002
{
1070
    41
1040
1.5
1002
}
  0
LINE
  5
1611
330
18
100
AcDbEntity
  8
0
  6
Continuous
 62
     1
100
AcDbLine
 10
98.20798867314033
 20
248.9652614828421
 30
0.0
 11
98.20798867314033
 21
269.6319281495088
 31
0.0
1001
PHOENIX7010
1002
{
1070
    41
1040
1.5
1002
}
  0
LINE
  5
1612
330
18
100
AcDbEntity
  8
0
  6
Continuous
 62
     1
100
AcDbLine
 10
254.8745739595986
 20
248.9652614828421
 30
0.0
 11
254.8745739595986
 21
269.6319281495088
 31
0.0
1001
PHOENIX7010
1002
{
1070
    41
1040
1.5
1002
}
  0
LINE
  5
1613
330
18
100
AcDbEntity
  8
0
  6
Continuous
 62
     1
100
AcDbLine
 10
98.20798867314033
 20
265.6319281495088
 30
0.0
 11
105.1481030123329
 21
266.5456244385713
 31
0.0
1001
PHOENIX7010
1002
{
1070
    41
1040
1.5
1002
}
  0
LINE
  5
1614
330
18
100
AcDbEntity
  8
0
  6
Continuous
 62
     1
100
AcDbLine
 10
98.20798867314033
 20
265.6319281495088
 30
0.0
 11
105.1481030123329
 21
264.7182318604464
 31
0.0
1001
PHOENIX7010
1002
{
1070
    41
1040
1.5
1002
}
  0
LINE
  5
1615
330
18
100
AcDbEntity
  8
0
  6
Continuous
 62
     1
100
AcDbLine
 10
254.8745739595986
 20
265.6319281495088
 30
0.0
 11
247.9344494478799
 21
266.5456244385713
 31
0.0
1001
PHOENIX7010
1002
{
1070
    41
1040
1.5
1002
}
  0
LINE
  5
1616
330
18
100
AcDbEntity
  8
0
  6
Continuous
 62
     1
100
AcDbLine
 10
254.8745739595986
 20
265.6319281495088
 30
0.0
 11
247.9344494478799
 21
264.7182318604464
 31
0.0
1001
PHOENIX7010
1002
{
1070
    41
1040
1.5
1002
}
  0
TEXT
  5
1617
330
18
100
AcDbEntity
  8
0
 62
     5
100
AcDbText
 10
168.1412813163693
 20
267.6319281495088
 30
0.0
 40
7.0
  1
  T  
 72
     1
 11
176.5412813163693
 21
267.6319281495088
 31
0.0
100
AcDbText
1001
PHOENIX7010
1002
{
1070
    41
1040
1.5
1002
}
  0
LINE
  5
1618
330
18
100
AcDbEntity
  8
0
  6
Continuous
 62
     1
100
AcDbLine
 10
271.5412406262653
 20
158.5186672445608
 30
0.0
 11
271.5412406262653
 21
188.1319891846651
 31
0.0
1001
PHOENIX7010
1002
{
1070
    41
1040
1.5
1002
}
  0
LINE
  5
1619
330
18
100
AcDbEntity
  8
0
  6
Continuous
 62
     1
100
AcDbLine
 10
246.5412406262653
 20
158.5186672445608
 30
0.0
 11
275.5412406262653
 21
158.5186672445608
 31
0.0
1001
PHOENIX7010
1002
{
1070
    41
1040
1.5
1002
}
  0
LINE
  5
161A
330
18
100
AcDbEntity
  8
0
  6
Continuous
 62
     1
100
AcDbLine
 10
246.5412406262653
 20
188.1319891846651
 30
0.0
 11
275.5412406262653
 21
188.1319891846651
 31
0.0
1001
PHOENIX7010
1002
{
1070
    41
1040
1.5
1002
}
  0
LINE
  5
161B
330
18
100
AcDbEntity
  8
0
  6
Continuous
 62
     1
100
AcDbLine
 10
271.5412406262653
 20
158.5186672445608
 30
0.0
 11
270.6275646822549
 21
165.4587714112276
 31
0.0
1001
PHOENIX7010
1002
{
1070
    41
1040
1.5
1002
}
  0
LINE
  5
161C
330
18
100
AcDbEntity
  8
0
  6
Continuous
 62
     1
100
AcDbLine
 10
271.5412406262653
 20
158.5186672445608
 30
0.0
 11
272.4549165702756
 21
165.4587714112276
 31
0.0
1001
PHOENIX7010
1002
{
1070
    41
1040
1.5
1002
}
  0
LINE
  5
161D
330
18
100
AcDbEntity
  8
0
  6
Continuous
 62
     1
100
AcDbLine
 10
271.5412406262653
 20
188.1319891846651
 30
0.0
 11
270.6275646822549
 21
181.1918850179983
 31
0.0
1001
PHOENIX7010
1002
{
1070
    41
1040
1.5
1002
}
  0
LINE
  5
161E
330
18
100
AcDbEntity
  8
0
  6
Continuous
 62
     1
100
AcDbLine
 10
271.5412406262653
 20
188.1319891846651
 30
0.0
 11
272.4549165702756
 21
181.1918850179983
 31
0.0
1001
PHOENIX7010
1002
{
1070
    41
1040
1.5
1002
}
  0
TEXT
  5
161F
330
18
100
AcDbEntity
  8
0
 62
     5
100
AcDbText
 10
269.5412406262653
 20
161.2803331227302
 30
0.0
 40
7.0
  1
44.45
 50
90.0
 72
     1
 11
269.5412406262653
 21
173.3253078695608
 31
0.0
100
AcDbText
1001
PHOENIX7010
1002
{
1070
    41
1040
1.5
1002
}
  0
LINE
  5
1620
330
18
100
AcDbEntity
  8
0
  6
Continuous
 62
     1
100
AcDbLine
 10
288.2079072929318
 20
158.5186672445608
 30
0.0
 11
288.2079072929318
 21
217.7452907797171
 31
0.0
1001
PHOENIX7010
1002
{
1070
    41
1040
1.5
1002
}
  0
LINE
  5
1621
330
18
100
AcDbEntity
  8
0
  6
Continuous
 62
     1
100
AcDbLine
 10
271.5412406262653
 20
158.5186672445608
 30
0.0
 11
292.2079072929319
 21
158.5186672445608
 31
0.0
1001
PHOENIX7010
1002
{
1070
    41
1040
1.5
1002
}
  0
LINE
  5
1622
330
18
100
AcDbEntity
  8
0
  6
Continuous
 62
     1
100
AcDbLine
 10
246.5412406262653
 20
217.7452907797171
 30
0.0
 11
292.2079072929319
 21
217.7452907797171
 31
0.0
1001
PHOENIX7010
1002
{
1070
    41
1040
1.5
1002
}
  0
LINE
  5
1623
330
18
100
AcDbEntity
  8
0
  6
Continuous
 62
     1
100
AcDbLine
 10
288.2079072929318
 20
158.5186672445608
 30
0.0
 11
287.2942313489216
 21
165.4587714112276
 31
0.0
1001
PHOENIX7010
1002
{
1070
    41
1040
1.5
1002
}
  0
LINE
  5
1624
330
18
100
AcDbEntity
  8
0
  6
Continuous
 62
     1
100
AcDbLine
 10
288.2079072929318
 20
158.5186672445608
 30
0.0
 11
289.1215832369423
 21
165.4587714112276
 31
0.0
1001
PHOENIX7010
1002
{
1070
    41
1040
1.5
1002
}
  0
LINE
  5
1625
330
18
100
AcDbEntity
  8
0
  6
Continuous
 62
     1
100
AcDbLine
 10
288.2079072929318
 20
217.7452907797171
 30
0.0
 11
287.2942313489216
 21
210.8051866130505
 31
0.0
1001
PHOENIX7010
1002
{
1070
    41
1040
1.5
1002
}
  0
LINE
  5
1626
330
18
100
AcDbEntity
  8
0
  6
Continuous
 62
     1
100
AcDbLine
 10
288.2079072929318
 20
217.7452907797171
 30
0.0
 11
289.1215832369423
 21
210.8051866130505
 31
0.0
1001
PHOENIX7010
1002
{
1070
    41
1040
1.5
1002
}
  0
TEXT
  5
1627
330
18
100
AcDbEntity
  8
0
 62
     5
100
AcDbText
 10
286.2079072929319
 20
179.4814120081589
 30
0.0
 40
7.0
  1
88.9
 50
90.0
 72
     1
 11
286.2079072929319
 21
188.1319891846651
 31
0.0
100
AcDbText
1001
PHOENIX7010
1002
{
1070
    41
1040
1.5
1002
}
  0
LINE
  5
1628
330
18
100
AcDbEntity
  8
0
  6
Continuous
 62
     1
100
AcDbLine
 10
186.5413220064736
 20
158.5186672445608
 30
0.0
 11
207.1752331392861
 21
127.2986558513317
 31
0.0
1001
PHOENIX7010
1002
{
1070
    41
1040
1.5
1002
}
  0
LINE
  5
1629
330
18
100
AcDbEntity
  8
0
  6
Continuous
 62
     1
100
AcDbLine
 10
207.1752534843381
 20
127.2986558513317
 30
0.0
 11
222.0960298515256
 21
127.2986558513317
 31
0.0
1001
PHOENIX7010
1002
{
1070
    41
1040
1.5
1002
}
  0
TEXT
  5
162A
330
18
100
AcDbEntity
  8
0
 62
     5
100
AcDbText
 10
216.1264050142861
 20
129.3411159750296
 30
0.0
 40
7.0
  1
6
100
AcDbText
1001
PHOENIX7010
1002
{
1070
    41
1040
1.5
1002
}
  0
LINE
  5
162B
102
{ACAD_REACTORS
330
15EB
330
15E4
330
15E7
102
}
330
18
100
AcDbEntity
  8
0
  6
Continuous
 62
     5
100
AcDbLine
 10
208.6982027030881
 20
130.6839504476858
 30
0.0
 11
212.6982027030881
 21
130.6839504476858
 31
0.0
1001
PHOENIX7010
1002
{
1070
    41
1040
1.5
1002
}
  0
LINE
  5
162C
102
{ACAD_REACTORS
330
15EB
330
15E4
330
15E7
102
}
330
18
100
AcDbEntity
  8
0
  6
Continuous
 62
     5
100
AcDbLine
 10
212.6982027030881
 20
130.6839504476858
 30
0.0
 11
212.6982027030881
 21
134.6839504476858
 31
0.0
1001
PHOENIX7010
1002
{
1070
    41
1040
1.5
1002
}
  0
LINE
  5
162D
102
{ACAD_REACTORS
330
15EB
330
15E4
330
15E7
102
}
330
18
100
AcDbEntity
  8
0
  6
Continuous
 62
     5
100
AcDbLine
 10
212.6982027030881
 20
134.6839504476858
 30
0.0
 11
208.6982027030881
 21
134.6839504476858
 31
0.0
1001
PHOENIX7010
1002
{
1070
    41
1040
1.5
1002
}
  0
LINE
  5
162E
102
{ACAD_REACTORS
330
15EB
330
15E4
330
15E7
102
}
330
18
100
AcDbEntity
  8
0
  6
Continuous
 62
     5
100
AcDbLine
 10
208.6982027030881
 20
134.6839504476858
 30
0.0
 11
208.6982027030881
 21
130.6839504476858
 31
0.0
1001
PHOENIX7010
1002
{
1070
    41
1040
1.5
1002
}
  0
LINE
  5
162F
330
18
100
AcDbEntity
  8
0
  6
Continuous
 62
     1
100
AcDbLine
 10
126.5413220064736
 20
147.6319891846651
 30
0.0
 11
139.9800020194943
 21
127.2986558513317
 31
0.0
1001
PHOENIX7010
1002
{
1070
    41
1040
1.5
1002
}
  0
TEXT
  5
1630
330
18
100
AcDbEntity
  8
0
 62
     5
100
AcDbText
 10
143.3753877616818
 20
129.2030544515921
 30
0.0
 40
7.0
  1
ø 4.6
100
AcDbText
1001
PHOENIX7010
1002
{
1070
    41
1040
1.5
1002
}
  0
LINE
  5
1631
330
18
100
AcDbEntity
  8
0
  6
Continuous
 62
     1
100
AcDbLine
 10
139.9800020194943
 20
127.2986558513317
 30
0.0
 11
163.8315238293903
 21
127.2986558513317
 31
0.0
1001
PHOENIX7010
1002
{
1070
    41
1040
1.5
1002
}
  0
LINE
  5
1632
330
18
100
AcDbEntity
  8
0
  6
Continuous
 62
     7
100
AcDbLine
 10
254.8745739595986
 20
143.9653225179983
 30
0.0
 11
254.8745739595986
 21
232.2985948161754
 31
0.0
1001
PHOENIX7010
1002
{
1070
    41
1040
1.5
1002
}
  0
LINE
  5
1633
330
18
100
AcDbEntity
  8
0
  6
Continuous
 62
     7
100
AcDbLine
 10
96.20798867314034
 20
143.9653225179983
 30
0.0
 11
254.8745739595986
 21
143.9653225179983
 31
0.0
1001
PHOENIX7010
1002
{
1070
    41
1040
1.5
1002
}
  0
LINE
  5
1634
330
18
100
AcDbEntity
  8
0
  6
Continuous
 62
     7
100
AcDbLine
 10
254.8745739595986
 20
232.2985948161754
 30
0.0
 11
96.20799884566622
 21
232.2985948161754
 31
0.0
1001
PHOENIX7010
1002
{
1070
    41
1040
1.5
1002
}
  0
LINE
  5
1635
330
18
100
AcDbEntity
  8
0
  6
Continuous
 62
     7
100
AcDbLine
 10
96.20798867314034
 20
143.9653225179983
 30
0.0
 11
96.20799884566622
 21
232.2985948161754
 31
0.0
1001
PHOENIX7010
1002
{
1070
    41
1040
1.5
1002
}
  0
LINE
  5
1636
330
18
100
AcDbEntity
  8
0
  6
Continuous
 62
     7
100
AcDbLine
 10
98.20798867314033
 20
143.9653225179983
 30
0.0
 11
98.20798867314033
 21
232.2985948161754
 31
0.0
1001
PHOENIX7010
1002
{
1070
    41
1040
1.5
1002
}
  0
LINE
  5
1637
330
18
100
AcDbEntity
  8
0
  6
Continuous
 62
     1
100
AcDbLine
 10
62.87465533980685
 20
143.9653225179983
 30
0.0
 11
62.87465533980685
 21
232.2985948161754
 31
0.0
1001
PHOENIX7010
1002
{
1070
    41
1040
1.5
1002
}
  0
LINE
  5
1639
330
18
100
AcDbEntity
  8
0
  6
Continuous
 62
     1
100
AcDbLine
 10
96.20798867314034
 20
232.2985948161754
 30
0.0
 11
58.87465533980685
 21
232.2985948161754
 31
0.0
1001
PHOENIX7010
1002
{
1070
    41
1040
1.5
1002
}
  0
LINE
  5
163A
330
18
100
AcDbEntity
  8
0
  6
Continuous
 62
     1
100
AcDbLine
 10
62.87465533980685
 20
143.9653225179983
 30
0.0
 11
61.96096922327047
 21
150.9054266846651
 31
0.0
1001
PHOENIX7010
1002
{
1070
    41
1040
1.5
1002
}
  0
LINE
  5
163B
330
18
100
AcDbEntity
  8
0
  6
Continuous
 62
     1
100
AcDbLine
 10
62.87465533980685
 20
143.9653225179983
 30
0.0
 11
63.78834145634346
 21
150.9054266846651
 31
0.0
1001
PHOENIX7010
1002
{
1070
    41
1040
1.5
1002
}
  0
LINE
  5
163C
330
18
100
AcDbEntity
  8
0
  6
Continuous
 62
     1
100
AcDbLine
 10
62.87465533980685
 20
232.2985948161754
 30
0.0
 11
61.96096922327047
 21
225.3584906495088
 31
0.0
1001
PHOENIX7010
1002
{
1070
    41
1040
1.5
1002
}
  0
LINE
  5
163D
330
18
100
AcDbEntity
  8
0
  6
Continuous
 62
     1
100
AcDbLine
 10
62.87465533980685
 20
232.2985948161754
 30
0.0
 11
63.78834145634346
 21
225.3584906495088
 31
0.0
1001
PHOENIX7010
1002
{
1070
    41
1040
1.5
1002
}
  0
TEXT
  5
163E
330
18
100
AcDbEntity
  8
0
 62
     5
100
AcDbText
 10
60.87465533980685
 20
177.808367137421
 30
0.0
 40
7.0
  1
132.6
 50
90.0
 72
     1
 11
60.87465533980685
 21
188.1319891846651
 31
0.0
100
AcDbText
1001
PHOENIX7010
1002
{
1070
    41
1040
1.5
1002
}
  0
LINE
  5
163F
330
18
100
AcDbEntity
  8
0
  6
Continuous
 62
     1
100
AcDbLine
 10
79.54132200647359
 20
147.6319891846651
 30
0.0
 11
79.54132200647359
 21
228.6318467693005
 31
0.0
1001
PHOENIX7010
1002
{
1070
    41
1040
1.5
1002
}
  0
LINE
  5
1640
330
18
100
AcDbEntity
  8
0
  6
Continuous
 62
     1
100
AcDbLine
 10
79.54132200647359
 20
147.6319891846651
 30
0.0
 11
78.62763588993721
 21
154.5720933513317
 31
0.0
1001
PHOENIX7010
1002
{
1070
    41
1040
1.5
1002
}
  0
LINE
  5
1641
330
18
100
AcDbEntity
  8
0
  6
Continuous
 62
     1
100
AcDbLine
 10
79.54132200647359
 20
147.6319891846651
 30
0.0
 11
80.45500812300998
 21
154.5720933513317
 31
0.0
1001
PHOENIX7010
1002
{
1070
    41
1040
1.5
1002
}
  0
LINE
  5
1642
330
18
100
AcDbEntity
  8
0
  6
Continuous
 62
     1
100
AcDbLine
 10
79.54132200647359
 20
228.6318467693005
 30
0.0
 11
78.62763588993721
 21
221.6917426026338
 31
0.0
1001
PHOENIX7010
1002
{
1070
    41
1040
1.5
1002
}
  0
LINE
  5
1643
330
18
100
AcDbEntity
  8
0
  6
Continuous
 62
     1
100
AcDbLine
 10
79.54132200647359
 20
228.6318467693005
 30
0.0
 11
80.45500812300998
 21
221.6917426026338
 31
0.0
1001
PHOENIX7010
1002
{
1070
    41
1040
1.5
1002
}
  0
TEXT
  5
1644
330
18
100
AcDbEntity
  8
0
 62
     5
100
AcDbText
 10
77.54132200647359
 20
178.5083264473167
 30
0.0
 40
7.0
  1
121.6
 50
90.0
 72
     1
 11
77.54132200647359
 21
188.1319484945608
 31
0.0
100
AcDbText
1001
PHOENIX7010
1002
{
1070
    41
1040
1.5
1002
}
  0
LINE
  5
1645
330
18
100
AcDbEntity
  8
0
  6
Continuous
 62
     1
100
AcDbLine
 10
106.5413220064736
 20
147.6319891846651
 30
0.0
 11
75.54132200647359
 21
147.6319891846651
 31
0.0
1001
PHOENIX7010
1002
{
1070
    41
1040
1.5
1002
}
  0
LINE
  5
1646
330
18
100
AcDbEntity
  8
0
  6
Continuous
 62
     1
100
AcDbLine
 10
106.5413220064736
 20
228.6318467693005
 30
0.0
 11
75.54132200647359
 21
228.6318467693005
 31
0.0
1001
PHOENIX7010
1002
{
1070
    41
1040
1.5
1002
}
  0
LINE
  5
1647
330
18
100
AcDbEntity
  8
0
  6
Continuous
 62
     7
100
AcDbLine
 10
254.8746553398069
 20
101.6986599203421
 30
0.0
 11
254.8746553398069
 21
100.3653265870088
 31
0.0
1001
PHOENIX7010
1002
{
1070
    41
1040
1.5
1002
}
  0
LINE
  5
1648
330
18
100
AcDbEntity
  8
0
  6
Continuous
 62
     7
100
AcDbLine
 10
98.20798867314033
 20
101.6986599203421
 30
0.0
 11
254.8746553398069
 21
101.6986599203421
 31
0.0
1001
PHOENIX7010
1002
{
1070
    41
1040
1.5
1002
}
  0
LINE
  5
1649
330
18
100
AcDbEntity
  8
0
  6
Continuous
 62
     7
100
AcDbLine
 10
254.8746553398069
 20
100.3653265870088
 30
0.0
 11
98.20798867314033
 21
100.3653265870088
 31
0.0
1001
PHOENIX7010
1002
{
1070
    41
1040
1.5
1002
}
  0
LINE
  5
164A
330
18
100
AcDbEntity
  8
0
  6
Continuous
 62
     7
100
AcDbLine
 10
98.20798867314033
 20
100.3653265870088
 30
0.0
 11
98.20798867314033
 21
101.6986599203421
 31
0.0
1001
PHOENIX7010
1002
{
1070
    41
1040
1.5
1002
}
  0
LINE
  5
164B
330
18
100
AcDbEntity
  8
0
  6
Continuous
 62
     7
100
AcDbLine
 10
96.20798867314034
 20
117.2986558513317
 30
0.0
 11
96.20798867314034
 21
98.76533065601922
 31
0.0
1001
PHOENIX7010
1002
{
1070
    41
1040
1.5
1002
}
  0
LINE
  5
164C
330
18
100
AcDbEntity
  8
0
  6
Continuous
 62
     7
100
AcDbLine
 10
96.20798867314034
 20
117.2986558513317
 30
0.0
 11
98.20797850061422
 21
117.2986558513317
 31
0.0
1001
PHOENIX7010
1002
{
1070
    41
1040
1.5
1002
}
  0
LINE
  5
164D
330
18
100
AcDbEntity
  8
0
  6
Continuous
 62
     7
100
AcDbLine
 10
98.20797850061422
 20
117.2986558513317
 30
0.0
 11
98.20797850061422
 21
105.0319729086234
 31
0.0
1001
PHOENIX7010
1002
{
1070
    41
1040
1.5
1002
}
  0
ARC
  5
164E
330
18
100
AcDbEntity
  8
0
  6
Continuous
 62
     7
100
AcDbCircle
 10
100.2080191907184
 20
105.0319322185192
 30
0.0
 40
2.0
100
AcDbArc
 50
180.0
 51
270.0
1001
PHOENIX7010
1002
{
1070
    41
1040
1.5
1002
}
  0
LINE
  5
164F
330
18
100
AcDbEntity
  8
0
  6
Continuous
 62
     7
100
AcDbLine
 10
100.2079785006142
 20
103.0319932536754
 30
0.0
 11
119.7413036959267
 21
103.0319932536754
 31
0.0
1001
PHOENIX7010
1002
{
1070
    41
1040
1.5
1002
}
  0
LINE
  5
1650
330
18
100
AcDbEntity
  8
0
  6
Continuous
 62
     7
100
AcDbLine
 10
121.07463702926
 20
101.6986599203421
 30
0.0
 11
119.7413036959267
 21
103.0319932536754
 31
0.0
1001
PHOENIX7010
1002
{
1070
    41
1040
1.5
1002
}
  0
LINE
  5
1651
330
18
100
AcDbEntity
  8
0
  6
Continuous
 62
     7
100
AcDbLine
 10
98.20797850061422
 20
101.6986599203421
 30
0.0
 11
121.07463702926
 21
101.6986599203421
 31
0.0
1001
PHOENIX7010
1002
{
1070
    41
1040
1.5
1002
}
  0
LINE
  5
1652
330
18
100
AcDbEntity
  8
0
  6
Continuous
 62
     7
100
AcDbLine
 10
98.20797850061422
 20
101.6986599203421
 30
0.0
 11
98.20797850061422
 21
98.76533065601922
 31
0.0
1001
PHOENIX7010
1002
{
1070
    41
1040
1.5
1002
}
  0
LINE
  5
1653
330
18
100
AcDbEntity
  8
0
  6
Continuous
 62
     7
100
AcDbLine
 10
97.54131183394747
 20
98.76533065601922
 30
0.0
 11
98.20797850061422
 21
98.76533065601922
 31
0.0
1001
PHOENIX7010
1002
{
1070
    41
1040
1.5
1002
}
  0
LINE
  5
1654
330
18
100
AcDbEntity
  8
0
  6
Continuous
 62
     7
100
AcDbLine
 10
97.54131183394747
 20
98.76533065601922
 30
0.0
 11
97.54131183394747
 21
99.76533065601921
 31
0.0
1001
PHOENIX7010
1002
{
1070
    41
1040
1.5
1002
}
  0
ARC
  5
1655
330
18
100
AcDbEntity
  8
0
  6
Continuous
 62
     7
100
AcDbCircle
 10
97.20801919071845
 20
99.76526962086296
 30
0.0
 40
0.3333333333333333
100
AcDbArc
 50
0.0
 51
180.0
1001
PHOENIX7010
1002
{
1070
    41
1040
1.5
1002
}
  0
LINE
  5
1656
330
18
100
AcDbEntity
  8
0
  6
Continuous
 62
     7
100
AcDbLine
 10
96.87464516728097
 20
98.76533065601922
 30
0.0
 11
96.87464516728097
 21
99.76533065601921
 31
0.0
1001
PHOENIX7010
1002
{
1070
    41
1040
1.5
1002
}
  0
LINE
  5
1657
330
18
100
AcDbEntity
  8
0
  6
Continuous
 62
     7
100
AcDbLine
 10
96.20798867314034
 20
98.76533065601922
 30
0.0
 11
96.87464516728097
 21
98.76533065601922
 31
0.0
1001
PHOENIX7010
1002
{
1070
    41
1040
1.5
1002
}
  0
LINE
  5
1658
330
18
100
AcDbEntity
  8
0
  6
Continuous
 62
     1
100
AcDbLine
 10
96.20798867314034
 20
127.2986558513317
 30
0.0
 11
89.26787433394748
 21
128.2123317953421
 31
0.0
1001
PHOENIX7010
1002
{
1070
    41
1040
1.5
1002
}
  0
LINE
  5
1659
330
18
100
AcDbEntity
  8
0
  6
Continuous
 62
     1
100
AcDbLine
 10
96.20798867314034
 20
127.2986558513317
 30
0.0
 11
89.26787433394748
 21
126.3849799073213
 31
0.0
1001
PHOENIX7010
1002
{
1070
    41
1040
1.5
1002
}
  0
LINE
  5
165A
330
18
100
AcDbEntity
  8
0
  6
Continuous
 62
     1
100
AcDbLine
 10
98.20797850061422
 20
127.2986558513317
 30
0.0
 11
105.1480928398068
 21
128.2123317953421
 31
0.0
1001
PHOENIX7010
1002
{
1070
    41
1040
1.5
1002
}
  0
LINE
  5
165B
330
18
100
AcDbEntity
  8
0
  6
Continuous
 62
     1
100
AcDbLine
 10
98.20797850061422
 20
127.2986558513317
 30
0.0
 11
105.1480928398068
 21
126.3849799073213
 31
0.0
1001
PHOENIX7010
1002
{
1070
    41
1040
1.5
1002
}
  0
TEXT
  5
165C
330
18
100
AcDbEntity
  8
0
 62
     5
100
AcDbText
 10
108.2079785006142
 20
129.2986558513317
 30
0.0
 40
7.0
  1
3  
100
AcDbText
1001
PHOENIX7010
1002
{
1070
    41
1040
1.5
1002
}
  0
LINE
  5
165D
330
18
100
AcDbEntity
  8
0
  6
Continuous
 62
     1
100
AcDbLine
 10
96.20798867314034
 20
117.2986558513317
 30
0.0
 11
96.20798867314034
 21
131.2986558513317
 31
0.0
1001
PHOENIX7010
1002
{
1070
    41
1040
1.5
1002
}
  0
LINE
  5
165E
330
18
100
AcDbEntity
  8
0
  6
Continuous
 62
     1
100
AcDbLine
 10
98.20797850061422
 20
117.2986558513317
 30
0.0
 11
98.20797850061422
 21
131.2986558513317
 31
0.0
1001
PHOENIX7010
1002
{
1070
    41
1040
1.5
1002
}
  0
LINE
  5
165F
330
18
100
AcDbEntity
  8
0
  6
Continuous
 62
     1
100
AcDbLine
 10
83.41689166793186
 20
127.2986558513317
 30
0.0
 11
114.4612235364216
 21
127.2986558513317
 31
0.0
1001
PHOENIX7010
1002
{
1070
    41
1040
1.5
1002
}
  0
LINE
  5
1660
330
18
100
AcDbEntity
  8
0
  6
Continuous
 62
     1
100
AcDbLine
 10
83.41700356571847
 20
265.6319281495088
 30
0.0
 11
98.2080903984006
 21
265.6319281495088
 31
0.0
1001
PHOENIX7010
1002
{
1070
    41
1040
1.5
1002
}
  0
LINE
  5
1661
330
18
100
AcDbEntity
  8
0
  6
Continuous
 62
     1
100
AcDbLine
 10
96.20810057092672
 20
265.6319281495088
 30
0.0
 11
89.26798623173409
 21
266.5456244385713
 31
0.0
1001
PHOENIX7010
1002
{
1070
    41
1040
1.5
1002
}
  0
LINE
  5
1662
330
18
100
AcDbEntity
  8
0
  6
Continuous
 62
     1
100
AcDbLine
 10
96.20810057092672
 20
265.6319281495088
 30
0.0
 11
89.26798623173409
 21
264.7182318604464
 31
0.0
1001
PHOENIX7010
1002
{
1070
    41
1040
1.5
1002
}
  0
TEXT
  5
1663
330
18
100
AcDbEntity
  8
0
 62
     5
100
AcDbText
 10
84.51124184696846
 20
267.6577663656546
 30
0.0
 40
7.0
  1
3  
100
AcDbText
1001
PHOENIX7010
1002
{
1070
    41
1040
1.5
1002
}
  0
LINE
  5
1664
330
18
100
AcDbEntity
  8
0
  6
Continuous
 62
     1
100
AcDbLine
 10
96.20810057092672
 20
232.2985948161754
 30
0.0
 11
96.20810057092672
 21
246.1512152588838
 31
0.0
1001
PHOENIX7010
1002
{
1070
    41
1040
1.5
1002
}
  0
LINE
  5
1665
330
18
100
AcDbEntity
  8
0
  6
Continuous
 62
     1
100
AcDbLine
 10
96.20810057092672
 20
256.8018500245088
 30
0.0
 11
96.20810057092672
 21
269.6319281495088
 31
0.0
1001
PHOENIX7010
1002
{
1070
    41
1040
1.5
1002
}
  0
LINE
  5
1666
330
18
100
AcDbEntity
  8
0
  6
Continuous
 62
     1
100
AcDbLine
 10
254.8746553398069
 20
100.3653265870088
 30
0.0
 11
275.5412406262653
 21
100.3653265870088
 31
0.0
1001
PHOENIX7010
1002
{
1070
    41
1040
1.5
1002
}
  0
LINE
  5
1667
330
18
100
AcDbEntity
  8
0
  6
Continuous
 62
     1
100
AcDbLine
 10
254.8746553398069
 20
101.6986599203421
 30
0.0
 11
275.5412406262653
 21
101.6986599203421
 31
0.0
1001
PHOENIX7010
1002
{
1070
    41
1040
1.5
1002
}
  0
LINE
  5
1668
330
18
100
AcDbEntity
  8
0
  6
Continuous
 62
     1
100
AcDbLine
 10
271.5412406262653
 20
100.3653265870088
 30
0.0
 11
270.6275646822549
 21
93.42522242034215
 31
0.0
1001
PHOENIX7010
1002
{
1070
    41
1040
1.5
1002
}
  0
LINE
  5
1669
330
18
100
AcDbEntity
  8
0
  6
Continuous
 62
     1
100
AcDbLine
 10
271.5412406262653
 20
100.3653265870088
 30
0.0
 11
272.4549165702756
 21
93.42522242034215
 31
0.0
1001
PHOENIX7010
1002
{
1070
    41
1040
1.5
1002
}
  0
LINE
  5
166A
330
18
100
AcDbEntity
  8
0
  6
Continuous
 62
     1
100
AcDbLine
 10
271.5412406262653
 20
101.6986599203421
 30
0.0
 11
270.6275646822549
 21
108.6387640870088
 31
0.0
1001
PHOENIX7010
1002
{
1070
    41
1040
1.5
1002
}
  0
LINE
  5
166B
330
18
100
AcDbEntity
  8
0
  6
Continuous
 62
     1
100
AcDbLine
 10
271.5412406262653
 20
101.6986599203421
 30
0.0
 11
272.4549165702756
 21
108.6387640870088
 31
0.0
1001
PHOENIX7010
1002
{
1070
    41
1040
1.5
1002
}
  0
TEXT
  5
166C
330
18
100
AcDbEntity
  8
0
 62
     5
100
AcDbText
 10
269.5412406262653
 20
111.6986599203421
 30
0.0
 40
7.0
  1
2  
 50
90.0
100
AcDbText
1001
PHOENIX7010
1002
{
1070
    41
1040
1.5
1002
}
  0
LINE
  5
166D
330
18
100
AcDbEntity
  8
0
  6
Continuous
 62
     1
100
AcDbLine
 10
271.5412406262653
 20
86.36532658700884
 30
0.0
 11
271.5412406262653
 21
118.7679958578421
 31
0.0
1001
PHOENIX7010
1002
{
1070
    41
1040
1.5
1002
}
  0
LINE
  5
166E
330
18
100
AcDbEntity
  8
0
  6
Continuous
 62
     7
100
AcDbLine
 10
320.0745658215778
 20
232.2985948161754
 30
0.0
 11
320.0745658215778
 21
143.9652614828421
 31
0.0
1001
PHOENIX7010
1002
{
1070
    41
1040
1.5
1002
}
  0
LINE
  5
166F
330
18
100
AcDbEntity
  8
0
  6
Continuous
 62
     7
100
AcDbLine
 10
301.5412406262653
 20
143.9652614828421
 30
0.0
 11
320.0745658215778
 21
143.9652614828421
 31
0.0
1001
PHOENIX7010
1002
{
1070
    41
1040
1.5
1002
}
  0
LINE
  5
1670
330
18
100
AcDbEntity
  8
0
  6
Continuous
 62
     7
100
AcDbLine
 10
301.5412406262653
 20
232.2985948161754
 30
0.0
 11
301.5412406262653
 21
143.9652614828421
 31
0.0
1001
PHOENIX7010
1002
{
1070
    41
1040
1.5
1002
}
  0
LINE
  5
1671
330
18
100
AcDbEntity
  8
0
  6
Continuous
 62
     7
100
AcDbLine
 10
301.5412406262653
 20
232.2985948161754
 30
0.0
 11
320.0745658215778
 21
232.2985948161754
 31
0.0
1001
PHOENIX7010
1002
{
1070
    41
1040
1.5
1002
}
  0
LINE
  5
1672
330
18
100
AcDbEntity
  8
0
  6
ACAD_ISO02W100
 62
     5
100
AcDbLine
 10
315.8079235689736
 20
232.2985948161754
 30
0.0
 11
315.8079235689736
 21
143.9652614828421
 31
0.0
1001
PHOENIX7010
1002
{
1070
    41
1040
1.5
1002
}
  0
LINE
  5
1673
330
18
100
AcDbEntity
  8
0
  6
ACAD_ISO02W100
 62
     5
100
AcDbLine
 10
317.1412569023069
 20
232.2985948161754
 30
0.0
 11
317.1412569023069
 21
143.9652614828421
 31
0.0
1001
PHOENIX7010
1002
{
1070
    41
1040
1.5
1002
}
  0
LINE
  5
1674
330
18
100
AcDbEntity
  8
0
  6
ACAD_ISO02W100
 62
     5
100
AcDbLine
 10
318.4745902356403
 20
232.2985948161754
 30
0.0
 11
318.4745902356403
 21
143.9652614828421
 31
0.0
1001
PHOENIX7010
1002
{
1070
    41
1040
1.5
1002
}
  0
ARC
  5
1675
330
18
100
AcDbEntity
  8
0
  6
Continuous
 62
     7
100
AcDbCircle
 10
307.4078991549111
 20
169.0986029541963
 30
0.0
 40
3.46666653951009
100
AcDbArc
 50
133.8500671386703
 51
226.1499328613297
1001
PHOENIX7010
1002
{
1070
    41
1040
1.5
1002
}
  0
ARC
  5
1676
330
18
100
AcDbEntity
  8
0
  6
Continuous
 62
     7
100
AcDbCircle
 10
307.4078991549111
 20
169.0986029541963
 30
0.0
 40
3.46666653951009
100
AcDbArc
 50
313.8501892089874
 51
46.14981079101258
1001
PHOENIX7010
1002
{
1070
    41
1040
1.5
1002
}
  0
LINE
  5
1677
330
18
100
AcDbEntity
  8
0
  6
Continuous
 62
     7
100
AcDbLine
 10
309.8095104830361
 20
166.5986029541963
 30
0.0
 11
305.0062878267861
 21
166.5986029541963
 31
0.0
1001
PHOENIX7010
1002
{
1070
    41
1040
1.5
1002
}
  0
LINE
  5
1678
330
18
100
AcDbEntity
  8
0
  6
Continuous
 62
     7
100
AcDbLine
 10
309.8095104830361
 20
171.5986029541963
 30
0.0
 11
305.0062878267861
 21
171.5986029541963
 31
0.0
1001
PHOENIX7010
1002
{
1070
    41
1040
1.5
1002
}
  0
ARC
  5
1679
330
18
100
AcDbEntity
  8
0
  6
Continuous
 62
     7
100
AcDbCircle
 10
307.4078991549111
 20
207.1652736898733
 30
0.0
 40
3.46666653951009
100
AcDbArc
 50
133.8500671386703
 51
226.1499328613297
1001
PHOENIX7010
1002
{
1070
    41
1040
1.5
1002
}
  0
ARC
  5
167A
330
18
100
AcDbEntity
  8
0
  6
Continuous
 62
     7
100
AcDbCircle
 10
307.4078991549111
 20
207.1652736898733
 30
0.0
 40
3.46666653951009
100
AcDbArc
 50
313.8501892089874
 51
46.14981079101258
1001
PHOENIX7010
1002
{
1070
    41
1040
1.5
1002
}
  0
LINE
  5
167B
330
18
100
AcDbEntity
  8
0
  6
Continuous
 62
     7
100
AcDbLine
 10
309.8095104830361
 20
209.6652736898733
 30
0.0
 11
305.0062878267861
 21
209.6652736898733
 31
0.0
1001
PHOENIX7010
1002
{
1070
    41
1040
1.5
1002
}
  0
LINE
  5
167C
330
18
100
AcDbEntity
  8
0
  6
Continuous
 62
     7
100
AcDbLine
 10
309.8095104830361
 20
204.6652736898733
 30
0.0
 11
305.0062878267861
 21
204.6652736898733
 31
0.0
1001
PHOENIX7010
1002
{
1070
    41
1040
1.5
1002
}
  0
LINE
  5
167D
330
18
100
AcDbEntity
  8
0
  6
Continuous
 62
     1
100
AcDbLine
 10
301.5412406262653
 20
143.9652818278942
 30
0.0
 11
301.5412406262653
 21
123.2986151612276
 31
0.0
1001
PHOENIX7010
1002
{
1070
    41
1040
1.5
1002
}
  0
LINE
  5
167E
330
18
100
AcDbEntity
  8
0
  6
Continuous
 62
     1
100
AcDbLine
 10
307.4078991549111
 20
169.0986232992483
 30
0.0
 11
307.4078991549111
 21
123.2986151612276
 31
0.0
1001
PHOENIX7010
1002
{
1070
    41
1040
1.5
1002
}
  0
LINE
  5
167F
330
18
100
AcDbEntity
  8
0
  6
Continuous
 62
     1
100
AcDbLine
 10
301.5412406262653
 20
127.2986151612276
 30
0.0
 11
294.6011364595986
 21
128.2122911052379
 31
0.0
1001
PHOENIX7010
1002
{
1070
    41
1040
1.5
1002
}
  0
LINE
  5
1680
330
18
100
AcDbEntity
  8
0
  6
Continuous
 62
     1
100
AcDbLine
 10
301.5412406262653
 20
127.2986151612276
 30
0.0
 11
294.6011364595986
 21
126.3849392172171
 31
0.0
1001
PHOENIX7010
1002
{
1070
    41
1040
1.5
1002
}
  0
LINE
  5
1681
330
18
100
AcDbEntity
  8
0
  6
Continuous
 62
     1
100
AcDbLine
 10
307.4078991549111
 20
127.2986151612276
 30
0.0
 11
314.3480033215778
 21
128.2122911052379
 31
0.0
1001
PHOENIX7010
1002
{
1070
    41
1040
1.5
1002
}
  0
LINE
  5
1682
330
18
100
AcDbEntity
  8
0
  6
Continuous
 62
     1
100
AcDbLine
 10
307.4078991549111
 20
127.2986151612276
 30
0.0
 11
314.3480033215778
 21
126.3849392172171
 31
0.0
1001
PHOENIX7010
1002
{
1070
    41
1040
1.5
1002
}
  0
TEXT
  5
1683
330
18
100
AcDbEntity
  8
0
 62
     5
100
AcDbText
 10
317.4078991549111
 20
129.2986151612276
 30
0.0
 40
7.0
  1
8.8
100
AcDbText
1001
PHOENIX7010
1002
{
1070
    41
1040
1.5
1002
}
  0
LINE
  5
1684
330
18
100
AcDbEntity
  8
0
  6
Continuous
 62
     1
100
AcDbLine
 10
288.6778576510049
 20
127.2986151612276
 30
0.0
 11
331.2743542330361
 21
127.2986151612276
 31
0.0
1001
PHOENIX7010
1002
{
1070
    41
1040
1.5
1002
}
  0
LINE
  5
1685
330
18
100
AcDbEntity
  8
0
  6
Continuous
 62
     1
100
AcDbLine
 10
336.7412324882443
 20
169.0986232992483
 30
0.0
 11
336.7412324882443
 21
207.1652940349255
 31
0.0
1001
PHOENIX7010
1002
{
1070
    41
1040
1.5
1002
}
  0
LINE
  5
1686
330
18
100
AcDbEntity
  8
0
  6
Continuous
 62
     1
100
AcDbLine
 10
307.4078991549111
 20
169.0986232992483
 30
0.0
 11
340.7412324882443
 21
169.0986232992483
 31
0.0
1001
PHOENIX7010
1002
{
1070
    41
1040
1.5
1002
}
  0
LINE
  5
1687
330
18
100
AcDbEntity
  8
0
  6
Continuous
 62
     1
100
AcDbLine
 10
307.4078991549111
 20
207.1652940349255
 30
0.0
 11
340.7412324882443
 21
207.1652940349255
 31
0.0
1001
PHOENIX7010
1002
{
1070
    41
1040
1.5
1002
}
  0
LINE
  5
1688
330
18
100
AcDbEntity
  8
0
  6
Continuous
 62
     1
100
AcDbLine
 10
336.7412324882443
 20
169.0986232992483
 30
0.0
 11
335.8275361991819
 21
176.0387478109671
 31
0.0
1001
PHOENIX7010
1002
{
1070
    41
1040
1.5
1002
}
  0
LINE
  5
1689
330
18
100
AcDbEntity
  8
0
  6
Continuous
 62
     1
100
AcDbLine
 10
336.7412324882443
 20
169.0986232992483
 30
0.0
 11
337.6549287773069
 21
176.0387478109671
 31
0.0
1001
PHOENIX7010
1002
{
1070
    41
1040
1.5
1002
}
  0
LINE
  5
168A
330
18
100
AcDbEntity
  8
0
  6
Continuous
 62
     1
100
AcDbLine
 10
336.7412324882443
 20
207.1652940349255
 30
0.0
 11
335.8275361991819
 21
200.2251695232067
 31
0.0
1001
PHOENIX7010
1002
{
1070
    41
1040
1.5
1002
}
  0
LINE
  5
168B
330
18
100
AcDbEntity
  8
0
  6
Continuous
 62
     1
100
AcDbLine
 10
336.7412324882443
 20
207.1652940349255
 30
0.0
 11
337.6549287773069
 21
200.2251695232067
 31
0.0
1001
PHOENIX7010
1002
{
1070
    41
1040
1.5
1002
}
  0
TEXT
  5
168C
330
18
100
AcDbEntity
  8
0
 62
     5
100
AcDbText
 10
334.7412324882443
 20
179.5217418016474
 30
0.0
 40
7.0
  1
57.2
 50
90.0
 72
     1
 11
334.7412324882443
 21
188.1319484945608
 31
0.0
100
AcDbText
1001
PHOENIX7010
1002
{
1070
    41
1040
1.5
1002
}
  0
LINE
  5
168D
330
18
100
AcDbEntity
  8
0
  6
Continuous
 62
     1
100
AcDbLine
 10
96.20798867314034
 20
98.76533065601922
 30
0.0
 11
75.54132200647359
 21
98.76533065601922
 31
0.0
1001
PHOENIX7010
1002
{
1070
    41
1040
1.5
1002
}
  0
LINE
  5
168E
330
18
100
AcDbEntity
  8
0
  6
Continuous
 62
     1
100
AcDbLine
 10
79.54132200647359
 20
98.76533065601922
 30
0.0
 11
78.62763588993721
 21
91.82522648935259
 31
0.0
1001
PHOENIX7010
1002
{
1070
    41
1040
1.5
1002
}
  0
LINE
  5
168F
330
18
100
AcDbEntity
  8
0
  6
Continuous
 62
     1
100
AcDbLine
 10
79.54132200647359
 20
98.76533065601922
 30
0.0
 11
80.45500812300998
 21
91.82522648935259
 31
0.0
1001
PHOENIX7010
1002
{
1070
    41
1040
1.5
1002
}
  0
LINE
  5
1690
330
18
100
AcDbEntity
  8
0
  6
Continuous
 62
     1
100
AcDbLine
 10
79.54132200647359
 20
101.6986599203421
 30
0.0
 11
78.62763588993721
 21
108.6387640870088
 31
0.0
1001
PHOENIX7010
1002
{
1070
    41
1040
1.5
1002
}
  0
LINE
  5
1691
330
18
100
AcDbEntity
  8
0
  6
Continuous
 62
     1
100
AcDbLine
 10
79.54132200647359
 20
101.6986599203421
 30
0.0
 11
80.45500812300998
 21
108.6387640870088
 31
0.0
1001
PHOENIX7010
1002
{
1070
    41
1040
1.5
1002
}
  0
TEXT
  5
1692
330
18
100
AcDbEntity
  8
0
 62
     5
100
AcDbText
 10
77.54132200647359
 20
111.6986599203421
 30
0.0
 40
7.0
  1
4.4
 50
90.0
100
AcDbText
1001
PHOENIX7010
1002
{
1070
    41
1040
1.5
1002
}
  0
LINE
  5
1693
330
18
100
AcDbEntity
  8
0
  6
Continuous
 62
     1
100
AcDbLine
 10
97.01427325972872
 20
101.6986599203421
 30
0.0
 11
75.54132200647359
 21
101.6986599203421
 31
0.0
1001
PHOENIX7010
1002
{
1070
    41
1040
1.5
1002
}
  0
LINE
  5
1694
330
18
100
AcDbEntity
  8
0
  6
Continuous
 62
     1
100
AcDbLine
 10
79.54132200647359
 20
84.76533065601921
 30
0.0
 11
79.54132200647359
 21
123.5180568929983
 31
0.0
1001
PHOENIX7010
1002
{
1070
    41
1040
1.5
1002
}
  0
LINE
  5
1695
102
{ACAD_REACTORS
330
15E9
330
15E7
102
}
330
18
100
AcDbEntity
  8
0
  6
Continuous
 62
     1
100
AcDbLine
 10
301.5412202812131
 20
248.9653021729463
 30
0.0
 11
320.0745658215778
 21
248.9653021729463
 31
0.0
1001
PHOENIX7010
1002
{
1070
    41
1040
1.5
1002
}
  0
LINE
  5
1696
102
{ACAD_REACTORS
330
15E9
330
15E7
102
}
330
18
100
AcDbEntity
  8
0
  6
Continuous
 62
     1
100
AcDbLine
 10
301.5412202812131
 20
232.2983506755505
 30
0.0
 11
301.5412202812131
 21
252.9653021729463
 31
0.0
1001
PHOENIX7010
1002
{
1070
    41
1040
1.5
1002
}
  0
LINE
  5
1697
102
{ACAD_REACTORS
330
15E9
330
15E7
102
}
330
18
100
AcDbEntity
  8
0
  6
Continuous
 62
     1
100
AcDbLine
 10
301.5412202812131
 20
248.9653021729463
 30
0.0
 11
308.4813447929318
 21
249.8789984620088
 31
0.0
1001
PHOENIX7010
1002
{
1070
    41
1040
1.5
1002
}
  0
LINE
  5
1698
102
{ACAD_REACTORS
330
15E9
330
15E7
102
}
330
18
100
AcDbEntity
  8
0
  6
Continuous
 62
     1
100
AcDbLine
 10
301.5412202812131
 20
248.9653021729463
 30
0.0
 11
308.4813447929318
 21
248.0516058838838
 31
0.0
1001
PHOENIX7010
1002
{
1070
    41
1040
1.5
1002
}
  0
LINE
  5
1699
102
{ACAD_REACTORS
330
15E9
330
15E7
102
}
330
18
100
AcDbEntity
  8
0
  6
Continuous
 62
     1
100
AcDbLine
 10
320.0745658215778
 20
248.9653021729463
 30
0.0
 11
313.1344616549111
 21
249.8789984620088
 31
0.0
1001
PHOENIX7010
1002
{
1070
    41
1040
1.5
1002
}
  0
LINE
  5
169A
102
{ACAD_REACTORS
330
15E9
330
15E7
102
}
330
18
100
AcDbEntity
  8
0
  6
Continuous
 62
     1
100
AcDbLine
 10
320.0745658215778
 20
248.9653021729463
 30
0.0
 11
313.1344616549111
 21
248.0516058838838
 31
0.0
1001
PHOENIX7010
1002
{
1070
    41
1040
1.5
1002
}
  0
TEXT
  5
169B
102
{ACAD_REACTORS
330
15E9
330
15E7
102
}
330
18
100
AcDbEntity
  8
0
 62
     5
100
AcDbText
 10
302.4967608316253
 20
250.9653021729463
 30
0.0
 40
7.0
  1
27.8
 72
     1
 11
310.8078828788694
 21
250.9653021729463
 31
0.0
100
AcDbText
1001
PHOENIX7010
1002
{
1070
    41
1040
1.5
1002
}
  0
LINE
  5
169C
102
{ACAD_REACTORS
330
15E9
330
15E7
102
}
330
18
100
AcDbEntity
  8
0
  6
Continuous
 62
     1
100
AcDbLine
 10
320.0745658215778
 20
232.2985948161754
 30
0.0
 11
320.0745658215778
 21
252.9653021729463
 31
0.0
1001
PHOENIX7010
1002
{
1070
    41
1040
1.5
1002
}
  0
LINE
  5
169D
102
{ACAD_REACTORS
330
15E4
330
15E7
102
}
330
18
100
AcDbEntity
  8
0
  6
Continuous
 62
     1
100
AcDbLine
 10
307.4078991549111
 20
169.0986232992483
 30
0.0
 11
326.7412324882443
 21
150.6319281495088
 31
0.0
1001
PHOENIX7010
1002
{
1070
    41
1040
1.5
1002
}
  0
LINE
  5
169E
102
{ACAD_REACTORS
330
15E4
330
15E7
102
}
330
18
100
AcDbEntity
  8
0
  6
Continuous
 62
     1
100
AcDbLine
 10
326.7412324882443
 20
150.6319281495088
 30
0.0
 11
364.3602917330361
 21
150.6319281495088
 31
0.0
1001
PHOENIX7010
1002
{
1070
    41
1040
1.5
1002
}
  0
TEXT
  5
169F
102
{ACAD_REACTORS
330
15E4
330
15E7
102
}
330
18
100
AcDbEntity
  8
0
 62
     5
100
AcDbText
 10
328.6336885429319
 20
152.7213649984671
 30
0.0
 40
7.0
  1
10.4 x 7.5
100
AcDbText
1001
PHOENIX7010
1002
{
1070
    41
1040
1.5
1002
}
  0
CIRCLE
  5
173B
330
18
100
AcDbEntity
  8
0
  6
Continuous
 62
     7
100
AcDbCircle
 10
106.5413220064736
 20
147.6319891846651
 30
0.0
 40
1.533333301544189
1001
PHOENIX7010
1002
{
1070
    41
1040
1.5
1002
}
  0
CIRCLE
  5
173C
330
18
100
AcDbEntity
  8
0
  6
Continuous
 62
     7
100
AcDbCircle
 10
116.5413220064736
 20
147.6319891846651
 30
0.0
 40
1.533333301544189
1001
PHOENIX7010
1002
{
1070
    41
1040
1.5
1002
}
  0
CIRCLE
  5
173D
330
18
100
AcDbEntity
  8
0
  6
Continuous
 62
     7
100
AcDbCircle
 10
126.5413220064736
 20
147.6319891846651
 30
0.0
 40
1.533333301544189
1001
PHOENIX7010
1002
{
1070
    41
1040
1.5
1002
}
  0
CIRCLE
  5
173E
330
18
100
AcDbEntity
  8
0
  6
Continuous
 62
     7
100
AcDbCircle
 10
136.5413220064736
 20
147.6319891846651
 30
0.0
 40
1.533333301544189
1001
PHOENIX7010
1002
{
1070
    41
1040
1.5
1002
}
  0
CIRCLE
  5
173F
330
18
100
AcDbEntity
  8
0
  6
Continuous
 62
     7
100
AcDbCircle
 10
146.5413220064736
 20
147.6319891846651
 30
0.0
 40
1.533333301544189
1001
PHOENIX7010
1002
{
1070
    41
1040
1.5
1002
}
  0
CIRCLE
  5
1740
330
18
100
AcDbEntity
  8
0
  6
Continuous
 62
     7
100
AcDbCircle
 10
156.5413220064736
 20
147.6319891846651
 30
0.0
 40
1.533333301544189
1001
PHOENIX7010
1002
{
1070
    41
1040
1.5
1002
}
  0
CIRCLE
  5
1741
330
18
100
AcDbEntity
  8
0
  6
Continuous
 62
     7
100
AcDbCircle
 10
166.5413220064736
 20
147.6319891846651
 30
0.0
 40
1.533333301544189
1001
PHOENIX7010
1002
{
1070
    41
1040
1.5
1002
}
  0
CIRCLE
  5
1742
330
18
100
AcDbEntity
  8
0
  6
Continuous
 62
     7
100
AcDbCircle
 10
176.5413220064736
 20
147.6319891846651
 30
0.0
 40
1.533333301544189
1001
PHOENIX7010
1002
{
1070
    41
1040
1.5
1002
}
  0
CIRCLE
  5
1743
330
18
100
AcDbEntity
  8
0
  6
Continuous
 62
     7
100
AcDbCircle
 10
186.5413220064736
 20
147.6319891846651
 30
0.0
 40
1.533333301544189
1001
PHOENIX7010
1002
{
1070
    41
1040
1.5
1002
}
  0
CIRCLE
  5
1744
330
18
100
AcDbEntity
  8
0
  6
Continuous
 62
     7
100
AcDbCircle
 10
196.5413220064736
 20
147.6319891846651
 30
0.0
 40
1.533333301544189
1001
PHOENIX7010
1002
{
1070
    41
1040
1.5
1002
}
  0
CIRCLE
  5
1745
330
18
100
AcDbEntity
  8
0
  6
Continuous
 62
     7
100
AcDbCircle
 10
206.5413220064736
 20
147.6319891846651
 30
0.0
 40
1.533333301544189
1001
PHOENIX7010
1002
{
1070
    41
1040
1.5
1002
}
  0
CIRCLE
  5
1746
330
18
100
AcDbEntity
  8
0
  6
Continuous
 62
     7
100
AcDbCircle
 10
216.5413220064736
 20
147.6319891846651
 30
0.0
 40
1.533333301544189
1001
PHOENIX7010
1002
{
1070
    41
1040
1.5
1002
}
  0
CIRCLE
  5
1747
330
18
100
AcDbEntity
  8
0
  6
Continuous
 62
     7
100
AcDbCircle
 10
226.5413220064736
 20
147.6319891846651
 30
0.0
 40
1.533333301544189
1001
PHOENIX7010
1002
{
1070
    41
1040
1.5
1002
}
  0
CIRCLE
  5
1748
330
18
100
AcDbEntity
  8
0
  6
Continuous
 62
     7
100
AcDbCircle
 10
236.5413220064736
 20
147.6319891846651
 30
0.0
 40
1.533333301544189
1001
PHOENIX7010
1002
{
1070
    41
1040
1.5
1002
}
  0
CIRCLE
  5
1749
330
18
100
AcDbEntity
  8
0
  6
Continuous
 62
     7
100
AcDbCircle
 10
246.5412406262653
 20
147.6319891846651
 30
0.0
 40
1.533333301544189
1001
PHOENIX7010
1002
{
1070
    41
1040
1.5
1002
}
  0
LINE
  5
174A
330
18
100
AcDbEntity
  8
0
  6
Continuous
 62
     7
100
AcDbLine
 10
99.87465533980685
 20
152.9653225179983
 30
0.0
 11
99.87465533980685
 21
150.2986558513317
 31
0.0
1001
PHOENIX7010
1002
{
1070
    41
1040
1.5
1002
}
  0
LINE
  5
174B
330
18
100
AcDbEntity
  8
0
  6
Continuous
 62
     7
100
AcDbLine
 10
99.87465533980685
 20
150.2986558513317
 30
0.0
 11
103.2079886731403
 21
150.2986558513317
 31
0.0
1001
PHOENIX7010
1002
{
1070
    41
1040
1.5
1002
}
  0
LINE
  5
174C
330
18
100
AcDbEntity
  8
0
  6
Continuous
 62
     7
100
AcDbLine
 10
103.2079886731403
 20
150.2986558513317
 30
0.0
 11
103.2079886731403
 21
152.9653225179983
 31
0.0
1001
PHOENIX7010
1002
{
1070
    41
1040
1.5
1002
}
  0
LINE
  5
174D
330
18
100
AcDbEntity
  8
0
  6
Continuous
 62
     7
100
AcDbLine
 10
109.8746553398068
 20
152.9653225179983
 30
0.0
 11
109.8746553398068
 21
150.2986558513317
 31
0.0
1001
PHOENIX7010
1002
{
1070
    41
1040
1.5
1002
}
  0
LINE
  5
174E
330
18
100
AcDbEntity
  8
0
  6
Continuous
 62
     7
100
AcDbLine
 10
109.8746553398068
 20
150.2986558513317
 30
0.0
 11
113.2079886731403
 21
150.2986558513317
 31
0.0
1001
PHOENIX7010
1002
{
1070
    41
1040
1.5
1002
}
  0
LINE
  5
174F
330
18
100
AcDbEntity
  8
0
  6
Continuous
 62
     7
100
AcDbLine
 10
113.2079886731403
 20
150.2986558513317
 30
0.0
 11
113.2079886731403
 21
152.9653225179983
 31
0.0
1001
PHOENIX7010
1002
{
1070
    41
1040
1.5
1002
}
  0
LINE
  5
1750
330
18
100
AcDbEntity
  8
0
  6
Continuous
 62
     7
100
AcDbLine
 10
119.8746553398068
 20
152.9653225179983
 30
0.0
 11
119.8746553398068
 21
150.2986558513317
 31
0.0
1001
PHOENIX7010
1002
{
1070
    41
1040
1.5
1002
}
  0
LINE
  5
1751
330
18
100
AcDbEntity
  8
0
  6
Continuous
 62
     7
100
AcDbLine
 10
119.8746553398068
 20
150.2986558513317
 30
0.0
 11
123.2079886731403
 21
150.2986558513317
 31
0.0
1001
PHOENIX7010
1002
{
1070
    41
1040
1.5
1002
}
  0
LINE
  5
1752
330
18
100
AcDbEntity
  8
0
  6
Continuous
 62
     7
100
AcDbLine
 10
123.2079886731403
 20
150.2986558513317
 30
0.0
 11
123.2079886731403
 21
152.9653225179983
 31
0.0
1001
PHOENIX7010
1002
{
1070
    41
1040
1.5
1002
}
  0
LINE
  5
1753
330
18
100
AcDbEntity
  8
0
  6
Continuous
 62
     7
100
AcDbLine
 10
129.8746553398068
 20
152.9653225179983
 30
0.0
 11
129.8746553398068
 21
150.2986558513317
 31
0.0
1001
PHOENIX7010
1002
{
1070
    41
1040
1.5
1002
}
  0
LINE
  5
1754
330
18
100
AcDbEntity
  8
0
  6
Continuous
 62
     7
100
AcDbLine
 10
129.8746553398068
 20
150.2986558513317
 30
0.0
 11
133.2079886731403
 21
150.2986558513317
 31
0.0
1001
PHOENIX7010
1002
{
1070
    41
1040
1.5
1002
}
  0
LINE
  5
1755
330
18
100
AcDbEntity
  8
0
  6
Continuous
 62
     7
100
AcDbLine
 10
133.2079886731403
 20
150.2986558513317
 30
0.0
 11
133.2079886731403
 21
152.9653225179983
 31
0.0
1001
PHOENIX7010
1002
{
1070
    41
1040
1.5
1002
}
  0
LINE
  5
1756
330
18
100
AcDbEntity
  8
0
  6
Continuous
 62
     7
100
AcDbLine
 10
139.8746553398068
 20
152.9653225179983
 30
0.0
 11
139.8746553398068
 21
150.2986558513317
 31
0.0
1001
PHOENIX7010
1002
{
1070
    41
1040
1.5
1002
}
  0
LINE
  5
1757
330
18
100
AcDbEntity
  8
0
  6
Continuous
 62
     7
100
AcDbLine
 10
139.8746553398068
 20
150.2986558513317
 30
0.0
 11
143.2079886731403
 21
150.2986558513317
 31
0.0
1001
PHOENIX7010
1002
{
1070
    41
1040
1.5
1002
}
  0
LINE
  5
1758
330
18
100
AcDbEntity
  8
0
  6
Continuous
 62
     7
100
AcDbLine
 10
143.2079886731403
 20
150.2986558513317
 30
0.0
 11
143.2079886731403
 21
152.9653225179983
 31
0.0
1001
PHOENIX7010
1002
{
1070
    41
1040
1.5
1002
}
  0
LINE
  5
1759
330
18
100
AcDbEntity
  8
0
  6
Continuous
 62
     7
100
AcDbLine
 10
149.8746553398068
 20
152.9653225179983
 30
0.0
 11
149.8746553398068
 21
150.2986558513317
 31
0.0
1001
PHOENIX7010
1002
{
1070
    41
1040
1.5
1002
}
  0
LINE
  5
175A
330
18
100
AcDbEntity
  8
0
  6
Continuous
 62
     7
100
AcDbLine
 10
149.8746553398068
 20
150.2986558513317
 30
0.0
 11
153.2079886731403
 21
150.2986558513317
 31
0.0
1001
PHOENIX7010
1002
{
1070
    41
1040
1.5
1002
}
  0
LINE
  5
175B
330
18
100
AcDbEntity
  8
0
  6
Continuous
 62
     7
100
AcDbLine
 10
153.2079886731403
 20
150.2986558513317
 30
0.0
 11
153.2079886731403
 21
152.9653225179983
 31
0.0
1001
PHOENIX7010
1002
{
1070
    41
1040
1.5
1002
}
  0
LINE
  5
175C
330
18
100
AcDbEntity
  8
0
  6
Continuous
 62
     7
100
AcDbLine
 10
159.8746553398068
 20
152.9653225179983
 30
0.0
 11
159.8746553398068
 21
150.2986558513317
 31
0.0
1001
PHOENIX7010
1002
{
1070
    41
1040
1.5
1002
}
  0
LINE
  5
175D
330
18
100
AcDbEntity
  8
0
  6
Continuous
 62
     7
100
AcDbLine
 10
159.8746553398068
 20
150.2986558513317
 30
0.0
 11
163.2079886731403
 21
150.2986558513317
 31
0.0
1001
PHOENIX7010
1002
{
1070
    41
1040
1.5
1002
}
  0
LINE
  5
175E
330
18
100
AcDbEntity
  8
0
  6
Continuous
 62
     7
100
AcDbLine
 10
163.2079886731403
 20
150.2986558513317
 30
0.0
 11
163.2079886731403
 21
152.9653225179983
 31
0.0
1001
PHOENIX7010
1002
{
1070
    41
1040
1.5
1002
}
  0
LINE
  5
175F
330
18
100
AcDbEntity
  8
0
  6
Continuous
 62
     7
100
AcDbLine
 10
169.8746553398068
 20
152.9653225179983
 30
0.0
 11
169.8746553398068
 21
150.2986558513317
 31
0.0
1001
PHOENIX7010
1002
{
1070
    41
1040
1.5
1002
}
  0
LINE
  5
1760
330
18
100
AcDbEntity
  8
0
  6
Continuous
 62
     7
100
AcDbLine
 10
169.8746553398068
 20
150.2986558513317
 30
0.0
 11
173.2079886731403
 21
150.2986558513317
 31
0.0
1001
PHOENIX7010
1002
{
1070
    41
1040
1.5
1002
}
  0
LINE
  5
1761
330
18
100
AcDbEntity
  8
0
  6
Continuous
 62
     7
100
AcDbLine
 10
173.2079886731403
 20
150.2986558513317
 30
0.0
 11
173.2079886731403
 21
152.9653225179983
 31
0.0
1001
PHOENIX7010
1002
{
1070
    41
1040
1.5
1002
}
  0
LINE
  5
1762
330
18
100
AcDbEntity
  8
0
  6
Continuous
 62
     7
100
AcDbLine
 10
179.8746553398068
 20
152.9653225179983
 30
0.0
 11
179.8746553398068
 21
150.2986558513317
 31
0.0
1001
PHOENIX7010
1002
{
1070
    41
1040
1.5
1002
}
  0
LINE
  5
1763
330
18
100
AcDbEntity
  8
0
  6
Continuous
 62
     7
100
AcDbLine
 10
179.8746553398068
 20
150.2986558513317
 30
0.0
 11
183.2079886731403
 21
150.2986558513317
 31
0.0
1001
PHOENIX7010
1002
{
1070
    41
1040
1.5
1002
}
  0
LINE
  5
1764
330
18
100
AcDbEntity
  8
0
  6
Continuous
 62
     7
100
AcDbLine
 10
183.2079886731403
 20
150.2986558513317
 30
0.0
 11
183.2079886731403
 21
152.9653225179983
 31
0.0
1001
PHOENIX7010
1002
{
1070
    41
1040
1.5
1002
}
  0
LINE
  5
1765
330
18
100
AcDbEntity
  8
0
  6
Continuous
 62
     7
100
AcDbLine
 10
189.8746553398068
 20
152.9653225179983
 30
0.0
 11
189.8746553398068
 21
150.2986558513317
 31
0.0
1001
PHOENIX7010
1002
{
1070
    41
1040
1.5
1002
}
  0
LINE
  5
1766
330
18
100
AcDbEntity
  8
0
  6
Continuous
 62
     7
100
AcDbLine
 10
189.8746553398068
 20
150.2986558513317
 30
0.0
 11
193.2079886731403
 21
150.2986558513317
 31
0.0
1001
PHOENIX7010
1002
{
1070
    41
1040
1.5
1002
}
  0
LINE
  5
1767
330
18
100
AcDbEntity
  8
0
  6
Continuous
 62
     7
100
AcDbLine
 10
193.2079886731403
 20
150.2986558513317
 30
0.0
 11
193.2079886731403
 21
152.9653225179983
 31
0.0
1001
PHOENIX7010
1002
{
1070
    41
1040
1.5
1002
}
  0
LINE
  5
1768
330
18
100
AcDbEntity
  8
0
  6
Continuous
 62
     7
100
AcDbLine
 10
199.8746553398068
 20
152.9653225179983
 30
0.0
 11
199.8746553398068
 21
150.2986558513317
 31
0.0
1001
PHOENIX7010
1002
{
1070
    41
1040
1.5
1002
}
  0
LINE
  5
1769
330
18
100
AcDbEntity
  8
0
  6
Continuous
 62
     7
100
AcDbLine
 10
199.8746553398068
 20
150.2986558513317
 30
0.0
 11
203.2079886731403
 21
150.2986558513317
 31
0.0
1001
PHOENIX7010
1002
{
1070
    41
1040
1.5
1002
}
  0
LINE
  5
176A
330
18
100
AcDbEntity
  8
0
  6
Continuous
 62
     7
100
AcDbLine
 10
203.2079886731403
 20
150.2986558513317
 30
0.0
 11
203.2079886731403
 21
152.9653225179983
 31
0.0
1001
PHOENIX7010
1002
{
1070
    41
1040
1.5
1002
}
  0
LINE
  5
176B
330
18
100
AcDbEntity
  8
0
  6
Continuous
 62
     7
100
AcDbLine
 10
209.8746553398068
 20
152.9653225179983
 30
0.0
 11
209.8746553398068
 21
150.2986558513317
 31
0.0
1001
PHOENIX7010
1002
{
1070
    41
1040
1.5
1002
}
  0
LINE
  5
176C
330
18
100
AcDbEntity
  8
0
  6
Continuous
 62
     7
100
AcDbLine
 10
209.8746553398068
 20
150.2986558513317
 30
0.0
 11
213.2079886731403
 21
150.2986558513317
 31
0.0
1001
PHOENIX7010
1002
{
1070
    41
1040
1.5
1002
}
  0
LINE
  5
176D
330
18
100
AcDbEntity
  8
0
  6
Continuous
 62
     7
100
AcDbLine
 10
213.2079886731403
 20
150.2986558513317
 30
0.0
 11
213.2079886731403
 21
152.9653225179983
 31
0.0
1001
PHOENIX7010
1002
{
1070
    41
1040
1.5
1002
}
  0
LINE
  5
176E
330
18
100
AcDbEntity
  8
0
  6
Continuous
 62
     7
100
AcDbLine
 10
219.8746553398069
 20
152.9653225179983
 30
0.0
 11
219.8746553398069
 21
150.2986558513317
 31
0.0
1001
PHOENIX7010
1002
{
1070
    41
1040
1.5
1002
}
  0
LINE
  5
176F
330
18
100
AcDbEntity
  8
0
  6
Continuous
 62
     7
100
AcDbLine
 10
219.8746553398069
 20
150.2986558513317
 30
0.0
 11
223.2079886731404
 21
150.2986558513317
 31
0.0
1001
PHOENIX7010
1002
{
1070
    41
1040
1.5
1002
}
  0
LINE
  5
1770
330
18
100
AcDbEntity
  8
0
  6
Continuous
 62
     7
100
AcDbLine
 10
223.2079886731404
 20
150.2986558513317
 30
0.0
 11
223.2079886731404
 21
152.9653225179983
 31
0.0
1001
PHOENIX7010
1002
{
1070
    41
1040
1.5
1002
}
  0
LINE
  5
1771
330
18
100
AcDbEntity
  8
0
  6
Continuous
 62
     7
100
AcDbLine
 10
229.8746553398069
 20
152.9653225179983
 30
0.0
 11
229.8746553398069
 21
150.2986558513317
 31
0.0
1001
PHOENIX7010
1002
{
1070
    41
1040
1.5
1002
}
  0
LINE
  5
1772
330
18
100
AcDbEntity
  8
0
  6
Continuous
 62
     7
100
AcDbLine
 10
229.8746553398069
 20
150.2986558513317
 30
0.0
 11
233.2079886731403
 21
150.2986558513317
 31
0.0
1001
PHOENIX7010
1002
{
1070
    41
1040
1.5
1002
}
  0
LINE
  5
1773
330
18
100
AcDbEntity
  8
0
  6
Continuous
 62
     7
100
AcDbLine
 10
233.2079886731403
 20
150.2986558513317
 30
0.0
 11
233.2079886731403
 21
152.9653225179983
 31
0.0
1001
PHOENIX7010
1002
{
1070
    41
1040
1.5
1002
}
  0
LINE
  5
1774
330
18
100
AcDbEntity
  8
0
  6
Continuous
 62
     7
100
AcDbLine
 10
239.8745739595986
 20
152.9653225179983
 30
0.0
 11
239.8745739595986
 21
150.2986558513317
 31
0.0
1001
PHOENIX7010
1002
{
1070
    41
1040
1.5
1002
}
  0
LINE
  5
1775
330
18
100
AcDbEntity
  8
0
  6
Continuous
 62
     7
100
AcDbLine
 10
239.8745739595986
 20
150.2986558513317
 30
0.0
 11
243.2079072929318
 21
150.2986558513317
 31
0.0
1001
PHOENIX7010
1002
{
1070
    41
1040
1.5
1002
}
  0
LINE
  5
1776
330
18
100
AcDbEntity
  8
0
  6
Continuous
 62
     7
100
AcDbLine
 10
243.2079072929318
 20
150.2986558513317
 30
0.0
 11
243.2079072929318
 21
152.9653225179983
 31
0.0
1001
PHOENIX7010
1002
{
1070
    41
1040
1.5
1002
}
  0
LINE
  5
1777
330
18
100
AcDbEntity
  8
0
  6
Continuous
 62
     7
100
AcDbLine
 10
249.8745739595986
 20
152.9653225179983
 30
0.0
 11
249.8745739595986
 21
150.2986558513317
 31
0.0
1001
PHOENIX7010
1002
{
1070
    41
1040
1.5
1002
}
  0
LINE
  5
1778
330
18
100
AcDbEntity
  8
0
  6
Continuous
 62
     7
100
AcDbLine
 10
249.8745739595986
 20
150.2986558513317
 30
0.0
 11
253.2079072929318
 21
150.2986558513317
 31
0.0
1001
PHOENIX7010
1002
{
1070
    41
1040
1.5
1002
}
  0
LINE
  5
1779
330
18
100
AcDbEntity
  8
0
  6
Continuous
 62
     7
100
AcDbLine
 10
253.2079072929318
 20
150.2986558513317
 30
0.0
 11
253.2079072929318
 21
152.9653225179983
 31
0.0
1001
PHOENIX7010
1002
{
1070
    41
1040
1.5
1002
}
  0
LINE
  5
177A
330
18
100
AcDbEntity
  8
0
  6
Continuous
 62
     7
100
AcDbLine
 10
104.5413220064736
 20
156.5186672445608
 30
0.0
 11
108.5413220064736
 21
156.5186672445608
 31
0.0
1001
PHOENIX7010
1002
{
1070
    41
1040
1.5
1002
}
  0
LINE
  5
177B
330
18
100
AcDbEntity
  8
0
  6
Continuous
 62
     7
100
AcDbLine
 10
108.5413220064736
 20
156.5186672445608
 30
0.0
 11
108.5413220064736
 21
160.5186672445608
 31
0.0
1001
PHOENIX7010
1002
{
1070
    41
1040
1.5
1002
}
  0
LINE
  5
177C
330
18
100
AcDbEntity
  8
0
  6
Continuous
 62
     7
100
AcDbLine
 10
108.5413220064736
 20
160.5186672445608
 30
0.0
 11
104.5413220064736
 21
160.5186672445608
 31
0.0
1001
PHOENIX7010
1002
{
1070
    41
1040
1.5
1002
}
  0
LINE
  5
177D
330
18
100
AcDbEntity
  8
0
  6
Continuous
 62
     7
100
AcDbLine
 10
104.5413220064736
 20
160.5186672445608
 30
0.0
 11
104.5413220064736
 21
156.5186672445608
 31
0.0
1001
PHOENIX7010
1002
{
1070
    41
1040
1.5
1002
}
  0
LINE
  5
177E
330
18
100
AcDbEntity
  8
0
  6
Continuous
 62
     7
100
AcDbLine
 10
124.5413220064736
 20
156.5186672445608
 30
0.0
 11
128.5413220064736
 21
156.5186672445608
 31
0.0
1001
PHOENIX7010
1002
{
1070
    41
1040
1.5
1002
}
  0
LINE
  5
177F
330
18
100
AcDbEntity
  8
0
  6
Continuous
 62
     7
100
AcDbLine
 10
128.5413220064736
 20
156.5186672445608
 30
0.0
 11
128.5413220064736
 21
160.5186672445608
 31
0.0
1001
PHOENIX7010
1002
{
1070
    41
1040
1.5
1002
}
  0
LINE
  5
1780
330
18
100
AcDbEntity
  8
0
  6
Continuous
 62
     7
100
AcDbLine
 10
128.5413220064736
 20
160.5186672445608
 30
0.0
 11
124.5413220064736
 21
160.5186672445608
 31
0.0
1001
PHOENIX7010
1002
{
1070
    41
1040
1.5
1002
}
  0
LINE
  5
1781
330
18
100
AcDbEntity
  8
0
  6
Continuous
 62
     7
100
AcDbLine
 10
124.5413220064736
 20
160.5186672445608
 30
0.0
 11
124.5413220064736
 21
156.5186672445608
 31
0.0
1001
PHOENIX7010
1002
{
1070
    41
1040
1.5
1002
}
  0
LINE
  5
1782
330
18
100
AcDbEntity
  8
0
  6
Continuous
 62
     7
100
AcDbLine
 10
144.5413220064736
 20
156.5186672445608
 30
0.0
 11
148.5413220064736
 21
156.5186672445608
 31
0.0
1001
PHOENIX7010
1002
{
1070
    41
1040
1.5
1002
}
  0
LINE
  5
1783
330
18
100
AcDbEntity
  8
0
  6
Continuous
 62
     7
100
AcDbLine
 10
148.5413220064736
 20
156.5186672445608
 30
0.0
 11
148.5413220064736
 21
160.5186672445608
 31
0.0
1001
PHOENIX7010
1002
{
1070
    41
1040
1.5
1002
}
  0
LINE
  5
1784
330
18
100
AcDbEntity
  8
0
  6
Continuous
 62
     7
100
AcDbLine
 10
148.5413220064736
 20
160.5186672445608
 30
0.0
 11
144.5413220064736
 21
160.5186672445608
 31
0.0
1001
PHOENIX7010
1002
{
1070
    41
1040
1.5
1002
}
  0
LINE
  5
1785
330
18
100
AcDbEntity
  8
0
  6
Continuous
 62
     7
100
AcDbLine
 10
144.5413220064736
 20
160.5186672445608
 30
0.0
 11
144.5413220064736
 21
156.5186672445608
 31
0.0
1001
PHOENIX7010
1002
{
1070
    41
1040
1.5
1002
}
  0
LINE
  5
1786
330
18
100
AcDbEntity
  8
0
  6
Continuous
 62
     7
100
AcDbLine
 10
164.5413220064736
 20
156.5186672445608
 30
0.0
 11
168.5413220064736
 21
156.5186672445608
 31
0.0
1001
PHOENIX7010
1002
{
1070
    41
1040
1.5
1002
}
  0
LINE
  5
1787
330
18
100
AcDbEntity
  8
0
  6
Continuous
 62
     7
100
AcDbLine
 10
168.5413220064736
 20
156.5186672445608
 30
0.0
 11
168.5413220064736
 21
160.5186672445608
 31
0.0
1001
PHOENIX7010
1002
{
1070
    41
1040
1.5
1002
}
  0
LINE
  5
1788
330
18
100
AcDbEntity
  8
0
  6
Continuous
 62
     7
100
AcDbLine
 10
168.5413220064736
 20
160.5186672445608
 30
0.0
 11
164.5413220064736
 21
160.5186672445608
 31
0.0
1001
PHOENIX7010
1002
{
1070
    41
1040
1.5
1002
}
  0
LINE
  5
1789
330
18
100
AcDbEntity
  8
0
  6
Continuous
 62
     7
100
AcDbLine
 10
164.5413220064736
 20
160.5186672445608
 30
0.0
 11
164.5413220064736
 21
156.5186672445608
 31
0.0
1001
PHOENIX7010
1002
{
1070
    41
1040
1.5
1002
}
  0
LINE
  5
178A
330
18
100
AcDbEntity
  8
0
  6
Continuous
 62
     7
100
AcDbLine
 10
184.5413220064736
 20
156.5186672445608
 30
0.0
 11
188.5413220064736
 21
156.5186672445608
 31
0.0
1001
PHOENIX7010
1002
{
1070
    41
1040
1.5
1002
}
  0
LINE
  5
178B
330
18
100
AcDbEntity
  8
0
  6
Continuous
 62
     7
100
AcDbLine
 10
188.5413220064736
 20
156.5186672445608
 30
0.0
 11
188.5413220064736
 21
160.5186672445608
 31
0.0
1001
PHOENIX7010
1002
{
1070
    41
1040
1.5
1002
}
  0
LINE
  5
178C
330
18
100
AcDbEntity
  8
0
  6
Continuous
 62
     7
100
AcDbLine
 10
188.5413220064736
 20
160.5186672445608
 30
0.0
 11
184.5413220064736
 21
160.5186672445608
 31
0.0
1001
PHOENIX7010
1002
{
1070
    41
1040
1.5
1002
}
  0
LINE
  5
178D
330
18
100
AcDbEntity
  8
0
  6
Continuous
 62
     7
100
AcDbLine
 10
184.5413220064736
 20
160.5186672445608
 30
0.0
 11
184.5413220064736
 21
156.5186672445608
 31
0.0
1001
PHOENIX7010
1002
{
1070
    41
1040
1.5
1002
}
  0
LINE
  5
178E
330
18
100
AcDbEntity
  8
0
  6
Continuous
 62
     7
100
AcDbLine
 10
204.5413220064736
 20
156.5186672445608
 30
0.0
 11
208.5413220064736
 21
156.5186672445608
 31
0.0
1001
PHOENIX7010
1002
{
1070
    41
1040
1.5
1002
}
  0
LINE
  5
178F
330
18
100
AcDbEntity
  8
0
  6
Continuous
 62
     7
100
AcDbLine
 10
208.5413220064736
 20
156.5186672445608
 30
0.0
 11
208.5413220064736
 21
160.5186672445608
 31
0.0
1001
PHOENIX7010
1002
{
1070
    41
1040
1.5
1002
}
  0
LINE
  5
1790
330
18
100
AcDbEntity
  8
0
  6
Continuous
 62
     7
100
AcDbLine
 10
208.5413220064736
 20
160.5186672445608
 30
0.0
 11
204.5413220064736
 21
160.5186672445608
 31
0.0
1001
PHOENIX7010
1002
{
1070
    41
1040
1.5
1002
}
  0
LINE
  5
1791
330
18
100
AcDbEntity
  8
0
  6
Continuous
 62
     7
100
AcDbLine
 10
204.5413220064736
 20
160.5186672445608
 30
0.0
 11
204.5413220064736
 21
156.5186672445608
 31
0.0
1001
PHOENIX7010
1002
{
1070
    41
1040
1.5
1002
}
  0
LINE
  5
1792
330
18
100
AcDbEntity
  8
0
  6
Continuous
 62
     7
100
AcDbLine
 10
224.5413220064736
 20
156.5186672445608
 30
0.0
 11
228.5413220064736
 21
156.5186672445608
 31
0.0
1001
PHOENIX7010
1002
{
1070
    41
1040
1.5
1002
}
  0
LINE
  5
1793
330
18
100
AcDbEntity
  8
0
  6
Continuous
 62
     7
100
AcDbLine
 10
228.5413220064736
 20
156.5186672445608
 30
0.0
 11
228.5413220064736
 21
160.5186672445608
 31
0.0
1001
PHOENIX7010
1002
{
1070
    41
1040
1.5
1002
}
  0
LINE
  5
1794
330
18
100
AcDbEntity
  8
0
  6
Continuous
 62
     7
100
AcDbLine
 10
228.5413220064736
 20
160.5186672445608
 30
0.0
 11
224.5413220064736
 21
160.5186672445608
 31
0.0
1001
PHOENIX7010
1002
{
1070
    41
1040
1.5
1002
}
  0
LINE
  5
1795
330
18
100
AcDbEntity
  8
0
  6
Continuous
 62
     7
100
AcDbLine
 10
224.5413220064736
 20
160.5186672445608
 30
0.0
 11
224.5413220064736
 21
156.5186672445608
 31
0.0
1001
PHOENIX7010
1002
{
1070
    41
1040
1.5
1002
}
  0
LINE
  5
1796
330
18
100
AcDbEntity
  8
0
  6
Continuous
 62
     7
100
AcDbLine
 10
244.5412406262653
 20
156.5186672445608
 30
0.0
 11
248.5412406262653
 21
156.5186672445608
 31
0.0
1001
PHOENIX7010
1002
{
1070
    41
1040
1.5
1002
}
  0
LINE
  5
1797
330
18
100
AcDbEntity
  8
0
  6
Continuous
 62
     7
100
AcDbLine
 10
248.5412406262653
 20
156.5186672445608
 30
0.0
 11
248.5412406262653
 21
160.5186672445608
 31
0.0
1001
PHOENIX7010
1002
{
1070
    41
1040
1.5
1002
}
  0
LINE
  5
1798
330
18
100
AcDbEntity
  8
0
  6
Continuous
 62
     7
100
AcDbLine
 10
248.5412406262653
 20
160.5186672445608
 30
0.0
 11
244.5412406262653
 21
160.5186672445608
 31
0.0
1001
PHOENIX7010
1002
{
1070
    41
1040
1.5
1002
}
  0
LINE
  5
1799
330
18
100
AcDbEntity
  8
0
  6
Continuous
 62
     7
100
AcDbLine
 10
244.5412406262653
 20
160.5186672445608
 30
0.0
 11
244.5412406262653
 21
156.5186672445608
 31
0.0
1001
PHOENIX7010
1002
{
1070
    41
1040
1.5
1002
}
  0
LINE
  5
179A
330
18
100
AcDbEntity
  8
0
  6
Continuous
 62
     7
100
AcDbLine
 10
104.5413220064736
 20
186.1319891846651
 30
0.0
 11
108.5413220064736
 21
186.1319891846651
 31
0.0
1001
PHOENIX7010
1002
{
1070
    41
1040
1.5
1002
}
  0
LINE
  5
179B
330
18
100
AcDbEntity
  8
0
  6
Continuous
 62
     7
100
AcDbLine
 10
108.5413220064736
 20
186.1319891846651
 30
0.0
 11
108.5413220064736
 21
190.1319891846651
 31
0.0
1001
PHOENIX7010
1002
{
1070
    41
1040
1.5
1002
}
  0
LINE
  5
179C
330
18
100
AcDbEntity
  8
0
  6
Continuous
 62
     7
100
AcDbLine
 10
108.5413220064736
 20
190.1319891846651
 30
0.0
 11
104.5413220064736
 21
190.1319891846651
 31
0.0
1001
PHOENIX7010
1002
{
1070
    41
1040
1.5
1002
}
  0
LINE
  5
179D
330
18
100
AcDbEntity
  8
0
  6
Continuous
 62
     7
100
AcDbLine
 10
104.5413220064736
 20
190.1319891846651
 30
0.0
 11
104.5413220064736
 21
186.1319891846651
 31
0.0
1001
PHOENIX7010
1002
{
1070
    41
1040
1.5
1002
}
  0
LINE
  5
179E
330
18
100
AcDbEntity
  8
0
  6
Continuous
 62
     7
100
AcDbLine
 10
124.5413220064736
 20
186.1319891846651
 30
0.0
 11
128.5413220064736
 21
186.1319891846651
 31
0.0
1001
PHOENIX7010
1002
{
1070
    41
1040
1.5
1002
}
  0
LINE
  5
179F
330
18
100
AcDbEntity
  8
0
  6
Continuous
 62
     7
100
AcDbLine
 10
128.5413220064736
 20
186.1319891846651
 30
0.0
 11
128.5413220064736
 21
190.1319891846651
 31
0.0
1001
PHOENIX7010
1002
{
1070
    41
1040
1.5
1002
}
  0
LINE
  5
17A0
330
18
100
AcDbEntity
  8
0
  6
Continuous
 62
     7
100
AcDbLine
 10
128.5413220064736
 20
190.1319891846651
 30
0.0
 11
124.5413220064736
 21
190.1319891846651
 31
0.0
1001
PHOENIX7010
1002
{
1070
    41
1040
1.5
1002
}
  0
LINE
  5
17A1
330
18
100
AcDbEntity
  8
0
  6
Continuous
 62
     7
100
AcDbLine
 10
124.5413220064736
 20
190.1319891846651
 30
0.0
 11
124.5413220064736
 21
186.1319891846651
 31
0.0
1001
PHOENIX7010
1002
{
1070
    41
1040
1.5
1002
}
  0
LINE
  5
17A2
330
18
100
AcDbEntity
  8
0
  6
Continuous
 62
     7
100
AcDbLine
 10
144.5413220064736
 20
186.1319891846651
 30
0.0
 11
148.5413220064736
 21
186.1319891846651
 31
0.0
1001
PHOENIX7010
1002
{
1070
    41
1040
1.5
1002
}
  0
LINE
  5
17A3
330
18
100
AcDbEntity
  8
0
  6
Continuous
 62
     7
100
AcDbLine
 10
148.5413220064736
 20
186.1319891846651
 30
0.0
 11
148.5413220064736
 21
190.1319891846651
 31
0.0
1001
PHOENIX7010
1002
{
1070
    41
1040
1.5
1002
}
  0
LINE
  5
17A4
330
18
100
AcDbEntity
  8
0
  6
Continuous
 62
     7
100
AcDbLine
 10
148.5413220064736
 20
190.1319891846651
 30
0.0
 11
144.5413220064736
 21
190.1319891846651
 31
0.0
1001
PHOENIX7010
1002
{
1070
    41
1040
1.5
1002
}
  0
LINE
  5
17A5
330
18
100
AcDbEntity
  8
0
  6
Continuous
 62
     7
100
AcDbLine
 10
144.5413220064736
 20
190.1319891846651
 30
0.0
 11
144.5413220064736
 21
186.1319891846651
 31
0.0
1001
PHOENIX7010
1002
{
1070
    41
1040
1.5
1002
}
  0
LINE
  5
17A6
330
18
100
AcDbEntity
  8
0
  6
Continuous
 62
     7
100
AcDbLine
 10
164.5413220064736
 20
186.1319891846651
 30
0.0
 11
168.5413220064736
 21
186.1319891846651
 31
0.0
1001
PHOENIX7010
1002
{
1070
    41
1040
1.5
1002
}
  0
LINE
  5
17A7
330
18
100
AcDbEntity
  8
0
  6
Continuous
 62
     7
100
AcDbLine
 10
168.5413220064736
 20
186.1319891846651
 30
0.0
 11
168.5413220064736
 21
190.1319891846651
 31
0.0
1001
PHOENIX7010
1002
{
1070
    41
1040
1.5
1002
}
  0
LINE
  5
17A8
330
18
100
AcDbEntity
  8
0
  6
Continuous
 62
     7
100
AcDbLine
 10
168.5413220064736
 20
190.1319891846651
 30
0.0
 11
164.5413220064736
 21
190.1319891846651
 31
0.0
1001
PHOENIX7010
1002
{
1070
    41
1040
1.5
1002
}
  0
LINE
  5
17A9
330
18
100
AcDbEntity
  8
0
  6
Continuous
 62
     7
100
AcDbLine
 10
164.5413220064736
 20
190.1319891846651
 30
0.0
 11
164.5413220064736
 21
186.1319891846651
 31
0.0
1001
PHOENIX7010
1002
{
1070
    41
1040
1.5
1002
}
  0
LINE
  5
17AA
330
18
100
AcDbEntity
  8
0
  6
Continuous
 62
     7
100
AcDbLine
 10
184.5413220064736
 20
186.1319891846651
 30
0.0
 11
188.5413220064736
 21
186.1319891846651
 31
0.0
1001
PHOENIX7010
1002
{
1070
    41
1040
1.5
1002
}
  0
LINE
  5
17AB
330
18
100
AcDbEntity
  8
0
  6
Continuous
 62
     7
100
AcDbLine
 10
188.5413220064736
 20
186.1319891846651
 30
0.0
 11
188.5413220064736
 21
190.1319891846651
 31
0.0
1001
PHOENIX7010
1002
{
1070
    41
1040
1.5
1002
}
  0
LINE
  5
17AC
330
18
100
AcDbEntity
  8
0
  6
Continuous
 62
     7
100
AcDbLine
 10
188.5413220064736
 20
190.1319891846651
 30
0.0
 11
184.5413220064736
 21
190.1319891846651
 31
0.0
1001
PHOENIX7010
1002
{
1070
    41
1040
1.5
1002
}
  0
LINE
  5
17AD
330
18
100
AcDbEntity
  8
0
  6
Continuous
 62
     7
100
AcDbLine
 10
184.5413220064736
 20
190.1319891846651
 30
0.0
 11
184.5413220064736
 21
186.1319891846651
 31
0.0
1001
PHOENIX7010
1002
{
1070
    41
1040
1.5
1002
}
  0
LINE
  5
17AE
330
18
100
AcDbEntity
  8
0
  6
Continuous
 62
     7
100
AcDbLine
 10
204.5413220064736
 20
186.1319891846651
 30
0.0
 11
208.5413220064736
 21
186.1319891846651
 31
0.0
1001
PHOENIX7010
1002
{
1070
    41
1040
1.5
1002
}
  0
LINE
  5
17AF
330
18
100
AcDbEntity
  8
0
  6
Continuous
 62
     7
100
AcDbLine
 10
208.5413220064736
 20
186.1319891846651
 30
0.0
 11
208.5413220064736
 21
190.1319891846651
 31
0.0
1001
PHOENIX7010
1002
{
1070
    41
1040
1.5
1002
}
  0
LINE
  5
17B0
330
18
100
AcDbEntity
  8
0
  6
Continuous
 62
     7
100
AcDbLine
 10
208.5413220064736
 20
190.1319891846651
 30
0.0
 11
204.5413220064736
 21
190.1319891846651
 31
0.0
1001
PHOENIX7010
1002
{
1070
    41
1040
1.5
1002
}
  0
LINE
  5
17B1
330
18
100
AcDbEntity
  8
0
  6
Continuous
 62
     7
100
AcDbLine
 10
204.5413220064736
 20
190.1319891846651
 30
0.0
 11
204.5413220064736
 21
186.1319891846651
 31
0.0
1001
PHOENIX7010
1002
{
1070
    41
1040
1.5
1002
}
  0
LINE
  5
17B2
330
18
100
AcDbEntity
  8
0
  6
Continuous
 62
     7
100
AcDbLine
 10
224.5413220064736
 20
186.1319891846651
 30
0.0
 11
228.5413220064736
 21
186.1319891846651
 31
0.0
1001
PHOENIX7010
1002
{
1070
    41
1040
1.5
1002
}
  0
LINE
  5
17B3
330
18
100
AcDbEntity
  8
0
  6
Continuous
 62
     7
100
AcDbLine
 10
228.5413220064736
 20
186.1319891846651
 30
0.0
 11
228.5413220064736
 21
190.1319891846651
 31
0.0
1001
PHOENIX7010
1002
{
1070
    41
1040
1.5
1002
}
  0
LINE
  5
17B4
330
18
100
AcDbEntity
  8
0
  6
Continuous
 62
     7
100
AcDbLine
 10
228.5413220064736
 20
190.1319891846651
 30
0.0
 11
224.5413220064736
 21
190.1319891846651
 31
0.0
1001
PHOENIX7010
1002
{
1070
    41
1040
1.5
1002
}
  0
LINE
  5
17B5
330
18
100
AcDbEntity
  8
0
  6
Continuous
 62
     7
100
AcDbLine
 10
224.5413220064736
 20
190.1319891846651
 30
0.0
 11
224.5413220064736
 21
186.1319891846651
 31
0.0
1001
PHOENIX7010
1002
{
1070
    41
1040
1.5
1002
}
  0
LINE
  5
17B6
330
18
100
AcDbEntity
  8
0
  6
Continuous
 62
     7
100
AcDbLine
 10
244.5412406262653
 20
186.1319891846651
 30
0.0
 11
248.5412406262653
 21
186.1319891846651
 31
0.0
1001
PHOENIX7010
1002
{
1070
    41
1040
1.5
1002
}
  0
LINE
  5
17B7
330
18
100
AcDbEntity
  8
0
  6
Continuous
 62
     7
100
AcDbLine
 10
248.5412406262653
 20
186.1319891846651
 30
0.0
 11
248.5412406262653
 21
190.1319891846651
 31
0.0
1001
PHOENIX7010
1002
{
1070
    41
1040
1.5
1002
}
  0
LINE
  5
17B8
330
18
100
AcDbEntity
  8
0
  6
Continuous
 62
     7
100
AcDbLine
 10
248.5412406262653
 20
190.1319891846651
 30
0.0
 11
244.5412406262653
 21
190.1319891846651
 31
0.0
1001
PHOENIX7010
1002
{
1070
    41
1040
1.5
1002
}
  0
LINE
  5
17B9
330
18
100
AcDbEntity
  8
0
  6
Continuous
 62
     7
100
AcDbLine
 10
244.5412406262653
 20
190.1319891846651
 30
0.0
 11
244.5412406262653
 21
186.1319891846651
 31
0.0
1001
PHOENIX7010
1002
{
1070
    41
1040
1.5
1002
}
  0
LINE
  5
17BA
330
18
100
AcDbEntity
  8
0
  6
Continuous
 62
     7
100
AcDbLine
 10
104.5413220064736
 20
219.7452907797171
 30
0.0
 11
108.5413220064736
 21
219.7452907797171
 31
0.0
1001
PHOENIX7010
1002
{
1070
    41
1040
1.5
1002
}
  0
LINE
  5
17BB
330
18
100
AcDbEntity
  8
0
  6
Continuous
 62
     7
100
AcDbLine
 10
108.5413220064736
 20
219.7452907797171
 30
0.0
 11
108.5413220064736
 21
215.7452907797171
 31
0.0
1001
PHOENIX7010
1002
{
1070
    41
1040
1.5
1002
}
  0
LINE
  5
17BC
330
18
100
AcDbEntity
  8
0
  6
Continuous
 62
     7
100
AcDbLine
 10
108.5413220064736
 20
215.7452907797171
 30
0.0
 11
104.5413220064736
 21
215.7452907797171
 31
0.0
1001
PHOENIX7010
1002
{
1070
    41
1040
1.5
1002
}
  0
LINE
  5
17BD
330
18
100
AcDbEntity
  8
0
  6
Continuous
 62
     7
100
AcDbLine
 10
104.5413220064736
 20
215.7452907797171
 30
0.0
 11
104.5413220064736
 21
219.7452907797171
 31
0.0
1001
PHOENIX7010
1002
{
1070
    41
1040
1.5
1002
}
  0
LINE
  5
17BE
330
18
100
AcDbEntity
  8
0
  6
Continuous
 62
     7
100
AcDbLine
 10
124.5413220064736
 20
219.7452907797171
 30
0.0
 11
128.5413220064736
 21
219.7452907797171
 31
0.0
1001
PHOENIX7010
1002
{
1070
    41
1040
1.5
1002
}
  0
LINE
  5
17BF
330
18
100
AcDbEntity
  8
0
  6
Continuous
 62
     7
100
AcDbLine
 10
128.5413220064736
 20
219.7452907797171
 30
0.0
 11
128.5413220064736
 21
215.7452907797171
 31
0.0
1001
PHOENIX7010
1002
{
1070
    41
1040
1.5
1002
}
  0
LINE
  5
17C0
330
18
100
AcDbEntity
  8
0
  6
Continuous
 62
     7
100
AcDbLine
 10
128.5413220064736
 20
215.7452907797171
 30
0.0
 11
124.5413220064736
 21
215.7452907797171
 31
0.0
1001
PHOENIX7010
1002
{
1070
    41
1040
1.5
1002
}
  0
LINE
  5
17C1
330
18
100
AcDbEntity
  8
0
  6
Continuous
 62
     7
100
AcDbLine
 10
124.5413220064736
 20
215.7452907797171
 30
0.0
 11
124.5413220064736
 21
219.7452907797171
 31
0.0
1001
PHOENIX7010
1002
{
1070
    41
1040
1.5
1002
}
  0
LINE
  5
17C2
330
18
100
AcDbEntity
  8
0
  6
Continuous
 62
     7
100
AcDbLine
 10
144.5413220064736
 20
219.7452907797171
 30
0.0
 11
148.5413220064736
 21
219.7452907797171
 31
0.0
1001
PHOENIX7010
1002
{
1070
    41
1040
1.5
1002
}
  0
LINE
  5
17C3
330
18
100
AcDbEntity
  8
0
  6
Continuous
 62
     7
100
AcDbLine
 10
148.5413220064736
 20
219.7452907797171
 30
0.0
 11
148.5413220064736
 21
215.7452907797171
 31
0.0
1001
PHOENIX7010
1002
{
1070
    41
1040
1.5
1002
}
  0
LINE
  5
17C4
330
18
100
AcDbEntity
  8
0
  6
Continuous
 62
     7
100
AcDbLine
 10
148.5413220064736
 20
215.7452907797171
 30
0.0
 11
144.5413220064736
 21
215.7452907797171
 31
0.0
1001
PHOENIX7010
1002
{
1070
    41
1040
1.5
1002
}
  0
LINE
  5
17C5
330
18
100
AcDbEntity
  8
0
  6
Continuous
 62
     7
100
AcDbLine
 10
144.5413220064736
 20
215.7452907797171
 30
0.0
 11
144.5413220064736
 21
219.7452907797171
 31
0.0
1001
PHOENIX7010
1002
{
1070
    41
1040
1.5
1002
}
  0
LINE
  5
17C6
330
18
100
AcDbEntity
  8
0
  6
Continuous
 62
     7
100
AcDbLine
 10
164.5413220064736
 20
219.7452907797171
 30
0.0
 11
168.5413220064736
 21
219.7452907797171
 31
0.0
1001
PHOENIX7010
1002
{
1070
    41
1040
1.5
1002
}
  0
LINE
  5
17C7
330
18
100
AcDbEntity
  8
0
  6
Continuous
 62
     7
100
AcDbLine
 10
168.5413220064736
 20
219.7452907797171
 30
0.0
 11
168.5413220064736
 21
215.7452907797171
 31
0.0
1001
PHOENIX7010
1002
{
1070
    41
1040
1.5
1002
}
  0
LINE
  5
17C8
330
18
100
AcDbEntity
  8
0
  6
Continuous
 62
     7
100
AcDbLine
 10
168.5413220064736
 20
215.7452907797171
 30
0.0
 11
164.5413220064736
 21
215.7452907797171
 31
0.0
1001
PHOENIX7010
1002
{
1070
    41
1040
1.5
1002
}
  0
LINE
  5
17C9
330
18
100
AcDbEntity
  8
0
  6
Continuous
 62
     7
100
AcDbLine
 10
164.5413220064736
 20
215.7452907797171
 30
0.0
 11
164.5413220064736
 21
219.7452907797171
 31
0.0
1001
PHOENIX7010
1002
{
1070
    41
1040
1.5
1002
}
  0
LINE
  5
17CA
330
18
100
AcDbEntity
  8
0
  6
Continuous
 62
     7
100
AcDbLine
 10
184.5413220064736
 20
219.7452907797171
 30
0.0
 11
188.5413220064736
 21
219.7452907797171
 31
0.0
1001
PHOENIX7010
1002
{
1070
    41
1040
1.5
1002
}
  0
LINE
  5
17CB
330
18
100
AcDbEntity
  8
0
  6
Continuous
 62
     7
100
AcDbLine
 10
188.5413220064736
 20
219.7452907797171
 30
0.0
 11
188.5413220064736
 21
215.7452907797171
 31
0.0
1001
PHOENIX7010
1002
{
1070
    41
1040
1.5
1002
}
  0
LINE
  5
17CC
330
18
100
AcDbEntity
  8
0
  6
Continuous
 62
     7
100
AcDbLine
 10
188.5413220064736
 20
215.7452907797171
 30
0.0
 11
184.5413220064736
 21
215.7452907797171
 31
0.0
1001
PHOENIX7010
1002
{
1070
    41
1040
1.5
1002
}
  0
LINE
  5
17CD
330
18
100
AcDbEntity
  8
0
  6
Continuous
 62
     7
100
AcDbLine
 10
184.5413220064736
 20
215.7452907797171
 30
0.0
 11
184.5413220064736
 21
219.7452907797171
 31
0.0
1001
PHOENIX7010
1002
{
1070
    41
1040
1.5
1002
}
  0
LINE
  5
17CE
330
18
100
AcDbEntity
  8
0
  6
Continuous
 62
     7
100
AcDbLine
 10
204.5413220064736
 20
219.7452907797171
 30
0.0
 11
208.5413220064736
 21
219.7452907797171
 31
0.0
1001
PHOENIX7010
1002
{
1070
    41
1040
1.5
1002
}
  0
LINE
  5
17CF
330
18
100
AcDbEntity
  8
0
  6
Continuous
 62
     7
100
AcDbLine
 10
208.5413220064736
 20
219.7452907797171
 30
0.0
 11
208.5413220064736
 21
215.7452907797171
 31
0.0
1001
PHOENIX7010
1002
{
1070
    41
1040
1.5
1002
}
  0
LINE
  5
17D0
330
18
100
AcDbEntity
  8
0
  6
Continuous
 62
     7
100
AcDbLine
 10
208.5413220064736
 20
215.7452907797171
 30
0.0
 11
204.5413220064736
 21
215.7452907797171
 31
0.0
1001
PHOENIX7010
1002
{
1070
    41
1040
1.5
1002
}
  0
LINE
  5
17D1
330
18
100
AcDbEntity
  8
0
  6
Continuous
 62
     7
100
AcDbLine
 10
204.5413220064736
 20
215.7452907797171
 30
0.0
 11
204.5413220064736
 21
219.7452907797171
 31
0.0
1001
PHOENIX7010
1002
{
1070
    41
1040
1.5
1002
}
  0
LINE
  5
17D2
330
18
100
AcDbEntity
  8
0
  6
Continuous
 62
     7
100
AcDbLine
 10
224.5413220064736
 20
219.7452907797171
 30
0.0
 11
228.5413220064736
 21
219.7452907797171
 31
0.0
1001
PHOENIX7010
1002
{
1070
    41
1040
1.5
1002
}
  0
LINE
  5
17D3
330
18
100
AcDbEntity
  8
0
  6
Continuous
 62
     7
100
AcDbLine
 10
228.5413220064736
 20
219.7452907797171
 30
0.0
 11
228.5413220064736
 21
215.7452907797171
 31
0.0
1001
PHOENIX7010
1002
{
1070
    41
1040
1.5
1002
}
  0
LINE
  5
17D4
330
18
100
AcDbEntity
  8
0
  6
Continuous
 62
     7
100
AcDbLine
 10
228.5413220064736
 20
215.7452907797171
 30
0.0
 11
224.5413220064736
 21
215.7452907797171
 31
0.0
1001
PHOENIX7010
1002
{
1070
    41
1040
1.5
1002
}
  0
LINE
  5
17D5
330
18
100
AcDbEntity
  8
0
  6
Continuous
 62
     7
100
AcDbLine
 10
224.5413220064736
 20
215.7452907797171
 30
0.0
 11
224.5413220064736
 21
219.7452907797171
 31
0.0
1001
PHOENIX7010
1002
{
1070
    41
1040
1.5
1002
}
  0
LINE
  5
17D6
102
{ACAD_REACTORS
330
15EA
330
15E3
330
15E6
330
15E4
330
15E7
102
}
330
18
100
AcDbEntity
  8
0
  6
Continuous
 62
     7
100
AcDbLine
 10
244.5412406262653
 20
219.7452907797171
 30
0.0
 11
248.5412406262653
 21
219.7452907797171
 31
0.0
1001
PHOENIX7010
1002
{
1070
    41
1040
1.5
1002
}
  0
LINE
  5
17D7
102
{ACAD_REACTORS
330
15EA
330
15E3
330
15E6
330
15E4
330
15E7
102
}
330
18
100
AcDbEntity
  8
0
  6
Continuous
 62
     7
100
AcDbLine
 10
248.5412406262653
 20
219.7452907797171
 30
0.0
 11
248.5412406262653
 21
215.7452907797171
 31
0.0
1001
PHOENIX7010
1002
{
1070
    41
1040
1.5
1002
}
  0
LINE
  5
17D8
102
{ACAD_REACTORS
330
15EA
330
15E3
330
15E6
330
15E4
330
15E7
102
}
330
18
100
AcDbEntity
  8
0
  6
Continuous
 62
     7
100
AcDbLine
 10
248.5412406262653
 20
215.7452907797171
 30
0.0
 11
244.5412406262653
 21
215.7452907797171
 31
0.0
1001
PHOENIX7010
1002
{
1070
    41
1040
1.5
1002
}
  0
LINE
  5
17D9
102
{ACAD_REACTORS
330
15EA
330
15E3
330
15E6
330
15E4
330
15E7
102
}
330
18
100
AcDbEntity
  8
0
  6
Continuous
 62
     7
100
AcDbLine
 10
244.5412406262653
 20
215.7452907797171
 30
0.0
 11
244.5412406262653
 21
219.7452907797171
 31
0.0
1001
PHOENIX7010
1002
{
1070
    41
1040
1.5
1002
}
  0
CIRCLE
  5
17DA
330
18
100
AcDbEntity
  8
0
  6
Continuous
 62
     7
100
AcDbCircle
 10
106.5413220064736
 20
228.6318467693005
 30
0.0
 40
1.533333301544189
1001
PHOENIX7010
1002
{
1070
    41
1040
1.5
1002
}
  0
CIRCLE
  5
17DB
330
18
100
AcDbEntity
  8
0
  6
Continuous
 62
     7
100
AcDbCircle
 10
116.5413220064736
 20
228.6318467693005
 30
0.0
 40
1.533333301544189
1001
PHOENIX7010
1002
{
1070
    41
1040
1.5
1002
}
  0
CIRCLE
  5
17DC
330
18
100
AcDbEntity
  8
0
  6
Continuous
 62
     7
100
AcDbCircle
 10
126.5413220064736
 20
228.6318467693005
 30
0.0
 40
1.533333301544189
1001
PHOENIX7010
1002
{
1070
    41
1040
1.5
1002
}
  0
CIRCLE
  5
17DD
330
18
100
AcDbEntity
  8
0
  6
Continuous
 62
     7
100
AcDbCircle
 10
136.5413220064736
 20
228.6318467693005
 30
0.0
 40
1.533333301544189
1001
PHOENIX7010
1002
{
1070
    41
1040
1.5
1002
}
  0
CIRCLE
  5
17DE
330
18
100
AcDbEntity
  8
0
  6
Continuous
 62
     7
100
AcDbCircle
 10
146.5413220064736
 20
228.6319281495088
 30
0.0
 40
1.533333301544189
1001
PHOENIX7010
1002
{
1070
    41
1040
1.5
1002
}
  0
CIRCLE
  5
17DF
330
18
100
AcDbEntity
  8
0
  6
Continuous
 62
     7
100
AcDbCircle
 10
156.5413220064736
 20
228.6319281495088
 30
0.0
 40
1.533333301544189
1001
PHOENIX7010
1002
{
1070
    41
1040
1.5
1002
}
  0
CIRCLE
  5
17E0
330
18
100
AcDbEntity
  8
0
  6
Continuous
 62
     7
100
AcDbCircle
 10
166.5413220064736
 20
228.6319281495088
 30
0.0
 40
1.533333301544189
1001
PHOENIX7010
1002
{
1070
    41
1040
1.5
1002
}
  0
CIRCLE
  5
17E1
330
18
100
AcDbEntity
  8
0
  6
Continuous
 62
     7
100
AcDbCircle
 10
176.5413220064736
 20
228.6319281495088
 30
0.0
 40
1.533333301544189
1001
PHOENIX7010
1002
{
1070
    41
1040
1.5
1002
}
  0
CIRCLE
  5
17E2
330
18
100
AcDbEntity
  8
0
  6
Continuous
 62
     7
100
AcDbCircle
 10
186.5413220064736
 20
228.6319281495088
 30
0.0
 40
1.533333301544189
1001
PHOENIX7010
1002
{
1070
    41
1040
1.5
1002
}
  0
CIRCLE
  5
17E3
330
18
100
AcDbEntity
  8
0
  6
Continuous
 62
     7
100
AcDbCircle
 10
196.5413220064736
 20
228.6319281495088
 30
0.0
 40
1.533333301544189
1001
PHOENIX7010
1002
{
1070
    41
1040
1.5
1002
}
  0
CIRCLE
  5
17E4
330
18
100
AcDbEntity
  8
0
  6
Continuous
 62
     7
100
AcDbCircle
 10
206.5413220064736
 20
228.6319281495088
 30
0.0
 40
1.533333301544189
1001
PHOENIX7010
1002
{
1070
    41
1040
1.5
1002
}
  0
CIRCLE
  5
17E5
330
18
100
AcDbEntity
  8
0
  6
Continuous
 62
     7
100
AcDbCircle
 10
216.5413220064736
 20
228.6319281495088
 30
0.0
 40
1.533333301544189
1001
PHOENIX7010
1002
{
1070
    41
1040
1.5
1002
}
  0
CIRCLE
  5
17E6
330
18
100
AcDbEntity
  8
0
  6
Continuous
 62
     7
100
AcDbCircle
 10
226.5413220064736
 20
228.6319281495088
 30
0.0
 40
1.533333301544189
1001
PHOENIX7010
1002
{
1070
    41
1040
1.5
1002
}
  0
CIRCLE
  5
17E7
330
18
100
AcDbEntity
  8
0
  6
Continuous
 62
     7
100
AcDbCircle
 10
236.5413220064736
 20
228.6319281495088
 30
0.0
 40
1.533333301544189
1001
PHOENIX7010
1002
{
1070
    41
1040
1.5
1002
}
  0
CIRCLE
  5
17E8
330
18
100
AcDbEntity
  8
0
  6
Continuous
 62
     7
100
AcDbCircle
 10
246.5412406262653
 20
228.6319281495088
 30
0.0
 40
1.533333301544189
1001
PHOENIX7010
1002
{
1070
    41
1040
1.5
1002
}
  0
LINE
  5
17E9
330
18
100
AcDbEntity
  8
0
  6
Continuous
 62
     7
100
AcDbLine
 10
99.87465533980685
 20
223.2985948161755
 30
0.0
 11
99.87465533980685
 21
225.9652614828421
 31
0.0
1001
PHOENIX7010
1002
{
1070
    41
1040
1.5
1002
}
  0
LINE
  5
17EA
330
18
100
AcDbEntity
  8
0
  6
Continuous
 62
     7
100
AcDbLine
 10
99.87465533980685
 20
225.9652614828421
 30
0.0
 11
103.2079886731403
 21
225.9652614828421
 31
0.0
1001
PHOENIX7010
1002
{
1070
    41
1040
1.5
1002
}
  0
LINE
  5
17EB
330
18
100
AcDbEntity
  8
0
  6
Continuous
 62
     7
100
AcDbLine
 10
103.2079886731403
 20
225.9652614828421
 30
0.0
 11
103.2079886731403
 21
223.2985948161755
 31
0.0
1001
PHOENIX7010
1002
{
1070
    41
1040
1.5
1002
}
  0
LINE
  5
17EC
330
18
100
AcDbEntity
  8
0
  6
Continuous
 62
     7
100
AcDbLine
 10
109.8746553398068
 20
223.2985948161755
 30
0.0
 11
109.8746553398068
 21
225.9652614828421
 31
0.0
1001
PHOENIX7010
1002
{
1070
    41
1040
1.5
1002
}
  0
LINE
  5
17ED
330
18
100
AcDbEntity
  8
0
  6
Continuous
 62
     7
100
AcDbLine
 10
109.8746553398068
 20
225.9652614828421
 30
0.0
 11
113.2079886731403
 21
225.9652614828421
 31
0.0
1001
PHOENIX7010
1002
{
1070
    41
1040
1.5
1002
}
  0
LINE
  5
17EE
330
18
100
AcDbEntity
  8
0
  6
Continuous
 62
     7
100
AcDbLine
 10
113.2079886731403
 20
225.9652614828421
 30
0.0
 11
113.2079886731403
 21
223.2985948161755
 31
0.0
1001
PHOENIX7010
1002
{
1070
    41
1040
1.5
1002
}
  0
LINE
  5
17EF
330
18
100
AcDbEntity
  8
0
  6
Continuous
 62
     7
100
AcDbLine
 10
119.8746553398068
 20
223.2985948161755
 30
0.0
 11
119.8746553398068
 21
225.9652614828421
 31
0.0
1001
PHOENIX7010
1002
{
1070
    41
1040
1.5
1002
}
  0
LINE
  5
17F0
330
18
100
AcDbEntity
  8
0
  6
Continuous
 62
     7
100
AcDbLine
 10
119.8746553398068
 20
225.9652614828421
 30
0.0
 11
123.2079886731403
 21
225.9652614828421
 31
0.0
1001
PHOENIX7010
1002
{
1070
    41
1040
1.5
1002
}
  0
LINE
  5
17F1
330
18
100
AcDbEntity
  8
0
  6
Continuous
 62
     7
100
AcDbLine
 10
123.2079886731403
 20
225.9652614828421
 30
0.0
 11
123.2079886731403
 21
223.2985948161755
 31
0.0
1001
PHOENIX7010
1002
{
1070
    41
1040
1.5
1002
}
  0
LINE
  5
17F2
330
18
100
AcDbEntity
  8
0
  6
Continuous
 62
     7
100
AcDbLine
 10
129.8746553398068
 20
223.2985948161755
 30
0.0
 11
129.8746553398068
 21
225.9652614828421
 31
0.0
1001
PHOENIX7010
1002
{
1070
    41
1040
1.5
1002
}
  0
LINE
  5
17F3
330
18
100
AcDbEntity
  8
0
  6
Continuous
 62
     7
100
AcDbLine
 10
129.8746553398068
 20
225.9652614828421
 30
0.0
 11
133.2079886731403
 21
225.9652614828421
 31
0.0
1001
PHOENIX7010
1002
{
1070
    41
1040
1.5
1002
}
  0
LINE
  5
17F4
330
18
100
AcDbEntity
  8
0
  6
Continuous
 62
     7
100
AcDbLine
 10
133.2079886731403
 20
225.9652614828421
 30
0.0
 11
133.2079886731403
 21
223.2985948161755
 31
0.0
1001
PHOENIX7010
1002
{
1070
    41
1040
1.5
1002
}
  0
LINE
  5
17F5
330
18
100
AcDbEntity
  8
0
  6
Continuous
 62
     7
100
AcDbLine
 10
139.8746553398068
 20
223.2985948161755
 30
0.0
 11
139.8746553398068
 21
225.9652614828421
 31
0.0
1001
PHOENIX7010
1002
{
1070
    41
1040
1.5
1002
}
  0
LINE
  5
17F6
330
18
100
AcDbEntity
  8
0
  6
Continuous
 62
     7
100
AcDbLine
 10
139.8746553398068
 20
225.9652614828421
 30
0.0
 11
143.2079886731403
 21
225.9652614828421
 31
0.0
1001
PHOENIX7010
1002
{
1070
    41
1040
1.5
1002
}
  0
LINE
  5
17F7
330
18
100
AcDbEntity
  8
0
  6
Continuous
 62
     7
100
AcDbLine
 10
143.2079886731403
 20
225.9652614828421
 30
0.0
 11
143.2079886731403
 21
223.2985948161755
 31
0.0
1001
PHOENIX7010
1002
{
1070
    41
1040
1.5
1002
}
  0
LINE
  5
17F8
330
18
100
AcDbEntity
  8
0
  6
Continuous
 62
     7
100
AcDbLine
 10
149.8746553398068
 20
223.2985948161755
 30
0.0
 11
149.8746553398068
 21
225.9652614828421
 31
0.0
1001
PHOENIX7010
1002
{
1070
    41
1040
1.5
1002
}
  0
LINE
  5
17F9
330
18
100
AcDbEntity
  8
0
  6
Continuous
 62
     7
100
AcDbLine
 10
149.8746553398068
 20
225.9652614828421
 30
0.0
 11
153.2079886731403
 21
225.9652614828421
 31
0.0
1001
PHOENIX7010
1002
{
1070
    41
1040
1.5
1002
}
  0
LINE
  5
17FA
330
18
100
AcDbEntity
  8
0
  6
Continuous
 62
     7
100
AcDbLine
 10
153.2079886731403
 20
225.9652614828421
 30
0.0
 11
153.2079886731403
 21
223.2985948161755
 31
0.0
1001
PHOENIX7010
1002
{
1070
    41
1040
1.5
1002
}
  0
LINE
  5
17FB
330
18
100
AcDbEntity
  8
0
  6
Continuous
 62
     7
100
AcDbLine
 10
159.8746553398068
 20
223.2985948161755
 30
0.0
 11
159.8746553398068
 21
225.9652614828421
 31
0.0
1001
PHOENIX7010
1002
{
1070
    41
1040
1.5
1002
}
  0
LINE
  5
17FC
330
18
100
AcDbEntity
  8
0
  6
Continuous
 62
     7
100
AcDbLine
 10
159.8746553398068
 20
225.9652614828421
 30
0.0
 11
163.2079886731403
 21
225.9652614828421
 31
0.0
1001
PHOENIX7010
1002
{
1070
    41
1040
1.5
1002
}
  0
LINE
  5
17FD
330
18
100
AcDbEntity
  8
0
  6
Continuous
 62
     7
100
AcDbLine
 10
163.2079886731403
 20
225.9652614828421
 30
0.0
 11
163.2079886731403
 21
223.2985948161755
 31
0.0
1001
PHOENIX7010
1002
{
1070
    41
1040
1.5
1002
}
  0
LINE
  5
17FE
330
18
100
AcDbEntity
  8
0
  6
Continuous
 62
     7
100
AcDbLine
 10
169.8746553398068
 20
223.2985948161755
 30
0.0
 11
169.8746553398068
 21
225.9652614828421
 31
0.0
1001
PHOENIX7010
1002
{
1070
    41
1040
1.5
1002
}
  0
LINE
  5
17FF
330
18
100
AcDbEntity
  8
0
  6
Continuous
 62
     7
100
AcDbLine
 10
169.8746553398068
 20
225.9652614828421
 30
0.0
 11
173.2079886731403
 21
225.9652614828421
 31
0.0
1001
PHOENIX7010
1002
{
1070
    41
1040
1.5
1002
}
  0
LINE
  5
1800
330
18
100
AcDbEntity
  8
0
  6
Continuous
 62
     7
100
AcDbLine
 10
173.2079886731403
 20
225.9652614828421
 30
0.0
 11
173.2079886731403
 21
223.2985948161755
 31
0.0
1001
PHOENIX7010
1002
{
1070
    41
1040
1.5
1002
}
  0
LINE
  5
1801
330
18
100
AcDbEntity
  8
0
  6
Continuous
 62
     7
100
AcDbLine
 10
179.8746553398068
 20
223.2985948161755
 30
0.0
 11
179.8746553398068
 21
225.9652614828421
 31
0.0
1001
PHOENIX7010
1002
{
1070
    41
1040
1.5
1002
}
  0
LINE
  5
1802
330
18
100
AcDbEntity
  8
0
  6
Continuous
 62
     7
100
AcDbLine
 10
179.8746553398068
 20
225.9652614828421
 30
0.0
 11
183.2079886731403
 21
225.9652614828421
 31
0.0
1001
PHOENIX7010
1002
{
1070
    41
1040
1.5
1002
}
  0
LINE
  5
1803
330
18
100
AcDbEntity
  8
0
  6
Continuous
 62
     7
100
AcDbLine
 10
183.2079886731403
 20
225.9652614828421
 30
0.0
 11
183.2079886731403
 21
223.2985948161755
 31
0.0
1001
PHOENIX7010
1002
{
1070
    41
1040
1.5
1002
}
  0
LINE
  5
1804
330
18
100
AcDbEntity
  8
0
  6
Continuous
 62
     7
100
AcDbLine
 10
189.8746553398068
 20
223.2985948161755
 30
0.0
 11
189.8746553398068
 21
225.9652614828421
 31
0.0
1001
PHOENIX7010
1002
{
1070
    41
1040
1.5
1002
}
  0
LINE
  5
1805
330
18
100
AcDbEntity
  8
0
  6
Continuous
 62
     7
100
AcDbLine
 10
189.8746553398068
 20
225.9652614828421
 30
0.0
 11
193.2079886731403
 21
225.9652614828421
 31
0.0
1001
PHOENIX7010
1002
{
1070
    41
1040
1.5
1002
}
  0
LINE
  5
1806
330
18
100
AcDbEntity
  8
0
  6
Continuous
 62
     7
100
AcDbLine
 10
193.2079886731403
 20
225.9652614828421
 30
0.0
 11
193.2079886731403
 21
223.2985948161755
 31
0.0
1001
PHOENIX7010
1002
{
1070
    41
1040
1.5
1002
}
  0
LINE
  5
1807
330
18
100
AcDbEntity
  8
0
  6
Continuous
 62
     7
100
AcDbLine
 10
199.8746553398068
 20
223.2985948161755
 30
0.0
 11
199.8746553398068
 21
225.9652614828421
 31
0.0
1001
PHOENIX7010
1002
{
1070
    41
1040
1.5
1002
}
  0
LINE
  5
1808
330
18
100
AcDbEntity
  8
0
  6
Continuous
 62
     7
100
AcDbLine
 10
199.8746553398068
 20
225.9652614828421
 30
0.0
 11
203.2079886731403
 21
225.9652614828421
 31
0.0
1001
PHOENIX7010
1002
{
1070
    41
1040
1.5
1002
}
  0
LINE
  5
1809
330
18
100
AcDbEntity
  8
0
  6
Continuous
 62
     7
100
AcDbLine
 10
203.2079886731403
 20
225.9652614828421
 30
0.0
 11
203.2079886731403
 21
223.2985948161755
 31
0.0
1001
PHOENIX7010
1002
{
1070
    41
1040
1.5
1002
}
  0
LINE
  5
180A
330
18
100
AcDbEntity
  8
0
  6
Continuous
 62
     7
100
AcDbLine
 10
209.8746553398068
 20
223.2985948161755
 30
0.0
 11
209.8746553398068
 21
225.9652614828421
 31
0.0
1001
PHOENIX7010
1002
{
1070
    41
1040
1.5
1002
}
  0
LINE
  5
180B
330
18
100
AcDbEntity
  8
0
  6
Continuous
 62
     7
100
AcDbLine
 10
209.8746553398068
 20
225.9652614828421
 30
0.0
 11
213.2079886731403
 21
225.9652614828421
 31
0.0
1001
PHOENIX7010
1002
{
1070
    41
1040
1.5
1002
}
  0
LINE
  5
180C
330
18
100
AcDbEntity
  8
0
  6
Continuous
 62
     7
100
AcDbLine
 10
213.2079886731403
 20
225.9652614828421
 30
0.0
 11
213.2079886731403
 21
223.2985948161755
 31
0.0
1001
PHOENIX7010
1002
{
1070
    41
1040
1.5
1002
}
  0
LINE
  5
180D
330
18
100
AcDbEntity
  8
0
  6
Continuous
 62
     7
100
AcDbLine
 10
219.8746553398069
 20
223.2985948161755
 30
0.0
 11
219.8746553398069
 21
225.9652614828421
 31
0.0
1001
PHOENIX7010
1002
{
1070
    41
1040
1.5
1002
}
  0
LINE
  5
180E
330
18
100
AcDbEntity
  8
0
  6
Continuous
 62
     7
100
AcDbLine
 10
219.8746553398069
 20
225.9652614828421
 30
0.0
 11
223.2079886731404
 21
225.9652614828421
 31
0.0
1001
PHOENIX7010
1002
{
1070
    41
1040
1.5
1002
}
  0
LINE
  5
180F
330
18
100
AcDbEntity
  8
0
  6
Continuous
 62
     7
100
AcDbLine
 10
223.2079886731404
 20
225.9652614828421
 30
0.0
 11
223.2079886731404
 21
223.2985948161755
 31
0.0
1001
PHOENIX7010
1002
{
1070
    41
1040
1.5
1002
}
  0
LINE
  5
1810
330
18
100
AcDbEntity
  8
0
  6
Continuous
 62
     7
100
AcDbLine
 10
229.8746553398069
 20
223.2985948161755
 30
0.0
 11
229.8746553398069
 21
225.9652614828421
 31
0.0
1001
PHOENIX7010
1002
{
1070
    41
1040
1.5
1002
}
  0
LINE
  5
1811
330
18
100
AcDbEntity
  8
0
  6
Continuous
 62
     7
100
AcDbLine
 10
229.8746553398069
 20
225.9652614828421
 30
0.0
 11
233.2079886731403
 21
225.9652614828421
 31
0.0
1001
PHOENIX7010
1002
{
1070
    41
1040
1.5
1002
}
  0
LINE
  5
1812
330
18
100
AcDbEntity
  8
0
  6
Continuous
 62
     7
100
AcDbLine
 10
233.2079886731403
 20
225.9652614828421
 30
0.0
 11
233.2079886731403
 21
223.2985948161755
 31
0.0
1001
PHOENIX7010
1002
{
1070
    41
1040
1.5
1002
}
  0
LINE
  5
1813
330
18
100
AcDbEntity
  8
0
  6
Continuous
 62
     7
100
AcDbLine
 10
239.8745739595986
 20
223.2985948161755
 30
0.0
 11
239.8745739595986
 21
225.9652614828421
 31
0.0
1001
PHOENIX7010
1002
{
1070
    41
1040
1.5
1002
}
  0
LINE
  5
1814
330
18
100
AcDbEntity
  8
0
  6
Continuous
 62
     7
100
AcDbLine
 10
239.8745739595986
 20
225.9652614828421
 30
0.0
 11
243.2079072929318
 21
225.9652614828421
 31
0.0
1001
PHOENIX7010
1002
{
1070
    41
1040
1.5
1002
}
  0
LINE
  5
1815
330
18
100
AcDbEntity
  8
0
  6
Continuous
 62
     7
100
AcDbLine
 10
243.2079072929318
 20
225.9652614828421
 30
0.0
 11
243.2079072929318
 21
223.2985948161755
 31
0.0
1001
PHOENIX7010
1002
{
1070
    41
1040
1.5
1002
}
  0
LINE
  5
1816
102
{ACAD_REACTORS
330
15ED
330
15E3
330
15E6
330
15E4
330
15E7
102
}
330
18
100
AcDbEntity
  8
0
  6
Continuous
 62
     7
100
AcDbLine
 10
249.8745739595986
 20
223.2985948161755
 30
0.0
 11
249.8745739595986
 21
225.9652614828421
 31
0.0
1001
PHOENIX7010
1002
{
1070
    41
1040
1.5
1002
}
  0
LINE
  5
1817
102
{ACAD_REACTORS
330
15ED
330
15E3
330
15E6
330
15E4
330
15E7
102
}
330
18
100
AcDbEntity
  8
0
  6
Continuous
 62
     7
100
AcDbLine
 10
249.8745739595986
 20
225.9652614828421
 30
0.0
 11
253.2079072929318
 21
225.9652614828421
 31
0.0
1001
PHOENIX7010
1002
{
1070
    41
1040
1.5
1002
}
  0
LINE
  5
1818
102
{ACAD_REACTORS
330
15ED
330
15E3
330
15E6
330
15E4
330
15E7
102
}
330
18
100
AcDbEntity
  8
0
  6
Continuous
 62
     7
100
AcDbLine
 10
253.2079072929318
 20
225.9652614828421
 30
0.0
 11
253.2079072929318
 21
223.2985948161755
 31
0.0
1001
PHOENIX7010
1002
{
1070
    41
1040
1.5
1002
}
  0
LINE
  5
1823
330
18
100
AcDbEntity
  8
0
  6
ACAD_ISO02W100
 62
     5
100
AcDbLine
 10
121.0746268567341
 20
232.2985948161754
 30
0.0
 11
121.0746268567341
 21
143.9653225179983
 31
0.0
1001
PHOENIX7010
1002
{
1070
    41
1040
1.5
1002
}
  0
LINE
  5
189C
102
{ACAD_REACTORS
330
18AB
102
}
330
18
100
AcDbEntity
  8
0
  6
Continuous
 62
     1
100
AcDbLine
 10
229.0
 20
4.0
 30
0.0
 11
229.0
 21
0.0
 31
0.0
1001
PHOENIX7010
1002
{
1070
    62
1070
     1
1070
    41
1040
1.0
1002
}
  0
LINE
  5
189D
102
{ACAD_REACTORS
330
18AB
102
}
330
18
100
AcDbEntity
  8
0
  6
Continuous
 62
     3
100
AcDbLine
 10
414.0
 20
4.0
 30
0.0
 11
19.0
 21
4.0
 31
0.0
1001
PHOENIX7010
1002
{
1070
    62
1070
     3
1070
    41
1040
1.0
1002
}
  0
LINE
  5
189E
102
{ACAD_REACTORS
330
18AB
102
}
330
18
100
AcDbEntity
  8
0
  6
Continuous
 62
     1
100
AcDbLine
 10
124.0
 20
295.0
 30
0.0
 11
124.0
 21
291.0
 31
0.0
1001
PHOENIX7010
1002
{
1070
    62
1070
     1
1070
    41
1040
1.0
1002
}
  0
LINE
  5
189F
102
{ACAD_REACTORS
330
18AB
102
}
330
18
100
AcDbEntity
  8
0
  6
Continuous
 62
     1
100
AcDbLine
 10
229.0
 20
295.0
 30
0.0
 11
229.0
 21
291.0
 31
0.0
1001
PHOENIX7010
1002
{
1070
    62
1070
     1
1070
    41
1040
1.0
1002
}
  0
LINE
  5
18A0
102
{ACAD_REACTORS
330
18AB
102
}
330
18
100
AcDbEntity
  8
0
  6
Continuous
 62
     1
100
AcDbLine
 10
124.0
 20
4.0
 30
0.0
 11
124.0
 21
0.0
 31
0.0
1001
PHOENIX7010
1002
{
1070
    62
1070
     1
1070
    41
1040
1.0
1002
}
  0
LINE
  5
18A1
102
{ACAD_REACTORS
330
18AB
102
}
330
18
100
AcDbEntity
  8
0
  6
Continuous
 62
     1
100
AcDbLine
 10
418.0
 20
0.0
 30
0.0
 11
0.0
 21
0.0
 31
0.0
1001
PHOENIX7010
1002
{
1070
    62
1070
     1
1070
    41
1040
1.0
1002
}
  0
LINE
  5
18A2
102
{ACAD_REACTORS
330
18AB
102
}
330
18
100
AcDbEntity
  8
0
  6
Continuous
 62
     1
100
AcDbLine
 10
0.0
 20
0.0
 30
0.0
 11
0.0
 21
295.0
 31
0.0
1001
PHOENIX7010
1002
{
1070
    62
1070
     1
1070
    41
1040
1.0
1002
}
  0
LINE
  5
18A3
102
{ACAD_REACTORS
330
18AB
102
}
330
18
100
AcDbEntity
  8
0
  6
Continuous
 62
     1
100
AcDbLine
 10
0.0
 20
295.0
 30
0.0
 11
418.0
 21
295.0
 31
0.0
1001
PHOENIX7010
1002
{
1070
    62
1070
     1
1070
    41
1040
1.0
1002
}
  0
LINE
  5
18A4
102
{ACAD_REACTORS
330
18AB
102
}
330
18
100
AcDbEntity
  8
0
  6
Continuous
 62
     1
100
AcDbLine
 10
418.0
 20
295.0
 30
0.0
 11
418.0
 21
0.0
 31
0.0
1001
PHOENIX7010
1002
{
1070
    62
1070
     1
1070
    41
1040
1.0
1002
}
  0
LINE
  5
18A5
102
{ACAD_REACTORS
330
18AB
102
}
330
18
100
AcDbEntity
  8
0
  6
Continuous
 62
     3
100
AcDbLine
 10
19.0
 20
4.0
 30
0.0
 11
19.0
 21
291.0
 31
0.0
1001
PHOENIX7010
1002
{
1070
    62
1070
     3
1070
    41
1040
1.0
1002
}
  0
LINE
  5
18A6
102
{ACAD_REACTORS
330
18AB
102
}
330
18
100
AcDbEntity
  8
0
  6
Continuous
 62
     3
100
AcDbLine
 10
19.0
 20
291.0
 30
0.0
 11
414.0
 21
291.0
 31
0.0
1001
PHOENIX7010
1002
{
1070
    62
1070
     3
1070
    41
1040
1.0
1002
}
  0
LINE
  5
18A7
102
{ACAD_REACTORS
330
18AB
102
}
330
18
100
AcDbEntity
  8
0
  6
Continuous
 62
     3
100
AcDbLine
 10
414.0
 20
291.0
 30
0.0
 11
414.0
 21
4.0
 31
0.0
1001
PHOENIX7010
1002
{
1070
    62
1070
     3
1070
    41
1040
1.0
1002
}
  0
MTEXT
  5
18A8
102
{ACAD_REACTORS
330
18AB
102
}
330
18
100
AcDbEntity
  8
0
  6
Continuous
 62
     7
370
    50
100
AcDbMText
 10
18.70248718641096
 20
54.3935120791333
 30
0.0
 40
2.0
 41
0.0
 71
     7
 72
     5
  1
{\T1.1;\C1;"Schutzvermerk nach DIN ISO 16016 beachten" \Q20;"Please pay attention to copyright note DIN ISO 16016"}
 11
0.0000000000000002
 21
1.0
 31
0.0
 73
     1
 44
1.0
1001
PHOENIX7010
1002
{
1070
    41
1040
1.0
1002
}
1001
ACAD
1000
MTEXTBEGIN
1070
    73
1070
     1
1070
    44
1040
1.0
1070
    74
1070
     0
1000
MTEXTEND
  0
INSERT
  5
18A9
102
{ACAD_REACTORS
330
18AB
102
}
330
18
100
AcDbEntity
  8
0
  6
Continuous
 62
     1
100
AcDbBlockReference
  2
PH_GRPBLK
 10
229.0
 20
4.0
 30
0.0
1001
PHOENIX7010
1002
{
1070
    41
1040
1.0
1002
}
  0
HATCH
  5
1924
102
{ACAD_REACTORS
330
1978
102
}
330
18
100
AcDbEntity
  8
0
  6
Continuous
 62
     1
370
    25
100
AcDbHatch
 10
0.0
 20
0.0
 30
0.0
210
0.0
220
0.0
230
1.0
  2
_U
 70
     0
 71
     1
 91
        1
 92
        0
 93
        5
 72
     1
 10
406.4334749940256
 20
34.16453811398037
 11
399.7334749940256
 21
26.3645381139803
 72
     1
 10
399.7334749940255
 20
26.3645381139803
 11
411.7334749940255
 21
26.3645381139803
 72
     1
 10
411.7334749940255
 20
26.3645381139803
 11
411.7334749940256
 21
34.16453811398032
 72
     1
 10
411.7334749940255
 20
34.16453811398026
 11
406.4334749940255
 21
27.26453811398036
 72
     1
 10
406.4334749940256
 20
27.2645381139804
 11
406.4334749940255
 21
34.16453811398037
 97
        1
330
1968
 75
     0
 76
     0
 52
45.0
 41
0.1
 77
     0
 78
     1
 53
45.0
 43
-1.0
 44
-33.08885297207064
 45
-0.0707106781186548
 46
0.0707106781186548
 79
     0
 98
        1
 10
-1.0
 20
-33.08885297207064
1001
PHOENIX7010
1002
{
1070
    41
1040
1.0
1002
}
  0
HATCH
  5
1925
102
{ACAD_REACTORS
330
1978
102
}
330
18
100
AcDbEntity
  8
0
  6
Continuous
 62
     1
370
    25
100
AcDbHatch
 10
0.0
 20
0.0
 30
0.0
210
0.0
220
0.0
230
1.0
  2
_U
 70
     0
 71
     1
 91
        1
 92
        0
 93
        3
 72
     1
 10
398.8834749940255
 20
26.3645381139803
 11
398.8834749940255
 21
30.51453811398031
 72
     1
 10
398.8834749940255
 20
30.51453811398028
 11
403.0334749940254
 21
30.51453811398028
 72
     2
 10
398.8834749940255
 20
30.51453811398028
 40
4.149999999999977
 50
0.0000000000001962
 51
270.0
 73
     1
 97
        1
330
1969
 75
     0
 76
     0
 52
45.0
 41
0.65
 77
     0
 78
     1
 53
45.0
 43
-1.0
 44
-33.08885297207064
 45
-0.4596194077712559
 46
0.459619407771256
 79
     0
 98
        1
 10
-1.0
 20
-33.08885297207064
1001
PHOENIX7010
1002
{
1070
    41
1040
1.0
1002
}
  0
LINE
  5
1926
102
{ACAD_REACTORS
330
1978
102
}
330
18
100
AcDbEntity
  8
0
  6
Continuous
 62
     7
370
    50
100
AcDbLine
 10
399.7334749940255
 20
26.3645381139803
 30
0.0
 11
411.7334749940255
 21
26.3645381139803
 31
0.0
1001
PHOENIX7010
1002
{
1070
    41
1040
1.0
1002
}
  0
LINE
  5
1927
102
{ACAD_REACTORS
330
1978
102
}
330
18
100
AcDbEntity
  8
0
  6
Continuous
 62
     7
370
    50
100
AcDbLine
 10
411.7334749940255
 20
26.3645381139803
 30
0.0
 11
411.7334749940255
 21
34.16453811398026
 31
0.0
1001
PHOENIX7010
1002
{
1070
    41
1040
1.0
1002
}
  0
LINE
  5
1928
102
{ACAD_REACTORS
330
1978
102
}
330
18
100
AcDbEntity
  8
0
  6
Continuous
 62
     7
370
    50
100
AcDbLine
 10
406.4334749940256
 20
27.26453811398028
 30
0.0
 11
406.4334749940256
 21
34.16453811398026
 31
0.0
1001
PHOENIX7010
1002
{
1070
    41
1040
1.0
1002
}
  0
LINE
  5
1929
102
{ACAD_REACTORS
330
1978
102
}
330
18
100
AcDbEntity
  8
0
  6
Continuous
 62
     7
370
    50
100
AcDbLine
 10
406.4334749940256
 20
34.16453811398026
 30
0.0
 11
399.7334749940255
 21
26.3645381139803
 31
0.0
1001
PHOENIX7010
1002
{
1070
    41
1040
1.0
1002
}
  0
LINE
  5
192A
102
{ACAD_REACTORS
330
1978
102
}
330
18
100
AcDbEntity
  8
0
  6
Continuous
 62
     7
370
    50
100
AcDbLine
 10
411.7334749940255
 20
34.16453811398026
 30
0.0
 11
406.4334749940256
 21
27.26453811398028
 31
0.0
1001
PHOENIX7010
1002
{
1070
    41
1040
1.0
1002
}
  0
INSERT
  5
192B
102
{ACAD_REACTORS
330
1978
102
}
330
18
100
AcDbEntity
  8
0
  6
Continuous
 62
     1
370
    25
100
AcDbBlockReference
  2
PH_GRPBLK
 10
399.7334749940255
 20
26.3645381139803
 30
0.0
1001
PHOENIX7010
1002
{
1070
    41
1040
1.0
1002
}
  0
MTEXT
  5
192C
102
{ACAD_REACTORS
330
1979
102
}
330
18
100
AcDbEntity
  8
0
  6
Continuous
 62
     7
370
    50
100
AcDbMText
 10
380.0842366554657
 20
16.88346060003141
 30
0.0
 40
1.6
 41
0.0
 71
     7
 72
     5
  1
{\fArial|b0|i0|c0|p34;\W1.1;\C1;A Phoenix Mecano Company}
 73
     1
 44
1.0
1001
PHOENIX7010
1002
{
1070
    41
1040
1.0
1002
}
1001
ACAD
1000
MTEXTBEGIN
1070
    73
1070
     1
1070
    44
1040
1.0
1070
    74
1070
     0
1000
MTEXTEND
  0
MTEXT
  5
192D
102
{ACAD_XDICTIONARY
360
19AE
102
}
102
{ACAD_REACTORS
330
1979
102
}
330
18
100
AcDbEntity
  8
0
  6
Continuous
 62
     7
370
    50
100
AcDbMText
 10
392.5658807175858
 20
20.46517927327727
 30
0.0
 40
3.7
 41
0.0
 71
     7
 72
     5
  1
{\fArial|b1|i0|c0|p34;\W1.1;BOPLA}
 73
     1
 44
1.135135135135135
1001
PHOENIX7010
1002
{
1070
    41
1040
1.0
1002
}
1001
ACAD
1000
MTEXTBEGIN
1070
    73
1070
     1
1070
    44
1040
1.135135135135135
1070
    74
1070
     0
1000
MTEXTEND
  0
INSERT
  5
192E
102
{ACAD_REACTORS
330
1979
102
}
330
18
100
AcDbEntity
  8
0
  6
Continuous
 62
     7
370
    50
100
AcDbBlockReference
  2
PH_GRPBLK
 10
399.7334749940255
 20
26.3645381139803
 30
0.0
1001
PHOENIX7010
1002
{
1070
    41
1040
1.0
1002
}
  0
MTEXT
  5
192F
102
{ACAD_REACTORS
330
197A
102
}
330
18
100
AcDbEntity
  8
0
  6
Continuous
 62
     5
370
    35
100
AcDbMText
 10
317.9304981780733
 20
51.18090043987115
 30
0.0
 40
3.5
 41
0.0
 71
     7
 72
     5
  1
{\C7;Katalogzeichnung/\Q20;Catalogue drawing}
 73
     1
 44
1.0
1001
PHOENIX7010
1002
{
1070
    41
1040
1.0
1002
}
1001
ACAD
1000
MTEXTBEGIN
1070
    73
1070
     1
1070
    44
1040
1.0
1070
    74
1070
     0
1000
MTEXTEND
  0
MTEXT
  5
1930
102
{ACAD_REACTORS
330
197A
102
}
330
18
100
AcDbEntity
  8
0
  6
Continuous
 62
     5
370
    35
100
AcDbMText
 10
317.9304981780733
 20
58.18090043987115
 30
0.0
 40
4.0
 41
0.0
 71
     7
 72
     5
  1
{\C7;BSW/M . . 300-BN}
 73
     1
 44
1.0
1001
PHOENIX7010
1002
{
1070
    41
1040
1.0
1002
}
1001
ACAD
1000
MTEXTBEGIN
1070
    73
1070
     1
1070
    44
1040
1.0
1070
    74
1070
     0
1000
MTEXTEND
  0
MTEXT
  5
1931
102
{ACAD_REACTORS
330
197A
102
}
330
18
100
AcDbEntity
  8
0
  6
Continuous
 62
     5
370
    35
100
AcDbMText
 10
317.9304981780733
 20
65.18090043987115
 30
0.0
 40
4.0
 41
0.0
 71
     7
 72
     5
  1
{\C7;Interzoll Modul}
 73
     1
 44
1.0
1001
PHOENIX7010
1002
{
1070
    41
1040
1.0
1002
}
1001
ACAD
1000
MTEXTBEGIN
1070
    73
1070
     1
1070
    44
1040
1.0
1070
    74
1070
     0
1000
MTEXTEND
  0
MTEXT
  5
1932
102
{ACAD_REACTORS
330
197A
102
}
330
18
100
AcDbEntity
  8
0
  6
Continuous
 62
     5
370
    35
100
AcDbMText
 10
339.3074630969179
 20
94.1987580068236
 30
0.0
 40
4.0
 41
0.0
 71
     7
 72
     5
  1
{\C7;-}
 73
     1
 44
1.0
1001
PHOENIX7010
1002
{
1070
    41
1040
1.0
1002
}
1001
ACAD
1000
MTEXTBEGIN
1070
    73
1070
     1
1070
    44
1040
1.0
1070
    74
1070
     0
1000
MTEXTEND
  0
MTEXT
  5
1933
102
{ACAD_REACTORS
330
197A
102
}
330
18
100
AcDbEntity
  8
0
  6
Continuous
 62
     5
370
    35
100
AcDbMText
 10
318.2942762589885
 20
93.24669079255102
 30
0.0
 40
2.5
 41
0.0
 71
     7
 72
     5
  1
{\C1;Maßstab/\P\Q20;Scale:}
 73
     1
 44
1.0
1001
PHOENIX7010
1002
{
1070
    41
1040
1.0
1002
}
1001
ACAD
1000
MTEXTBEGIN
1070
    73
1070
     1
1070
    44
1040
1.0
1070
    74
1070
     0
1000
MTEXTEND
  0
MTEXT
  5
1934
102
{ACAD_REACTORS
330
197A
102
}
330
18
100
AcDbEntity
  8
0
  6
Continuous
 62
     5
370
    35
100
AcDbMText
 10
318.5702130763932
 20
85.57846179300588
 30
0.0
 40
3.0
 41
0.0
 71
     7
 72
     5
  1
Zeichnungs-Nr. / {\Q20;Drawing-No.:}
 73
     1
 44
1.0
1001
PHOENIX7010
1002
{
1070
    41
1040
1.0
1002
}
1001
ACAD
1000
MTEXTBEGIN
1070
    73
1070
     1
1070
    44
1040
1.0
1070
    74
1070
     0
1000
MTEXTEND
  0
MTEXT
  5
1935
102
{ACAD_REACTORS
330
197A
102
}
330
18
100
AcDbEntity
  8
0
  6
Continuous
 62
     5
370
    35
100
AcDbMText
 10
339.6810942169352
 20
79.43630467405558
 30
0.0
 40
4.0
 41
0.0
 71
     7
 72
     5
  1
{\C7;3K 5315.043.01}
 73
     1
 44
1.0
1001
PHOENIX7010
1002
{
1070
    41
1040
1.0
1002
}
1001
ACAD
1000
MTEXTBEGIN
1070
    73
1070
     1
1070
    44
1040
1.0
1070
    74
1070
     0
1000
MTEXTEND
  0
MTEXT
  5
1936
102
{ACAD_REACTORS
330
197A
102
}
330
18
100
AcDbEntity
  8
0
  6
Continuous
 62
     5
370
    35
100
AcDbMText
 10
317.8800602381664
 20
71.42896167163701
 30
0.0
 40
4.0
 41
0.0
 71
     7
 72
     5
  1
{\C7;Artikel / \Q20;Article:}
 73
     1
 44
1.0
1001
PHOENIX7010
1002
{
1070
    41
1040
1.0
1002
}
1001
ACAD
1000
MTEXTBEGIN
1070
    73
1070
     1
1070
    44
1040
1.0
1070
    74
1070
     0
1000
MTEXTEND
  0
MTEXT
  5
1937
102
{ACAD_REACTORS
330
197A
102
}
330
18
100
AcDbEntity
  8
0
  6
Continuous
 62
     5
370
    35
100
AcDbMText
 10
328.5918340418987
 20
14.32304279191078
 30
0.0
 40
2.0
 41
0.0
 71
     7
 72
     5
  1
{\C1;Datum/\P\Q20;Date:}
 73
     1
 44
1.0
1001
PHOENIX7010
1002
{
1070
    41
1040
1.0
1002
}
1001
ACAD
1000
MTEXTBEGIN
1070
    73
1070
     1
1070
    44
1040
1.0
1070
    74
1070
     0
1000
MTEXTEND
  0
MTEXT
  5
1938
102
{ACAD_REACTORS
330
197A
102
}
330
18
100
AcDbEntity
  8
0
  6
Continuous
 62
     5
370
    35
100
AcDbMText
 10
315.167758256943
 20
14.32303913053613
 30
0.0
 40
2.0
 41
0.0
 71
     7
 72
     5
  1
{\C1;Ä.Nr/\P\Q20;Alt-No.:}
 73
     1
 44
1.0
1001
PHOENIX7010
1002
{
1070
    41
1040
1.0
1002
}
1001
ACAD
1000
MTEXTBEGIN
1070
    73
1070
     1
1070
    44
1040
1.0
1070
    74
1070
     0
1000
MTEXTEND
  0
MTEXT
  5
1939
102
{ACAD_REACTORS
330
197A
102
}
330
18
100
AcDbEntity
  8
0
  6
Continuous
 62
     5
370
    35
100
AcDbMText
 10
341.2178658257174
 20
9.605921666139238
 30
0.0
 40
2.5
 41
0.0
 71
     7
 72
     5
  1
2 901 853
 73
     1
 44
1.0
1001
PHOENIX7010
1002
{
1070
    41
1040
1.0
1002
}
1001
ACAD
1000
MTEXTBEGIN
1070
    73
1070
     1
1070
    44
1040
1.0
1070
    74
1070
     0
1000
MTEXTEND
  0
MTEXT
  5
193A
102
{ACAD_REACTORS
330
197A
102
}
330
18
100
AcDbEntity
  8
0
  6
Continuous
 62
     5
370
    35
100
AcDbMText
 10
315.5289912646938
 20
9.494755270981045
 30
0.0
 40
2.5
 41
0.0
 71
     7
 72
     5
  1
DISK:
 73
     1
 44
1.0
1001
PHOENIX7010
1002
{
1070
    41
1040
1.0
1002
}
1001
ACAD
1000
MTEXTBEGIN
1070
    73
1070
     1
1070
    44
1040
1.0
1070
    74
1070
     0
1000
MTEXTEND
  0
MTEXT
  5
193B
102
{ACAD_REACTORS
330
197A
102
}
330
18
100
AcDbEntity
  8
0
  6
Continuous
 62
     5
370
    35
100
AcDbMText
 10
341.2178658257174
 20
5.24888752318759
 30
0.0
 40
2.5
 41
0.0
 71
     7
 72
     5
  1
18.06.99 HR
 73
     1
 44
1.0
1001
PHOENIX7010
1002
{
1070
    41
1040
1.0
1002
}
1001
ACAD
1000
MTEXTBEGIN
1070
    73
1070
     1
1070
    44
1040
1.0
1070
    74
1070
     0
1000
MTEXTEND
  0
MTEXT
  5
193C
102
{ACAD_REACTORS
330
197A
102
}
330
18
100
AcDbEntity
  8
0
  6
Continuous
 62
     5
370
    35
100
AcDbMText
 10
315.5289912646938
 20
5.24888752318759
 30
0.0
 40
2.5
 41
0.0
 71
     7
 72
     5
  1
Datum/{\Q20;Date:}
 73
     1
 44
1.0
1001
PHOENIX7010
1002
{
1070
    41
1040
1.0
1002
}
1001
ACAD
1000
MTEXTBEGIN
1070
    73
1070
     1
1070
    44
1040
1.0
1070
    74
1070
     0
1000
MTEXTEND
  0
LINE
  5
193D
102
{ACAD_REACTORS
330
197A
102
}
330
18
100
AcDbEntity
  8
0
  6
Continuous
 62
     5
370
    35
100
AcDbLine
 10
313.9999999999998
 20
13.50000000000011
 30
0.0
 11
414.0
 21
13.50000000000011
 31
0.0
1001
PHOENIX7010
1002
{
1070
    41
1040
1.0
1002
}
  0
LINE
  5
193E
102
{ACAD_REACTORS
330
197A
102
}
330
18
100
AcDbEntity
  8
0
  6
Continuous
 62
     5
100
AcDbLine
 10
404.4999999999998
 20
91.5
 30
0.0
 11
404.4999999999998
 21
98.50000000000001
 31
0.0
1001
PHOENIX7010
1002
{
1070
    62
1070
     5
1070
    41
1040
1.0
1002
}
  0
LINE
  5
193F
102
{ACAD_REACTORS
330
197A
102
}
330
18
100
AcDbEntity
  8
0
  6
ACAD_ISO04W100
 62
     1
 48
0.1451612903225806
100
AcDbLine
 10
409.4999999999997
 20
90.5
 30
0.0
 11
409.4999999999997
 21
99.50000000000001
 31
0.0
1001
PHOENIX7010
1002
{
1070
    62
1070
     1
1070
    41
1040
1.0
1002
}
  0
CIRCLE
  5
1940
102
{ACAD_REACTORS
330
197A
102
}
330
18
100
AcDbEntity
  8
0
  6
Continuous
 62
     5
100
AcDbCircle
 10
409.4999999999997
 20
95.0
 30
0.0
 40
1.75
1001
PHOENIX7010
1002
{
1070
    62
1070
     5
1070
    41
1040
1.0
1002
}
  0
CIRCLE
  5
1941
102
{ACAD_REACTORS
330
197A
102
}
330
18
100
AcDbEntity
  8
0
  6
Continuous
 62
     5
100
AcDbCircle
 10
409.4999999999997
 20
95.0
 30
0.0
 40
3.5
1001
PHOENIX7010
1002
{
1070
    62
1070
     5
1070
    41
1040
1.0
1002
}
  0
LINE
  5
1942
102
{ACAD_REACTORS
330
197A
102
}
330
18
100
AcDbEntity
  8
0
  6
Continuous
 62
     5
100
AcDbLine
 10
397.4999999999998
 20
93.25000000000001
 30
0.0
 11
397.4999999999998
 21
96.75
 31
0.0
1001
PHOENIX7010
1002
{
1070
    62
1070
     5
1070
    41
1040
1.0
1002
}
  0
LINE
  5
1943
102
{ACAD_REACTORS
330
197A
102
}
330
18
100
AcDbEntity
  8
0
  6
ACAD_ISO04W100
 62
     1
 48
0.282258064516129
100
AcDbLine
 10
413.9999999999997
 20
95.0
 30
0.0
 11
396.4999999999998
 21
95.0
 31
0.0
1001
PHOENIX7010
1002
{
1070
    62
1070
     1
1070
    41
1040
1.0
1002
}
  0
LINE
  5
1944
102
{ACAD_REACTORS
330
197A
102
}
330
18
100
AcDbEntity
  8
0
  6
Continuous
 62
     5
100
AcDbLine
 10
404.4999999999998
 20
91.5
 30
0.0
 11
397.4999999999998
 21
93.25000000000001
 31
0.0
1001
PHOENIX7010
1002
{
1070
    62
1070
     5
1070
    41
1040
1.0
1002
}
  0
LINE
  5
1945
102
{ACAD_REACTORS
330
197A
102
}
330
18
100
AcDbEntity
  8
0
  6
Continuous
 62
     5
100
AcDbLine
 10
404.4999999999998
 20
98.50000000000001
 30
0.0
 11
397.4999999999998
 21
96.75
 31
0.0
1001
PHOENIX7010
1002
{
1070
    62
1070
     5
1070
    41
1040
1.0
1002
}
  0
ARC
  5
1946
102
{ACAD_REACTORS
330
197A
102
}
330
18
100
AcDbEntity
  8
0
  6
Continuous
 62
     5
100
AcDbCircle
 10
316.4999999999998
 20
88.0
 30
0.0
 40
2.5
100
AcDbArc
 50
90.0
 51
180.0
1001
PHOENIX7010
1002
{
1070
    62
1070
     5
1070
    41
1040
1.0
1002
}
  0
ARC
  5
1947
102
{ACAD_REACTORS
330
197A
102
}
330
18
100
AcDbEntity
  8
0
  6
Continuous
 62
     5
100
AcDbCircle
 10
316.4999999999998
 20
99.0
 30
0.0
 40
2.5
100
AcDbArc
 50
90.0
 51
180.0
1001
PHOENIX7010
1002
{
1070
    62
1070
     5
1070
    41
1040
1.0
1002
}
  0
LINE
  5
1948
102
{ACAD_REACTORS
330
197A
102
}
330
18
100
AcDbEntity
  8
0
  6
Continuous
 62
     5
100
AcDbLine
 10
414.0
 20
90.5
 30
0.0
 11
316.4999999999998
 21
90.5
 31
0.0
1001
PHOENIX7010
1002
{
1070
    62
1070
     5
1070
    41
1040
1.0
1002
}
  0
LINE
  5
1949
102
{ACAD_REACTORS
330
197A
102
}
330
18
100
AcDbEntity
  8
0
  6
Continuous
 62
     5
100
AcDbLine
 10
414.0
 20
101.5
 30
0.0
 11
316.4999999999998
 21
101.5
 31
0.0
1001
PHOENIX7010
1002
{
1070
    62
1070
     5
1070
    41
1040
1.0
1002
}
  0
LINE
  5
194A
102
{ACAD_REACTORS
330
197A
102
}
330
18
100
AcDbEntity
  8
0
  6
Continuous
 62
     5
100
AcDbLine
 10
349.0
 20
47.00000000000011
 30
0.0
 11
349.0
 21
13.50000000000011
 31
0.0
1001
PHOENIX7010
1002
{
1070
    62
1070
     5
1070
    41
1040
1.0
1002
}
  0
TEXT
  5
194B
102
{ACAD_REACTORS
330
197A
102
}
330
18
100
AcDbEntity
  8
0
  6
Continuous
 62
     1
100
AcDbText
 10
327.9999996997324
 20
41.74999981501355
 30
0.0
 40
2.0
  1
-
 41
1.5
100
AcDbText
1001
PHOENIX7010
1002
{
1070
    62
1070
     1
1070
    41
1040
1.0
1002
}
  0
TEXT
  5
194C
102
{ACAD_REACTORS
330
197A
102
}
330
18
100
AcDbEntity
  8
0
  6
Continuous
 62
     1
100
AcDbText
 10
327.9999996997324
 20
39.24999981501355
 30
0.0
 40
2.0
  1
-
 41
1.5
100
AcDbText
1001
PHOENIX7010
1002
{
1070
    62
1070
     1
1070
    41
1040
1.0
1002
}
  0
TEXT
  5
194D
102
{ACAD_REACTORS
330
197A
102
}
330
18
100
AcDbEntity
  8
0
  6
Continuous
 62
     1
100
AcDbText
 10
327.9999996997324
 20
44.24999981501355
 30
0.0
 40
2.0
  1
-
 41
1.5
100
AcDbText
1001
PHOENIX7010
1002
{
1070
    62
1070
     1
1070
    41
1040
1.0
1002
}
  0
TEXT
  5
194E
102
{ACAD_REACTORS
330
197A
102
}
330
18
100
AcDbEntity
  8
0
  6
Continuous
 62
     1
100
AcDbText
 10
314.9999996997324
 20
41.74999981501355
 30
0.0
 40
2.0
  1
-
 41
1.5
100
AcDbText
1001
PHOENIX7010
1002
{
1070
    62
1070
     1
1070
    41
1040
1.0
1002
}
  0
TEXT
  5
194F
102
{ACAD_REACTORS
330
197A
102
}
330
18
100
AcDbEntity
  8
0
  6
Continuous
 62
     1
100
AcDbText
 10
314.9999996997324
 20
39.24999981501355
 30
0.0
 40
2.0
  1
-
 41
1.5
100
AcDbText
1001
PHOENIX7010
1002
{
1070
    62
1070
     1
1070
    41
1040
1.0
1002
}
  0
TEXT
  5
1950
102
{ACAD_REACTORS
330
197A
102
}
330
18
100
AcDbEntity
  8
0
  6
Continuous
 62
     1
100
AcDbText
 10
314.9999996997324
 20
44.24999981501355
 30
0.0
 40
2.0
  1
-
 41
1.5
100
AcDbText
1001
PHOENIX7010
1002
{
1070
    62
1070
     1
1070
    41
1040
1.0
1002
}
  0
ARC
  5
1951
102
{ACAD_REACTORS
330
197A
102
}
330
18
100
AcDbEntity
  8
0
  6
Continuous
 62
     5
100
AcDbCircle
 10
316.4999999999998
 20
44.50000000000011
 30
0.0
 40
2.5
100
AcDbArc
 50
90.0
 51
180.0
1001
PHOENIX7010
1002
{
1070
    62
1070
     5
1070
    41
1040
1.0
1002
}
  0
ARC
  5
1952
102
{ACAD_REACTORS
330
197A
102
}
330
18
100
AcDbEntity
  8
0
  6
Continuous
 62
     5
100
AcDbCircle
 10
316.4999999999998
 20
75.00000000000011
 30
0.0
 40
2.5
100
AcDbArc
 50
90.0
 51
180.0
1001
PHOENIX7010
1002
{
1070
    62
1070
     5
1070
    41
1040
1.0
1002
}
  0
TEXT
  5
1953
102
{ACAD_REACTORS
330
197A
102
}
330
18
100
AcDbEntity
  8
0
  6
Continuous
 62
     1
100
AcDbText
 10
327.9999996997324
 20
24.24999981501355
 30
0.0
 40
2.0
  1
-
 41
1.5
100
AcDbText
1001
PHOENIX7010
1002
{
1070
    62
1070
     1
1070
    41
1040
1.0
1002
}
  0
TEXT
  5
1954
102
{ACAD_REACTORS
330
197A
102
}
330
18
100
AcDbEntity
  8
0
  6
Continuous
 62
     1
100
AcDbText
 10
327.9999996997324
 20
21.74999981501355
 30
0.0
 40
2.0
  1
-
 41
1.5
100
AcDbText
1001
PHOENIX7010
1002
{
1070
    62
1070
     1
1070
    41
1040
1.0
1002
}
  0
TEXT
  5
1955
102
{ACAD_REACTORS
330
197A
102
}
330
18
100
AcDbEntity
  8
0
  6
Continuous
 62
     1
100
AcDbText
 10
327.9999996997324
 20
29.24999981501355
 30
0.0
 40
2.0
  1
-
 41
1.5
100
AcDbText
1001
PHOENIX7010
1002
{
1070
    62
1070
     1
1070
    41
1040
1.0
1002
}
  0
TEXT
  5
1956
102
{ACAD_REACTORS
330
197A
102
}
330
18
100
AcDbEntity
  8
0
  6
Continuous
 62
     1
100
AcDbText
 10
327.9999996997324
 20
26.74999981501355
 30
0.0
 40
2.0
  1
-
 41
1.5
100
AcDbText
1001
PHOENIX7010
1002
{
1070
    62
1070
     1
1070
    41
1040
1.0
1002
}
  0
TEXT
  5
1957
102
{ACAD_REACTORS
330
197A
102
}
330
18
100
AcDbEntity
  8
0
  6
Continuous
 62
     1
100
AcDbText
 10
327.9999996997324
 20
31.74999981501355
 30
0.0
 40
2.0
  1
-
 41
1.5
100
AcDbText
1001
PHOENIX7010
1002
{
1070
    62
1070
     1
1070
    41
1040
1.0
1002
}
  0
TEXT
  5
1958
102
{ACAD_REACTORS
330
197A
102
}
330
18
100
AcDbEntity
  8
0
  6
Continuous
 62
     1
100
AcDbText
 10
327.9999996997324
 20
34.24999981501355
 30
0.0
 40
2.0
  1
-
 41
1.5
100
AcDbText
1001
PHOENIX7010
1002
{
1070
    62
1070
     1
1070
    41
1040
1.0
1002
}
  0
TEXT
  5
1959
102
{ACAD_REACTORS
330
197A
102
}
330
18
100
AcDbEntity
  8
0
  6
Continuous
 62
     1
100
AcDbText
 10
327.9999996997324
 20
36.74999981501355
 30
0.0
 40
2.0
  1
-
 41
1.5
100
AcDbText
1001
PHOENIX7010
1002
{
1070
    62
1070
     1
1070
    41
1040
1.0
1002
}
  0
TEXT
  5
195A
102
{ACAD_REACTORS
330
197A
102
}
330
18
100
AcDbEntity
  8
0
  6
Continuous
 62
     1
100
AcDbText
 10
314.9999996997324
 20
24.24999981501355
 30
0.0
 40
2.0
  1
-
 41
1.5
100
AcDbText
1001
PHOENIX7010
1002
{
1070
    62
1070
     1
1070
    41
1040
1.0
1002
}
  0
TEXT
  5
195B
102
{ACAD_REACTORS
330
197A
102
}
330
18
100
AcDbEntity
  8
0
  6
Continuous
 62
     1
100
AcDbText
 10
314.9999996997324
 20
21.74999981501355
 30
0.0
 40
2.0
  1
-
 41
1.5
100
AcDbText
1001
PHOENIX7010
1002
{
1070
    62
1070
     1
1070
    41
1040
1.0
1002
}
  0
TEXT
  5
195C
102
{ACAD_REACTORS
330
197A
102
}
330
18
100
AcDbEntity
  8
0
  6
Continuous
 62
     1
100
AcDbText
 10
314.9999996997324
 20
29.24999981501355
 30
0.0
 40
2.0
  1
-
 41
1.5
100
AcDbText
1001
PHOENIX7010
1002
{
1070
    62
1070
     1
1070
    41
1040
1.0
1002
}
  0
TEXT
  5
195D
102
{ACAD_REACTORS
330
197A
102
}
330
18
100
AcDbEntity
  8
0
  6
Continuous
 62
     1
100
AcDbText
 10
314.9999996997324
 20
26.74999981501355
 30
0.0
 40
2.0
  1
-
 41
1.5
100
AcDbText
1001
PHOENIX7010
1002
{
1070
    62
1070
     1
1070
    41
1040
1.0
1002
}
  0
TEXT
  5
195E
102
{ACAD_REACTORS
330
197A
102
}
330
18
100
AcDbEntity
  8
0
  6
Continuous
 62
     1
100
AcDbText
 10
314.9999996997324
 20
31.74999981501355
 30
0.0
 40
2.0
  1
-
 41
1.5
100
AcDbText
1001
PHOENIX7010
1002
{
1070
    62
1070
     1
1070
    41
1040
1.0
1002
}
  0
TEXT
  5
195F
102
{ACAD_REACTORS
330
197A
102
}
330
18
100
AcDbEntity
  8
0
  6
Continuous
 62
     1
100
AcDbText
 10
314.9999996997324
 20
34.24999981501355
 30
0.0
 40
2.0
  1
-
 41
1.5
100
AcDbText
1001
PHOENIX7010
1002
{
1070
    62
1070
     1
1070
    41
1040
1.0
1002
}
  0
TEXT
  5
1960
102
{ACAD_REACTORS
330
197A
102
}
330
18
100
AcDbEntity
  8
0
  6
Continuous
 62
     1
100
AcDbText
 10
314.9999996997324
 20
36.74999981501355
 30
0.0
 40
2.0
  1
-
 41
1.5
100
AcDbText
1001
PHOENIX7010
1002
{
1070
    62
1070
     1
1070
    41
1040
1.0
1002
}
  0
LINE
  5
1961
102
{ACAD_REACTORS
330
197A
102
}
330
18
100
AcDbEntity
  8
0
  6
Continuous
 62
     1
100
AcDbLine
 10
326.9999999999998
 20
47.00000000000011
 30
0.0
 11
326.9999999999998
 21
13.50000000000011
 31
0.0
1001
PHOENIX7010
1002
{
1070
    62
1070
     1
1070
    41
1040
1.0
1002
}
  0
LINE
  5
1962
102
{ACAD_REACTORS
330
197A
102
}
330
18
100
AcDbEntity
  8
0
  6
Continuous
 62
     1
100
AcDbLine
 10
313.9999999999998
 20
20.50000000000011
 30
0.0
 11
349.0
 21
20.50000000000011
 31
0.0
1001
PHOENIX7010
1002
{
1070
    62
1070
     1
1070
    41
1040
1.0
1002
}
  0
LINE
  5
1963
102
{ACAD_REACTORS
330
197A
102
}
330
18
100
AcDbEntity
  8
0
  6
Continuous
 62
     5
100
AcDbLine
 10
414.0
 20
77.50000000000011
 30
0.0
 11
316.4999999999998
 21
77.50000000000011
 31
0.0
1001
PHOENIX7010
1002
{
1070
    62
1070
     5
1070
    41
1040
1.0
1002
}
  0
LINE
  5
1964
102
{ACAD_REACTORS
330
197A
102
}
330
18
100
AcDbEntity
  8
0
  6
Continuous
 62
     5
100
AcDbLine
 10
414.0
 20
47.00000000000011
 30
0.0
 11
316.4999999999998
 21
47.00000000000011
 31
0.0
1001
PHOENIX7010
1002
{
1070
    62
1070
     5
1070
    41
1040
1.0
1002
}
  0
LINE
  5
1965
102
{ACAD_REACTORS
330
197A
102
}
330
18
100
AcDbEntity
  8
0
  6
Continuous
 62
     5
100
AcDbLine
 10
313.9999999999998
 20
99.0
 30
0.0
 11
313.9999999999998
 21
4.000000000000113
 31
0.0
1001
PHOENIX7010
1002
{
1070
    62
1070
     5
1070
    41
1040
1.0
1002
}
  0
INSERT
  5
1966
102
{ACAD_REACTORS
330
197A
102
}
330
18
100
AcDbEntity
  8
0
  6
Continuous
 62
     5
370
    35
100
AcDbBlockReference
  2
PH_GRPBLK
 10
313.9999999999998
 20
13.50000000000011
 30
0.0
1001
PHOENIX7010
1002
{
1070
    41
1040
1.0
1002
}
  0
LWPOLYLINE
  5
1968
102
{ACAD_REACTORS
330
1924
102
}
330
18
100
AcDbEntity
  8
0
  6
Continuous
 62
     7
 60
     1
370
    50
100
AcDbPolyline
 90
        5
 70
     1
 43
0.0
 10
406.4334749940256
 20
34.16453811398037
 10
399.7334749940255
 20
26.3645381139803
 10
411.7334749940255
 20
26.3645381139803
 10
411.7334749940255
 20
34.16453811398026
 10
406.4334749940256
 20
27.2645381139804
1001
PHOENIX7010
1002
{
1070
    41
1040
1.0
1002
}
  0
LWPOLYLINE
  5
1969
102
{ACAD_REACTORS
330
1925
102
}
330
18
100
AcDbEntity
  8
0
  6
Continuous
 62
     7
 60
     1
370
    50
100
AcDbPolyline
 90
        3
 70
     1
 43
0.0
 10
398.8834749940255
 20
26.3645381139803
 10
398.8834749940255
 20
30.51453811398028
 10
403.0334749940254
 20
30.51453811398028
 42
2.414213562373094
1001
PHOENIX7010
1002
{
1070
    41
1040
1.0
1002
}
  0
ENDSEC
  0
SECTION
  2
OBJECTS
  0
DICTIONARY
  5
C
330
0
100
AcDbDictionary
281
     1
  3
ACAD_COLOR
350
1882
  3
ACAD_GROUP
350
D
  3
ACAD_LAYOUT
350
184B
  3
ACAD_MATERIAL
350
1855
  3
ACAD_MLEADERSTYLE
350
1897
  3
ACAD_MLINESTYLE
350
1B
  3
ACAD_PLOTSETTINGS
350
184C
  3
ACAD_PLOTSTYLENAME
350
1849
  3
ACAD_SCALELIST
350
1885
  3
ACAD_TABLESTYLE
350
1883
  3
ACAD_VISUALSTYLE
350
186E
  3
ACDB_RECOMPOSE_DATA
350
19B0
  3
AcDbVariableDictionary
350
1990
  3
DWGPROPS
350
19B1
  3
PH_OBJREACTOR_DICT
350
26F
  3
PH_ROOTGROUP_DICT
350
265
  3
PH_VARS
350
264
  0
DICTIONARY
  5
18AC
330
2
100
AcDbDictionary
280
     1
281
     1
  3
ACAD_LAYERSTATES
360
18AD
  0
DICTIONARY
  5
1980
330
E
100
AcDbDictionary
280
     1
281
     1
  3
ADSK_XREC_LAYER_RECONCILED
360
1981
  0
DICTIONARY
  5
1982
330
27D
100
AcDbDictionary
280
     1
281
     1
  3
ADSK_XREC_LAYER_RECONCILED
360
1983
  0
DICTIONARY
  5
19AE
330
192D
100
AcDbDictionary
280
     1
281
     1
  3
ACAD_MTEXT_2008_RT
360
19AF
  0
DICTIONARY
  5
1882
102
{ACAD_REACTORS
330
C
102
}
330
C
100
AcDbDictionary
281
     1
  0
DICTIONARY
  5
D
102
{ACAD_REACTORS
330
C
102
}
330
C
100
AcDbDictionary
281
     1
  3
*A1
350
3D4
  3
*A10
350
15EE
  3
*A11
350
15EF
  3
*A12
350
132A
  3
*A13
350
693
  3
*A14
350
694
  3
*A15
350
695
  3
*A16
350
1323
  3
*A17
350
696
  3
*A18
350
697
  3
*A19
350
698
  3
*A2
350
15E8
  3
*A20
350
699
  3
*A21
350
3DD
  3
*A22
350
3D6
  3
*A23
350
132B
  3
*A24
350
3D7
  3
*A25
350
3D8
  3
*A26
350
A06
  3
*A27
350
A07
  3
*A28
350
1324
  3
*A29
350
A08
  3
*A3
350
15E9
  3
*A30
350
A09
  3
*A31
350
A0A
  3
*A32
350
A0B
  3
*A33
350
A0C
  3
*A34
350
15E3
  3
*A35
350
3DE
  3
*A36
350
A0D
  3
*A37
350
A0E
  3
*A38
350
A0F
  3
*A39
350
3D9
  3
*A4
350
691
  3
*A40
350
1325
  3
*A41
350
A10
  3
*A42
350
A11
  3
*A43
350
A12
  3
*A44
350
A13
  3
*A45
350
692
  3
*A46
350
A14
  3
*A47
350
A15
  3
*A48
350
3DF
  3
*A49
350
A16
  3
*A5
350
15EA
  3
*A50
350
A17
  3
*A51
350
A18
  3
*A52
350
1326
  3
*A53
350
A19
  3
*A54
350
3DA
  3
*A55
350
A1A
  3
*A56
350
15E4
  3
*A57
350
A1B
  3
*A58
350
A1C
  3
*A59
350
A1D
  3
*A6
350
15EB
  3
*A60
350
A1E
  3
*A61
350
3E0
  3
*A62
350
A1F
  3
*A63
350
A20
  3
*A64
350
1327
  3
*A65
350
A21
  3
*A66
350
A22
  3
*A67
350
15E5
  3
*A68
350
A23
  3
*A69
350
3DB
  3
*A7
350
15EC
  3
*A70
350
A24
  3
*A71
350
A25
  3
*A72
350
A26
  3
*A73
350
3DC
  3
*A74
350
68D
  3
*A75
350
68E
  3
*A76
350
1328
  3
*A77
350
68F
  3
*A78
350
15E6
  3
*A79
350
105B
  3
*A8
350
15ED
  3
*A80
350
105C
  3
*A81
350
105D
  3
*A82
350
105E
  3
*A83
350
105F
  3
*A84
350
1060
  3
*A85
350
1061
  3
*A86
350
690
  3
*A87
350
1062
  3
*A88
350
1329
  3
*A89
350
15E7
  3
*A9
350
3D5
  3
*A90
350
1063
  3
*A91
350
1064
  3
*A92
350
1065
  3
*A93
350
1066
  3
*A94
350
1067
  3
*A95
350
131F
  3
*A96
350
1320
  3
*A97
350
1321
  3
*A98
350
1322
  3
_GF_XXXX
350
13C
  3
_MD_XXXX
350
88
  3
_VV_XXXX
350
209
  3
_ZU_XXXX
350
25C
  3
DINA4H
350
20
  3
V11$00009
350
62
  3
V11$00010
350
64
  3
V11$00012
350
6D
  3
V11$00016
350
89
  3
V11$00017
350
8F
  3
V11$00018
350
94
  3
V11$00019
350
95
  3
V11$00022
350
A1
  3
V11$00023
350
A4
  3
V11$00030
350
13D
  3
V11$00031
350
14D
  3
V11$00032
350
14E
  3
V11$00049
350
18F
  3
V11$00058
350
1B8
  3
V11$00067
350
1E1
  3
V11$00076
350
20A
  3
V11$00077
350
21A
  3
V11$00078
350
21B
  0
DICTIONARY
  5
184B
102
{ACAD_REACTORS
330
C
102
}
330
C
100
AcDbDictionary
281
     1
  3
Layout1
350
184E
  3
Model
350
184D
  0
DICTIONARY
  5
1855
102
{ACAD_REACTORS
330
C
102
}
330
C
100
AcDbDictionary
281
     1
  3
ByBlock
350
185E
  3
ByLayer
350
1856
  3
Global
350
1866
  0
DICTIONARY
  5
1897
102
{ACAD_REACTORS
330
C
102
}
330
C
100
AcDbDictionary
281
     1
  3
Standard
350
1898
  0
DICTIONARY
  5
1B
102
{ACAD_REACTORS
330
C
102
}
330
C
100
AcDbDictionary
281
     1
  3
STANDARD
350
1C
  0
DICTIONARY
  5
184C
102
{ACAD_REACTORS
330
C
102
}
330
C
100
AcDbDictionary
281
     1
  0
ACDBDICTIONARYWDFLT
  5
1849
102
{ACAD_REACTORS
330
C
102
}
330
C
100
AcDbDictionary
281
     1
  3
Normal
350
184A
100
AcDbDictionaryWithDefault
340
184A
  0
DICTIONARY
  5
1885
102
{ACAD_REACTORS
330
C
102
}
330
C
100
AcDbDictionary
281
     1
  3
A0
350
1886
  3
A1
350
1887
  3
A2
350
1888
  3
A3
350
1889
  3
A4
350
188A
  3
A5
350
188B
  3
A6
350
188C
  3
A7
350
188D
  3
A8
350
188E
  3
A9
350
188F
  3
B0
350
1890
  3
B1
350
1891
  3
B2
350
1892
  3
B3
350
1893
  3
B4
350
1894
  3
B5
350
1895
  3
B6
350
1896
  0
DICTIONARY
  5
1883
102
{ACAD_REACTORS
330
C
102
}
330
C
100
AcDbDictionary
281
     1
  3
Standard
350
1884
  0
DICTIONARY
  5
186E
102
{ACAD_REACTORS
330
C
102
}
330
C
100
AcDbDictionary
281
     1
  3
2dWireframe
350
1874
  3
3D Hidden
350
1876
  3
3dWireframe
350
1875
  3
Basic
350
1873
  3
Brighten
350
187A
  3
ColorChange
350
187E
  3
Conceptual
350
1877
  3
Dim
350
1879
  3
EdgeColorOff
350
1881
  3
Facepattern
350
187D
  3
Flat
350
186F
  3
FlatWithEdges
350
1870
  3
Gouraud
350
1871
  3
GouraudWithEdges
350
1872
  3
JitterOff
350
187F
  3
Linepattern
350
187C
  3
OverhangOff
350
1880
  3
Realistic
350
1878
  3
Thicken
350
187B
  0
XRECORD
  5
19B0
102
{ACAD_REACTORS
330
C
102
}
330
C
100
AcDbXrecord
280
     1
 90
        1
330
1884
330
192D
  0
DICTIONARY
  5
1990
102
{ACAD_REACTORS
330
C
102
}
330
C
100
AcDbDictionary
281
     1
  3
CANNOSCALE
350
1994
  3
CMLEADERSTYLE
350
1992
  3
CTABLESTYLE
350
1991
  3
DIMASSOC
350
19AA
  3
INDEXCTL
350
19A9
  3
LAYEREVAL
350
1996
  3
LAYERNOTIFY
350
1997
  3
LIGHTINGUNITS
350
1995
  3
MSLTSCALE
350
1993
  3
SORTENTS
350
19A8
  3
XCLIPFRAME
350
19AB
  0
XRECORD
  5
19B1
102
{ACAD_REACTORS
330
C
102
}
330
C
100
AcDbXrecord
280
     1
  1
DWGPROPS COOKIE
  2

  3

  4

  6

  7

  8
kleemann
  9

300
=
301
=
302
=
303
=
304
=
305
=
306
=
307
=
308
=
309
=
 40
0.0362821875
 41
2451107.66701118
 42
2457045.613996227
  1

 90
        0
  0
DICTIONARY
  5
26F
102
{ACAD_REACTORS
330
C
102
}
330
C
100
AcDbDictionary
281
     1
  0
DICTIONARY
  5
265
102
{ACAD_REACTORS
330
C
102
}
330
C
100
AcDbDictionary
281
     1
  3
$PH$AAAI3H
350
18AA
  3
$PH$AAAM
350
1975
  3
PH_GRPMEMBERS
350
197D
  0
PH_VARS
  5
264
102
{ACAD_REACTORS
330
C
102
}
330
C
  0
DICTIONARY
  5
18AD
102
{ACAD_REACTORS
330
18AC
102
}
330
18AC
100
AcDbDictionary
281
     1
  0
XRECORD
  5
1981
102
{ACAD_REACTORS
330
1980
102
}
330
1980
100
AcDbXrecord
280
     1
290
     1
  0
XRECORD
  5
1983
102
{ACAD_REACTORS
330
1982
102
}
330
1982
100
AcDbXrecord
280
     1
290
     1
  0
XRECORD
  5
19AF
102
{ACAD_REACTORS
330
19AE
102
}
330
19AE
100
AcDbXrecord
280
     1
 40
46997.0
  1
\pxql;{\fArial|b1|i0|c0|p34;\W1.1;BOPLA}
  0
GROUP
  5
3D4
102
{ACAD_REACTORS
330
D
102
}
330
D
100
AcDbGroup
300
V11:9262:********
 70
     3
 71
     1
  0
GROUP
  5
15EE
102
{ACAD_REACTORS
330
D
102
}
330
D
100
AcDbGroup
300
V11:7140:_ZU_XXXX
 70
     3
 71
     1
  0
GROUP
  5
15EF
102
{ACAD_REACTORS
330
D
102
}
330
D
100
AcDbGroup
300
V11:7043:DINA4H
 70
     3
 71
     1
  0
GROUP
  5
132A
102
{ACAD_REACTORS
330
D
102
}
330
D
100
AcDbGroup
300
V11:7140:_ZU_XXXX
 70
     3
 71
     1
  0
GROUP
  5
693
102
{ACAD_REACTORS
330
D
102
}
330
D
100
AcDbGroup
300
V11:9348:_MD_XXXX
 70
     3
 71
     1
  0
GROUP
  5
694
102
{ACAD_REACTORS
330
D
102
}
330
D
100
AcDbGroup
300
V11:9697:_VV_XXXX
 70
     3
 71
     1
  0
GROUP
  5
695
102
{ACAD_REACTORS
330
D
102
}
330
D
100
AcDbGroup
300
V11:9338:_VV_XXXX
 70
     3
 71
     1
  0
GROUP
  5
1323
102
{ACAD_REACTORS
330
D
102
}
330
D
100
AcDbGroup
300
V11:7067:_GF_XXXX
 70
     3
 71
     1
  0
GROUP
  5
696
102
{ACAD_REACTORS
330
D
102
}
330
D
100
AcDbGroup
300
V11:9354:_VV_XXXX
 70
     3
 71
     1
  0
GROUP
  5
697
102
{ACAD_REACTORS
330
D
102
}
330
D
100
AcDbGroup
300
V11:9643:_ZU_XXXX
 70
     3
 71
     1
  0
GROUP
  5
698
102
{ACAD_REACTORS
330
D
102
}
330
D
100
AcDbGroup
300
V11:9370:_ZU_XXXX
 70
     3
 71
     1
  0
GROUP
  5
15E8
102
{ACAD_REACTORS
330
D
102
}
330
D
100
AcDbGroup
300
V11:7136:_GF_XXXX
 70
     3
 71
     1
  0
GROUP
  5
699
102
{ACAD_REACTORS
330
D
102
}
330
D
100
AcDbGroup
300
V11:9272:DINA4H
 70
     3
 71
     1
  0
GROUP
  5
3DD
102
{ACAD_REACTORS
330
D
102
}
330
D
100
AcDbGroup
300
V11:9023:_VV_XXXX
 70
     3
 71
     1
  0
GROUP
  5
3D6
102
{ACAD_REACTORS
330
D
102
}
330
D
100
AcDbGroup
300
V11:9029:********
 70
     3
 71
     1
  0
GROUP
  5
132B
102
{ACAD_REACTORS
330
D
102
}
330
D
100
AcDbGroup
300
V11:7043:DINA4H
 70
     3
 71
     1
  0
GROUP
  5
3D7
102
{ACAD_REACTORS
330
D
102
}
330
D
100
AcDbGroup
300
V11:9042:_GF_XXXX
 70
     3
 71
     1
  0
GROUP
  5
3D8
102
{ACAD_REACTORS
330
D
102
}
330
D
100
AcDbGroup
300
V11:8999:_GF_XXXX
 70
     3
 71
     1
  0
GROUP
  5
A06
102
{ACAD_REACTORS
330
D
102
}
330
D
100
AcDbGroup
300
V11:130:_GF_XXXX
 70
     3
 71
     1
  0
GROUP
  5
A07
102
{ACAD_REACTORS
330
D
102
}
330
D
100
AcDbGroup
300
V11:116:_MD_XXXX
 70
     3
 71
     1
  0
GROUP
  5
1324
102
{ACAD_REACTORS
330
D
102
}
330
D
100
AcDbGroup
300
V11:7136:_GF_XXXX
 70
     3
 71
     1
  0
GROUP
  5
A08
102
{ACAD_REACTORS
330
D
102
}
330
D
100
AcDbGroup
300
V11:241:_VV_XXXX
 70
     3
 71
     1
  0
GROUP
  5
15E9
102
{ACAD_REACTORS
330
D
102
}
330
D
100
AcDbGroup
300
V11:7117:_MD_XXXX
 70
     3
 71
     1
340
1695
340
1696
340
1697
340
1698
340
1699
340
169A
340
169B
340
169C
  0
GROUP
  5
A09
102
{ACAD_REACTORS
330
D
102
}
330
D
100
AcDbGroup
300
V11:260:_ZU_XXXX
 70
     3
 71
     1
  0
GROUP
  5
A0A
102
{ACAD_REACTORS
330
D
102
}
330
D
100
AcDbGroup
300
V11:95:DINA4H
 70
     0
 71
     1
  0
GROUP
  5
A0B
102
{ACAD_REACTORS
330
D
102
}
330
D
100
AcDbGroup
300
V11:101:********
 70
     3
 71
     1
  0
GROUP
  5
A0C
102
{ACAD_REACTORS
330
D
102
}
330
D
100
AcDbGroup
300
V11:102:********
 70
     3
 71
     1
  0
GROUP
  5
15E3
102
{ACAD_REACTORS
330
D
102
}
330
D
100
AcDbGroup
300
V11:7259:********
 70
     3
 71
     1
340
1816
340
1817
340
1818
340
17D6
340
17D7
340
17D8
340
17D9
  0
GROUP
  5
3DE
102
{ACAD_REACTORS
330
D
102
}
330
D
100
AcDbGroup
300
V11:9252:_ZU_XXXX
 70
     3
 71
     1
  0
GROUP
  5
A0D
102
{ACAD_REACTORS
330
D
102
}
330
D
100
AcDbGroup
300
V11:103:********
 70
     3
 71
     1
  0
GROUP
  5
A0E
102
{ACAD_REACTORS
330
D
102
}
330
D
100
AcDbGroup
300
V11:105:********
 70
     0
 71
     1
  0
GROUP
  5
A0F
102
{ACAD_REACTORS
330
D
102
}
330
D
100
AcDbGroup
300
V11:112:********
 70
     3
 71
     1
  0
GROUP
  5
3D9
102
{ACAD_REACTORS
330
D
102
}
330
D
100
AcDbGroup
300
V11:9035:_GF_XXXX
 70
     3
 71
     1
  0
GROUP
  5
691
102
{ACAD_REACTORS
330
D
102
}
330
D
100
AcDbGroup
300
V11:9330:_GF_XXXX
 70
     3
 71
     1
  0
GROUP
  5
1325
102
{ACAD_REACTORS
330
D
102
}
330
D
100
AcDbGroup
300
V11:7117:_MD_XXXX
 70
     3
 71
     1
  0
GROUP
  5
A10
102
{ACAD_REACTORS
330
D
102
}
330
D
100
AcDbGroup
300
V11:118:********
 70
     3
 71
     1
  0
GROUP
  5
A11
102
{ACAD_REACTORS
330
D
102
}
330
D
100
AcDbGroup
300
V11:119:********
 70
     3
 71
     1
  0
GROUP
  5
A12
102
{ACAD_REACTORS
330
D
102
}
330
D
100
AcDbGroup
300
V11:120:********
 70
     0
 71
     1
  0
GROUP
  5
A13
102
{ACAD_REACTORS
330
D
102
}
330
D
100
AcDbGroup
300
V11:123:********
 70
     0
 71
     1
  0
GROUP
  5
692
102
{ACAD_REACTORS
330
D
102
}
330
D
100
AcDbGroup
300
V11:9366:_GF_XXXX
 70
     3
 71
     1
  0
GROUP
  5
A14
102
{ACAD_REACTORS
330
D
102
}
330
D
100
AcDbGroup
300
V11:124:********
 70
     3
 71
     1
  0
GROUP
  5
A15
102
{ACAD_REACTORS
330
D
102
}
330
D
100
AcDbGroup
300
V11:131:********
 70
     0
 71
     1
  0
GROUP
  5
3DF
102
{ACAD_REACTORS
330
D
102
}
330
D
100
AcDbGroup
300
V11:9039:_ZU_XXXX
 70
     3
 71
     1
  0
GROUP
  5
A16
102
{ACAD_REACTORS
330
D
102
}
330
D
100
AcDbGroup
300
V11:132:********
 70
     3
 71
     1
  0
GROUP
  5
15EA
102
{ACAD_REACTORS
330
D
102
}
330
D
100
AcDbGroup
300
V11:7236:_VV_XXXX
 70
     3
 71
     1
340
17D6
340
17D7
340
17D8
340
17D9
  0
GROUP
  5
A17
102
{ACAD_REACTORS
330
D
102
}
330
D
100
AcDbGroup
300
V11:133:********
 70
     0
 71
     1
  0
GROUP
  5
A18
102
{ACAD_REACTORS
330
D
102
}
330
D
100
AcDbGroup
300
V11:150:********
 70
     0
 71
     1
  0
GROUP
  5
1326
102
{ACAD_REACTORS
330
D
102
}
330
D
100
AcDbGroup
300
V11:7236:_VV_XXXX
 70
     3
 71
     1
  0
GROUP
  5
A19
102
{ACAD_REACTORS
330
D
102
}
330
D
100
AcDbGroup
300
V11:159:********
 70
     0
 71
     1
  0
GROUP
  5
3DA
102
{ACAD_REACTORS
330
D
102
}
330
D
100
AcDbGroup
300
V11:9017:_MD_XXXX
 70
     3
 71
     1
  0
GROUP
  5
A1A
102
{ACAD_REACTORS
330
D
102
}
330
D
100
AcDbGroup
300
V11:168:********
 70
     0
 71
     1
  0
GROUP
  5
15E4
102
{ACAD_REACTORS
330
D
102
}
330
D
100
AcDbGroup
300
V11:7118:********
 70
     3
 71
     1
340
169D
340
169E
340
169F
340
1816
340
1817
340
1818
340
17D6
340
17D7
340
17D8
340
17D9
340
162B
340
162C
340
162D
340
162E
  0
GROUP
  5
A1B
102
{ACAD_REACTORS
330
D
102
}
330
D
100
AcDbGroup
300
V11:169:********
 70
     3
 71
     1
  0
GROUP
  5
A1C
102
{ACAD_REACTORS
330
D
102
}
330
D
100
AcDbGroup
300
V11:170:********
 70
     0
 71
     1
  0
GROUP
  5
A1D
102
{ACAD_REACTORS
330
D
102
}
330
D
100
AcDbGroup
300
V11:187:********
 70
     0
 71
     1
  0
GROUP
  5
15EB
102
{ACAD_REACTORS
330
D
102
}
330
D
100
AcDbGroup
300
V11:7080:_VV_XXXX
 70
     3
 71
     1
340
162B
340
162C
340
162D
340
162E
  0
GROUP
  5
A1E
102
{ACAD_REACTORS
330
D
102
}
330
D
100
AcDbGroup
300
V11:196:********
 70
     0
 71
     1
  0
GROUP
  5
3E0
102
{ACAD_REACTORS
330
D
102
}
330
D
100
AcDbGroup
300
V11:8961:DINA4H
 70
     3
 71
     1
  0
GROUP
  5
A1F
102
{ACAD_REACTORS
330
D
102
}
330
D
100
AcDbGroup
300
V11:197:********
 70
     3
 71
     1
  0
GROUP
  5
A20
102
{ACAD_REACTORS
330
D
102
}
330
D
100
AcDbGroup
300
V11:198:********
 70
     0
 71
     1
  0
GROUP
  5
1327
102
{ACAD_REACTORS
330
D
102
}
330
D
100
AcDbGroup
300
V11:7080:_VV_XXXX
 70
     3
 71
     1
  0
GROUP
  5
A21
102
{ACAD_REACTORS
330
D
102
}
330
D
100
AcDbGroup
300
V11:215:********
 70
     0
 71
     1
  0
GROUP
  5
A22
102
{ACAD_REACTORS
330
D
102
}
330
D
100
AcDbGroup
300
V11:224:********
 70
     0
 71
     1
  0
GROUP
  5
15E5
102
{ACAD_REACTORS
330
D
102
}
330
D
100
AcDbGroup
300
V11:7130:********
 70
     3
 71
     1
  0
GROUP
  5
A23
102
{ACAD_REACTORS
330
D
102
}
330
D
100
AcDbGroup
300
V11:233:********
 70
     0
 71
     1
  0
GROUP
  5
3DB
102
{ACAD_REACTORS
330
D
102
}
330
D
100
AcDbGroup
300
V11:9270:_VV_XXXX
 70
     3
 71
     1
  0
GROUP
  5
15EC
102
{ACAD_REACTORS
330
D
102
}
330
D
100
AcDbGroup
300
V11:7124:_VV_XXXX
 70
     3
 71
     1
  0
GROUP
  5
A24
102
{ACAD_REACTORS
330
D
102
}
330
D
100
AcDbGroup
300
V11:242:********
 70
     0
 71
     1
  0
GROUP
  5
A25
102
{ACAD_REACTORS
330
D
102
}
330
D
100
AcDbGroup
300
V11:243:********
 70
     3
 71
     1
  0
GROUP
  5
A26
102
{ACAD_REACTORS
330
D
102
}
330
D
100
AcDbGroup
300
V11:244:********
 70
     0
 71
     1
  0
GROUP
  5
3DC
102
{ACAD_REACTORS
330
D
102
}
330
D
100
AcDbGroup
300
V11:9009:_VV_XXXX
 70
     3
 71
     1
  0
GROUP
  5
68D
102
{ACAD_REACTORS
330
D
102
}
330
D
100
AcDbGroup
300
V11:9689:********
 70
     3
 71
     1
  0
GROUP
  5
68E
102
{ACAD_REACTORS
330
D
102
}
330
D
100
AcDbGroup
300
V11:9339:********
 70
     3
 71
     1
  0
GROUP
  5
1328
102
{ACAD_REACTORS
330
D
102
}
330
D
100
AcDbGroup
300
V11:7124:_VV_XXXX
 70
     3
 71
     1
  0
GROUP
  5
68F
102
{ACAD_REACTORS
330
D
102
}
330
D
100
AcDbGroup
300
V11:9360:********
 70
     3
 71
     1
  0
GROUP
  5
15E6
102
{ACAD_REACTORS
330
D
102
}
330
D
100
AcDbGroup
300
V11:7143:_GF_XXXX
 70
     3
 71
     1
340
1816
340
1817
340
1818
340
17D6
340
17D7
340
17D8
340
17D9
  0
GROUP
  5
105B
102
{ACAD_REACTORS
330
D
102
}
330
D
100
AcDbGroup
300
V11:7259:********
 70
     3
 71
     1
  0
GROUP
  5
15ED
102
{ACAD_REACTORS
330
D
102
}
330
D
100
AcDbGroup
300
V11:7275:_ZU_XXXX
 70
     3
 71
     1
340
1816
340
1817
340
1818
  0
GROUP
  5
105C
102
{ACAD_REACTORS
330
D
102
}
330
D
100
AcDbGroup
300
V11:7118:********
 70
     3
 71
     1
  0
GROUP
  5
105D
102
{ACAD_REACTORS
330
D
102
}
330
D
100
AcDbGroup
300
V11:7130:********
 70
     3
 71
     1
  0
GROUP
  5
105E
102
{ACAD_REACTORS
330
D
102
}
330
D
100
AcDbGroup
300
V11:7143:_GF_XXXX
 70
     3
 71
     1
  0
GROUP
  5
105F
102
{ACAD_REACTORS
330
D
102
}
330
D
100
AcDbGroup
300
V11:7067:_GF_XXXX
 70
     3
 71
     1
  0
GROUP
  5
1060
102
{ACAD_REACTORS
330
D
102
}
330
D
100
AcDbGroup
300
V11:7136:_GF_XXXX
 70
     3
 71
     1
  0
GROUP
  5
1061
102
{ACAD_REACTORS
330
D
102
}
330
D
100
AcDbGroup
300
V11:7117:_MD_XXXX
 70
     3
 71
     1
  0
GROUP
  5
690
102
{ACAD_REACTORS
330
D
102
}
330
D
100
AcDbGroup
300
V11:9373:_GF_XXXX
 70
     3
 71
     1
  0
GROUP
  5
1062
102
{ACAD_REACTORS
330
D
102
}
330
D
100
AcDbGroup
300
V11:7236:_VV_XXXX
 70
     3
 71
     1
  0
GROUP
  5
1329
102
{ACAD_REACTORS
330
D
102
}
330
D
100
AcDbGroup
300
V11:7275:_ZU_XXXX
 70
     3
 71
     1
  0
GROUP
  5
15E7
102
{ACAD_REACTORS
330
D
102
}
330
D
100
AcDbGroup
300
V11:7067:_GF_XXXX
 70
     3
 71
     1
340
15F0
340
15F1
340
15F2
340
15F3
340
15F4
340
15F5
340
15F6
340
15F7
340
15F8
340
15F9
340
1695
340
1696
340
1697
340
1698
340
1699
340
169A
340
169B
340
169C
340
169D
340
169E
340
169F
340
1816
340
1817
340
1818
340
17D6
340
17D7
340
17D8
340
17D9
340
162B
340
162C
340
162D
340
162E
  0
GROUP
  5
3D5
102
{ACAD_REACTORS
330
D
102
}
330
D
100
AcDbGroup
300
V11:9010:********
 70
     3
 71
     1
  0
GROUP
  5
1063
102
{ACAD_REACTORS
330
D
102
}
330
D
100
AcDbGroup
300
V11:7080:_VV_XXXX
 70
     3
 71
     1
  0
GROUP
  5
1064
102
{ACAD_REACTORS
330
D
102
}
330
D
100
AcDbGroup
300
V11:7124:_VV_XXXX
 70
     3
 71
     1
  0
GROUP
  5
1065
102
{ACAD_REACTORS
330
D
102
}
330
D
100
AcDbGroup
300
V11:7275:_ZU_XXXX
 70
     3
 71
     1
  0
GROUP
  5
1066
102
{ACAD_REACTORS
330
D
102
}
330
D
100
AcDbGroup
300
V11:7140:_ZU_XXXX
 70
     3
 71
     1
  0
GROUP
  5
1067
102
{ACAD_REACTORS
330
D
102
}
330
D
100
AcDbGroup
300
V11:7043:DINA4H
 70
     3
 71
     1
  0
GROUP
  5
131F
102
{ACAD_REACTORS
330
D
102
}
330
D
100
AcDbGroup
300
V11:7259:********
 70
     3
 71
     1
  0
GROUP
  5
1320
102
{ACAD_REACTORS
330
D
102
}
330
D
100
AcDbGroup
300
V11:7118:********
 70
     3
 71
     1
  0
GROUP
  5
1321
102
{ACAD_REACTORS
330
D
102
}
330
D
100
AcDbGroup
300
V11:7130:********
 70
     3
 71
     1
  0
GROUP
  5
1322
102
{ACAD_REACTORS
330
D
102
}
330
D
100
AcDbGroup
300
V11:7143:_GF_XXXX
 70
     3
 71
     1
  0
GROUP
  5
13C
102
{ACAD_REACTORS
330
D
102
}
330
D
100
AcDbGroup
300
V11:29:_GF_XXXX
 70
     0
 71
     1
  0
GROUP
  5
88
102
{ACAD_REACTORS
330
D
102
}
330
D
100
AcDbGroup
300
V11:15:_MD_XXXX
 70
     0
 71
     1
  0
GROUP
  5
209
102
{ACAD_REACTORS
330
D
102
}
330
D
100
AcDbGroup
300
V11:75:_VV_XXXX
 70
     0
 71
     1
  0
GROUP
  5
25C
102
{ACAD_REACTORS
330
D
102
}
330
D
100
AcDbGroup
300
V11:94:_ZU_XXXX
 70
     0
 71
     1
  0
GROUP
  5
20
102
{ACAD_REACTORS
330
D
102
}
330
D
100
AcDbGroup
300
V11:1:DINA4H
 70
     0
 71
     1
  0
GROUP
  5
62
102
{ACAD_REACTORS
330
D
102
}
330
D
100
AcDbGroup
300
V11:9:********
 70
     0
 71
     1
  0
GROUP
  5
64
102
{ACAD_REACTORS
330
D
102
}
330
D
100
AcDbGroup
300
V11:10:********
 70
     0
 71
     1
  0
GROUP
  5
6D
102
{ACAD_REACTORS
330
D
102
}
330
D
100
AcDbGroup
300
V11:12:********
 70
     0
 71
     1
  0
GROUP
  5
89
102
{ACAD_REACTORS
330
D
102
}
330
D
100
AcDbGroup
300
V11:16:********
 70
     0
 71
     1
  0
GROUP
  5
8F
102
{ACAD_REACTORS
330
D
102
}
330
D
100
AcDbGroup
300
V11:17:********
 70
     0
 71
     1
  0
GROUP
  5
94
102
{ACAD_REACTORS
330
D
102
}
330
D
100
AcDbGroup
300
V11:18:********
 70
     0
 71
     1
  0
GROUP
  5
95
102
{ACAD_REACTORS
330
D
102
}
330
D
100
AcDbGroup
300
V11:19:********
 70
     0
 71
     1
  0
GROUP
  5
A1
102
{ACAD_REACTORS
330
D
102
}
330
D
100
AcDbGroup
300
V11:22:********
 70
     0
 71
     1
  0
GROUP
  5
A4
102
{ACAD_REACTORS
330
D
102
}
330
D
100
AcDbGroup
300
V11:23:********
 70
     0
 71
     1
  0
GROUP
  5
13D
102
{ACAD_REACTORS
330
D
102
}
330
D
100
AcDbGroup
300
V11:30:********
 70
     0
 71
     1
  0
GROUP
  5
14D
102
{ACAD_REACTORS
330
D
102
}
330
D
100
AcDbGroup
300
V11:31:********
 70
     0
 71
     1
  0
GROUP
  5
14E
102
{ACAD_REACTORS
330
D
102
}
330
D
100
AcDbGroup
300
V11:32:********
 70
     0
 71
     1
  0
GROUP
  5
18F
102
{ACAD_REACTORS
330
D
102
}
330
D
100
AcDbGroup
300
V11:49:********
 70
     0
 71
     1
  0
GROUP
  5
1B8
102
{ACAD_REACTORS
330
D
102
}
330
D
100
AcDbGroup
300
V11:58:********
 70
     0
 71
     1
  0
GROUP
  5
1E1
102
{ACAD_REACTORS
330
D
102
}
330
D
100
AcDbGroup
300
V11:67:********
 70
     0
 71
     1
  0
GROUP
  5
20A
102
{ACAD_REACTORS
330
D
102
}
330
D
100
AcDbGroup
300
V11:76:********
 70
     0
 71
     1
  0
GROUP
  5
21A
102
{ACAD_REACTORS
330
D
102
}
330
D
100
AcDbGroup
300
V11:77:********
 70
     0
 71
     1
  0
GROUP
  5
21B
102
{ACAD_REACTORS
330
D
102
}
330
D
100
AcDbGroup
300
V11:78:********
 70
     0
 71
     1
  0
LAYOUT
  5
184E
102
{ACAD_XDICTIONARY
360
19B3
102
}
102
{ACAD_REACTORS
330
184B
102
}
330
184B
100
AcDbPlotSettings
  1

  2
Lexmark Optra Color 45 PS2
  4

  6

 40
0.0
 41
0.0
 42
0.0
 43
0.0
 44
0.0
 45
0.0
 46
0.0
 47
0.0
 48
0.0
 49
0.0
140
0.0
141
0.0
142
1.0
143
1.0
 70
   688
 72
     0
 73
     0
 74
     5
  7
HP_SW.ctb
 75
    16
147
1.0
148
0.0
149
0.0
100
AcDbLayout
  1
Layout1
 70
     1
 71
     1
 10
0.0
 20
0.0
 11
420.0
 21
297.0
 12
0.0
 22
0.0
 32
0.0
 14
1.000000000000000E+20
 24
1.000000000000000E+20
 34
1.000000000000000E+20
 15
-1.000000000000000E+20
 25
-1.000000000000000E+20
 35
-1.000000000000000E+20
146
0.0
 13
0.0
 23
0.0
 33
0.0
 16
1.0
 26
0.0
 36
0.0
 17
0.0
 27
1.0
 37
0.0
 76
     0
330
15
  0
LAYOUT
  5
184D
102
{ACAD_XDICTIONARY
360
198B
102
}
102
{ACAD_REACTORS
330
184B
102
}
330
184B
100
AcDbPlotSettings
  1

  2
none_device
  4
ISO_A4_(210.00_x_297.00_MM)
  6

 40
7.5
 41
20.0
 42
7.5
 43
20.0
 44
210.0
 45
297.0
 46
0.0
 47
0.0
 48
0.0
 49
0.0
140
0.0
141
0.0
142
1.0
143
2.203818540909215
 70
 11952
 72
     1
 73
     1
 74
     0
  7
HP_SW.ctb
 75
     0
147
0.4537578668284715
148
74.19042364265294
149
1.065032445439186
100
AcDbLayout
  1
Model
 70
     1
 71
     0
 10
0.0
 20
0.0
 11
12.0
 21
9.0
 12
0.0
 22
0.0
 32
0.0
 14
0.0
 24
0.0
 34
0.0
 15
0.0
 25
0.0
 35
0.0
146
0.0
 13
0.0
 23
0.0
 33
0.0
 16
1.0
 26
0.0
 36
0.0
 17
0.0
 27
1.0
 37
0.0
 76
     0
330
18
331
1853
1001
ACAD_PSEXT
1000
Kein
1000
Kein
1000
Nicht anwendbar
1000
Das Layout wird erst geplottet, wenn ein neuer Plotter-Konfigurationsname ausgewählt wird.
1070
     0
  0
MATERIAL
  5
185E
102
{ACAD_XDICTIONARY
360
185F
102
}
102
{ACAD_REACTORS
330
1855
102
}
330
1855
100
AcDbMaterial
  1
ByBlock
 72
     0
 43
0.0208333333333333
 43
0.0
 43
0.0
 43
0.0
 43
0.0
 43
0.0208333333333333
 43
0.0
 43
0.0
 43
0.0
 43
0.0
 43
1.0
 43
0.0
 43
0.0
 43
0.0
 43
0.0
 43
1.0
 77
     0
 47
0.0208333333333333
 47
0.0
 47
0.0
 47
0.0
 47
0.0
 47
0.0208333333333333
 47
0.0
 47
0.0
 47
0.0
 47
0.0
 47
1.0
 47
0.0
 47
0.0
 47
0.0
 47
0.0
 47
1.0
171
     0
 49
0.0208333333333333
 49
0.0
 49
0.0
 49
0.0
 49
0.0
 49
0.0208333333333333
 49
0.0
 49
0.0
 49
0.0
 49
0.0
 49
1.0
 49
0.0
 49
0.0
 49
0.0
 49
0.0
 49
1.0
175
     0
142
0.0208333333333333
142
0.0
142
0.0
142
0.0
142
0.0
142
0.0208333333333333
142
0.0
142
0.0
142
0.0
142
0.0
142
1.0
142
0.0
142
0.0
142
0.0
142
0.0
142
1.0
179
     0
144
0.0208333333333333
144
0.0
144
0.0
144
0.0
144
0.0
144
0.0208333333333333
144
0.0
144
0.0
144
0.0
144
0.0
144
1.0
144
0.0
144
0.0
144
0.0
144
0.0
144
1.0
147
0.0208333333333333
147
0.0
147
0.0
147
0.0
147
0.0
147
0.0208333333333333
147
0.0
147
0.0
147
0.0
147
0.0
147
1.0
147
0.0
147
0.0
147
0.0
147
0.0
147
1.0
  0
MATERIAL
  5
1856
102
{ACAD_XDICTIONARY
360
1857
102
}
102
{ACAD_REACTORS
330
1855
102
}
330
1855
100
AcDbMaterial
  1
ByLayer
 72
     0
 43
0.0208333333333333
 43
0.0
 43
0.0
 43
0.0
 43
0.0
 43
0.0208333333333333
 43
0.0
 43
0.0
 43
0.0
 43
0.0
 43
1.0
 43
0.0
 43
0.0
 43
0.0
 43
0.0
 43
1.0
 77
     0
 47
0.0208333333333333
 47
0.0
 47
0.0
 47
0.0
 47
0.0
 47
0.0208333333333333
 47
0.0
 47
0.0
 47
0.0
 47
0.0
 47
1.0
 47
0.0
 47
0.0
 47
0.0
 47
0.0
 47
1.0
171
     0
 49
0.0208333333333333
 49
0.0
 49
0.0
 49
0.0
 49
0.0
 49
0.0208333333333333
 49
0.0
 49
0.0
 49
0.0
 49
0.0
 49
1.0
 49
0.0
 49
0.0
 49
0.0
 49
0.0
 49
1.0
175
     0
142
0.0208333333333333
142
0.0
142
0.0
142
0.0
142
0.0
142
0.0208333333333333
142
0.0
142
0.0
142
0.0
142
0.0
142
1.0
142
0.0
142
0.0
142
0.0
142
0.0
142
1.0
179
     0
144
0.0208333333333333
144
0.0
144
0.0
144
0.0
144
0.0
144
0.0208333333333333
144
0.0
144
0.0
144
0.0
144
0.0
144
1.0
144
0.0
144
0.0
144
0.0
144
0.0
144
1.0
147
0.0208333333333333
147
0.0
147
0.0
147
0.0
147
0.0
147
0.0208333333333333
147
0.0
147
0.0
147
0.0
147
0.0
147
1.0
147
0.0
147
0.0
147
0.0
147
0.0
147
1.0
  0
MATERIAL
  5
1866
102
{ACAD_XDICTIONARY
360
1867
102
}
102
{ACAD_REACTORS
330
1855
102
}
330
1855
100
AcDbMaterial
  1
Global
 72
     0
 43
0.0208333333333333
 43
0.0
 43
0.0
 43
0.0
 43
0.0
 43
0.0208333333333333
 43
0.0
 43
0.0
 43
0.0
 43
0.0
 43
1.0
 43
0.0
 43
0.0
 43
0.0
 43
0.0
 43
1.0
 77
     0
 47
0.0208333333333333
 47
0.0
 47
0.0
 47
0.0
 47
0.0
 47
0.0208333333333333
 47
0.0
 47
0.0
 47
0.0
 47
0.0
 47
1.0
 47
0.0
 47
0.0
 47
0.0
 47
0.0
 47
1.0
171
     0
 49
0.0208333333333333
 49
0.0
 49
0.0
 49
0.0
 49
0.0
 49
0.0208333333333333
 49
0.0
 49
0.0
 49
0.0
 49
0.0
 49
1.0
 49
0.0
 49
0.0
 49
0.0
 49
0.0
 49
1.0
175
     0
142
0.0208333333333333
142
0.0
142
0.0
142
0.0
142
0.0
142
0.0208333333333333
142
0.0
142
0.0
142
0.0
142
0.0
142
1.0
142
0.0
142
0.0
142
0.0
142
0.0
142
1.0
179
     0
144
0.0208333333333333
144
0.0
144
0.0
144
0.0
144
0.0
144
0.0208333333333333
144
0.0
144
0.0
144
0.0
144
0.0
144
1.0
144
0.0
144
0.0
144
0.0
144
0.0
144
1.0
147
0.0208333333333333
147
0.0
147
0.0
147
0.0
147
0.0
147
0.0208333333333333
147
0.0
147
0.0
147
0.0
147
0.0
147
1.0
147
0.0
147
0.0
147
0.0
147
0.0
147
1.0
  0
MLEADERSTYLE
  5
1898
102
{ACAD_REACTORS
330
1897
102
}
330
1897
100
AcDbMLeaderStyle
170
     2
171
     1
172
     0
 90
        2
 40
0.0
 41
0.0
173
     1
 91
-1056964608
340
12
 92
       -2
290
     1
 42
2.0
291
     1
 43
0.36
  3
Standard
 44
4.0
300

342
F
174
     1
178
     6
175
     1
176
     0
 93
-1056964608
 45
4.0
292
     0
297
     0
 46
4.0
 94
-1056964608
 47
1.0
 49
1.0
140
1.0
293
     1
141
0.0
294
     1
177
     0
142
1.0
295
     0
296
     0
143
0.125
1001
ACAD_MLEADERVER
1070
     2
  0
MLINESTYLE
  5
1C
102
{ACAD_REACTORS
330
1B
102
}
330
1B
100
AcDbMlineStyle
  2
STANDARD
 70
     0
  3

 62
   256
 51
90.0
 52
90.0
 71
     2
 49
0.5
 62
   256
  6
BYLAYER
 49
-0.5
 62
   256
  6
BYLAYER
  0
ACDBPLACEHOLDER
  5
184A
102
{ACAD_REACTORS
330
1849
102
}
330
1849
  0
SCALE
  5
1886
102
{ACAD_REACTORS
330
1885
102
}
330
1885
100
AcDbScale
 70
     0
300
1:1
140
1.0
141
1.0
290
     1
  0
SCALE
  5
1887
102
{ACAD_REACTORS
330
1885
102
}
330
1885
100
AcDbScale
 70
     0
300
1:2
140
1.0
141
2.0
290
     0
  0
SCALE
  5
1888
102
{ACAD_REACTORS
330
1885
102
}
330
1885
100
AcDbScale
 70
     0
300
1:4
140
1.0
141
4.0
290
     0
  0
SCALE
  5
1889
102
{ACAD_REACTORS
330
1885
102
}
330
1885
100
AcDbScale
 70
     0
300
1:5
140
1.0
141
5.0
290
     0
  0
SCALE
  5
188A
102
{ACAD_REACTORS
330
1885
102
}
330
1885
100
AcDbScale
 70
     0
300
1:8
140
1.0
141
8.0
290
     0
  0
SCALE
  5
188B
102
{ACAD_REACTORS
330
1885
102
}
330
1885
100
AcDbScale
 70
     0
300
1:10
140
1.0
141
10.0
290
     0
  0
SCALE
  5
188C
102
{ACAD_REACTORS
330
1885
102
}
330
1885
100
AcDbScale
 70
     0
300
1:16
140
1.0
141
16.0
290
     0
  0
SCALE
  5
188D
102
{ACAD_REACTORS
330
1885
102
}
330
1885
100
AcDbScale
 70
     0
300
1:20
140
1.0
141
20.0
290
     0
  0
SCALE
  5
188E
102
{ACAD_REACTORS
330
1885
102
}
330
1885
100
AcDbScale
 70
     0
300
1:30
140
1.0
141
30.0
290
     0
  0
SCALE
  5
188F
102
{ACAD_REACTORS
330
1885
102
}
330
1885
100
AcDbScale
 70
     0
300
1:40
140
1.0
141
40.0
290
     0
  0
SCALE
  5
1890
102
{ACAD_REACTORS
330
1885
102
}
330
1885
100
AcDbScale
 70
     0
300
1:50
140
1.0
141
50.0
290
     0
  0
SCALE
  5
1891
102
{ACAD_REACTORS
330
1885
102
}
330
1885
100
AcDbScale
 70
     0
300
1:100
140
1.0
141
100.0
290
     0
  0
SCALE
  5
1892
102
{ACAD_REACTORS
330
1885
102
}
330
1885
100
AcDbScale
 70
     0
300
2:1
140
2.0
141
1.0
290
     0
  0
SCALE
  5
1893
102
{ACAD_REACTORS
330
1885
102
}
330
1885
100
AcDbScale
 70
     0
300
4:1
140
4.0
141
1.0
290
     0
  0
SCALE
  5
1894
102
{ACAD_REACTORS
330
1885
102
}
330
1885
100
AcDbScale
 70
     0
300
8:1
140
8.0
141
1.0
290
     0
  0
SCALE
  5
1895
102
{ACAD_REACTORS
330
1885
102
}
330
1885
100
AcDbScale
 70
     0
300
10:1
140
10.0
141
1.0
290
     0
  0
SCALE
  5
1896
102
{ACAD_REACTORS
330
1885
102
}
330
1885
100
AcDbScale
 70
     0
300
100:1
140
100.0
141
1.0
290
     0
  0
TABLESTYLE
  5
1884
102
{ACAD_XDICTIONARY
360
19AC
102
}
102
{ACAD_REACTORS
330
1883
102
}
330
1883
100
AcDbTableStyle
  3
Standard
 70
     0
 71
     0
 40
1.5
 41
1.5
280
     0
281
     0
  7
STANDARD
140
4.5
170
     2
 62
     0
 63
     7
283
     0
274
    -2
284
     1
 64
     0
275
    -2
285
     1
 65
     0
276
    -2
286
     1
 66
     0
277
    -2
287
     1
 67
     0
278
    -2
288
     1
 68
     0
279
    -2
289
     1
 69
     0
  7
STANDARD
140
6.0
170
     5
 62
     0
 63
     7
283
     0
274
    -2
284
     1
 64
     0
275
    -2
285
     1
 65
     0
276
    -2
286
     1
 66
     0
277
    -2
287
     1
 67
     0
278
    -2
288
     1
 68
     0
279
    -2
289
     1
 69
     0
  7
STANDARD
140
4.5
170
     5
 62
     0
 63
     7
283
     0
274
    -2
284
     1
 64
     0
275
    -2
285
     1
 65
     0
276
    -2
286
     1
 66
     0
277
    -2
287
     1
 67
     0
278
    -2
288
     1
 68
     0
279
    -2
289
     1
 69
     0
  0
VISUALSTYLE
  5
1874
102
{ACAD_XDICTIONARY
360
19C2
102
}
102
{ACAD_REACTORS
330
186E
102
}
330
186E
100
AcDbVisualStyle
  2
2dWireframe
 70
     4
 71
     0
 72
     2
 73
     0
 90
        0
 40
-0.6
 41
-30.0
 62
     5
 63
     7
 74
     1
 91
        4
 64
     7
 65
   257
 75
     1
175
     1
 42
1.0
 92
        0
 66
   257
 43
1.0
 76
     1
 77
     6
 78
     2
 67
     7
 79
     5
170
     0
171
     0
290
     0
174
     0
 93
        1
 44
0.0
173
     0
291
     0
 45
0.0
1001
ACAD
1000
AcDbSavedByObjectVersion
1070
     0
  0
VISUALSTYLE
  5
1876
102
{ACAD_XDICTIONARY
360
19C6
102
}
102
{ACAD_REACTORS
330
186E
102
}
330
186E
100
AcDbVisualStyle
  2
3D Hidden
 70
     6
 71
     1
 72
     2
 73
     2
 90
        0
 40
-0.6
 41
-30.0
 62
     5
 63
     7
 74
     2
 91
        2
 64
     7
 65
   257
 75
     2
175
     1
 42
179.0
 92
        0
 66
   257
 43
1.0
 76
     1
 77
     6
 78
     2
 67
     7
 79
     3
170
     0
171
     0
290
     0
174
     0
 93
        1
 44
0.0
173
     0
291
     0
 45
0.0
1001
ACAD
1000
AcDbSavedByObjectVersion
1070
     0
  0
VISUALSTYLE
  5
1875
102
{ACAD_XDICTIONARY
360
19C4
102
}
102
{ACAD_REACTORS
330
186E
102
}
330
186E
100
AcDbVisualStyle
  2
3dWireframe
 70
     5
 71
     0
 72
     2
 73
     0
 90
        0
 40
-0.6
 41
-30.0
 62
     5
 63
     7
 74
     1
 91
        4
 64
     7
 65
   257
 75
     1
175
     1
 42
1.0
 92
        0
 66
   257
 43
1.0
 76
     1
 77
     6
 78
     2
 67
     7
 79
     5
170
     0
171
     0
290
     0
174
     0
 93
        1
 44
0.0
173
     0
291
     0
 45
0.0
1001
ACAD
1000
AcDbSavedByObjectVersion
1070
     0
  0
VISUALSTYLE
  5
1873
102
{ACAD_XDICTIONARY
360
19C0
102
}
102
{ACAD_REACTORS
330
186E
102
}
330
186E
100
AcDbVisualStyle
  2
Basic
 70
     7
 71
     1
 72
     0
 73
     1
 90
        0
 40
-0.6
 41
-30.0
 62
     5
 63
     7
 74
     0
 91
        4
 64
     7
 65
   257
 75
     1
175
     1
 42
1.0
 92
        8
 66
     7
 43
1.0
 76
     1
 77
     6
 78
     2
 67
     7
 79
     5
170
     0
171
     0
290
     0
174
     0
 93
        1
 44
0.0
173
     0
291
     1
 45
0.0
1001
ACAD
1000
AcDbSavedByObjectVersion
1070
     0
  0
VISUALSTYLE
  5
187A
102
{ACAD_XDICTIONARY
360
19CE
102
}
102
{ACAD_REACTORS
330
186E
102
}
330
186E
100
AcDbVisualStyle
  2
Brighten
 70
    12
 71
     2
 72
     2
 73
     0
 90
        0
 40
-0.6
 41
-30.0
 62
     5
 63
     7
 74
     1
 91
        4
 64
     7
 65
   257
 75
     1
175
     1
 42
1.0
 92
        8
 66
     7
 43
1.0
 76
     1
 77
     6
 78
     2
 67
     7
 79
     5
170
     0
171
     0
290
     0
174
     0
 93
        1
 44
50.0
173
     0
291
     1
 45
0.0
1001
ACAD
1000
AcDbSavedByObjectVersion
1070
     0
  0
VISUALSTYLE
  5
187E
102
{ACAD_XDICTIONARY
360
19D6
102
}
102
{ACAD_REACTORS
330
186E
102
}
330
186E
100
AcDbVisualStyle
  2
ColorChange
 70
    16
 71
     2
 72
     2
 73
     3
 90
        0
 40
-0.6
 41
-30.0
 62
     5
 63
     8
 74
     1
 91
        4
 64
     7
 65
   257
 75
     1
175
     1
 42
1.0
 92
        8
 66
     8
 43
1.0
 76
     1
 77
     6
 78
     2
 67
     7
 79
     5
170
     0
171
     0
290
     0
174
     0
 93
        1
 44
0.0
173
     0
291
     1
 45
0.0
1001
ACAD
1000
AcDbSavedByObjectVersion
1070
     0
  0
VISUALSTYLE
  5
1877
102
{ACAD_XDICTIONARY
360
19C8
102
}
102
{ACAD_REACTORS
330
186E
102
}
330
186E
100
AcDbVisualStyle
  2
Conceptual
 70
     9
 71
     3
 72
     2
 73
     0
 90
        0
 40
-0.6
 41
-30.0
 62
     5
 63
     7
 74
     2
 91
        2
 64
     7
 65
   257
 75
     1
175
     1
 42
179.0
 92
        8
 66
     7
 43
1.0
 76
     1
 77
     6
 78
     2
 67
     7
 79
     3
170
     0
171
     0
290
     0
174
     0
 93
        1
 44
0.0
173
     0
291
     0
 45
0.0
1001
ACAD
1000
AcDbSavedByObjectVersion
1070
     0
  0
VISUALSTYLE
  5
1879
102
{ACAD_XDICTIONARY
360
19CC
102
}
102
{ACAD_REACTORS
330
186E
102
}
330
186E
100
AcDbVisualStyle
  2
Dim
 70
    11
 71
     2
 72
     2
 73
     0
 90
        0
 40
-0.6
 41
-30.0
 62
     5
 63
     7
 74
     1
 91
        4
 64
     7
 65
   257
 75
     1
175
     1
 42
1.0
 92
        8
 66
     7
 43
1.0
 76
     1
 77
     6
 78
     2
 67
     7
 79
     5
170
     0
171
     0
290
     0
174
     0
 93
        1
 44
-50.0
173
     0
291
     1
 45
0.0
1001
ACAD
1000
AcDbSavedByObjectVersion
1070
     0
  0
VISUALSTYLE
  5
1881
102
{ACAD_XDICTIONARY
360
19DC
102
}
102
{ACAD_REACTORS
330
186E
102
}
330
186E
100
AcDbVisualStyle
  2
EdgeColorOff
 70
    22
 71
     2
 72
     2
 73
     0
 90
        0
 40
-0.6
 41
-30.0
 62
     5
 63
     7
 74
     1
 91
        4
 64
     7
 65
   257
 75
     1
175
     1
 42
1.0
 92
        8
 66
     7
 43
1.0
 76
     1
 77
     6
 78
     2
 67
     7
 79
     5
170
     0
171
     0
290
     0
174
     0
 93
        1
 44
0.0
173
     0
291
     1
 45
0.0
1001
ACAD
1000
AcDbSavedByObjectVersion
1070
     0
  0
VISUALSTYLE
  5
187D
102
{ACAD_XDICTIONARY
360
19D4
102
}
102
{ACAD_REACTORS
330
186E
102
}
330
186E
100
AcDbVisualStyle
  2
Facepattern
 70
    15
 71
     2
 72
     2
 73
     0
 90
        0
 40
-0.6
 41
-30.0
 62
     5
 63
     7
 74
     1
 91
        4
 64
     7
 65
   257
 75
     1
175
     1
 42
1.0
 92
        8
 66
     7
 43
1.0
 76
     1
 77
     6
 78
     2
 67
     7
 79
     5
170
     0
171
     0
290
     0
174
     0
 93
        1
 44
0.0
173
     0
291
     1
 45
0.0
1001
ACAD
1000
AcDbSavedByObjectVersion
1070
     0
  0
VISUALSTYLE
  5
186F
102
{ACAD_XDICTIONARY
360
19B8
102
}
102
{ACAD_REACTORS
330
186E
102
}
330
186E
100
AcDbVisualStyle
  2
Flat
 70
     0
 71
     2
 72
     1
 73
     1
 90
        2
 40
-0.6
 41
30.0
 62
     5
 63
     7
 74
     0
 91
        4
 64
     7
 65
   257
 75
     1
175
     1
 42
1.0
 92
        8
 66
     7
 43
1.0
 76
     1
 77
     6
 78
     2
 67
     7
 79
     5
170
     0
171
     0
290
     0
174
     0
 93
       13
 44
0.0
173
     0
291
     1
 45
0.0
1001
ACAD
1000
AcDbSavedByObjectVersion
1070
     0
  0
VISUALSTYLE
  5
1870
102
{ACAD_XDICTIONARY
360
19BA
102
}
102
{ACAD_REACTORS
330
186E
102
}
330
186E
100
AcDbVisualStyle
  2
FlatWithEdges
 70
     1
 71
     2
 72
     1
 73
     1
 90
        2
 40
-0.6
 41
30.0
 62
     5
 63
     7
 74
     1
 91
        4
 64
     7
 65
   257
 75
     1
175
     1
 42
1.0
 92
        0
 66
   257
 43
1.0
 76
     1
 77
     6
 78
     2
 67
     7
 79
     5
170
     0
171
     0
290
     0
174
     0
 93
       13
 44
0.0
173
     0
291
     1
 45
0.0
1001
ACAD
1000
AcDbSavedByObjectVersion
1070
     0
  0
VISUALSTYLE
  5
1871
102
{ACAD_XDICTIONARY
360
19BC
102
}
102
{ACAD_REACTORS
330
186E
102
}
330
186E
100
AcDbVisualStyle
  2
Gouraud
 70
     2
 71
     2
 72
     2
 73
     1
 90
        2
 40
-0.6
 41
30.0
 62
     5
 63
     7
 74
     0
 91
        4
 64
     7
 65
   257
 75
     1
175
     1
 42
1.0
 92
        0
 66
     7
 43
1.0
 76
     1
 77
     6
 78
     2
 67
     7
 79
     5
170
     0
171
     0
290
     0
174
     0
 93
       13
 44
0.0
173
     0
291
     1
 45
0.0
1001
ACAD
1000
AcDbSavedByObjectVersion
1070
     0
  0
VISUALSTYLE
  5
1872
102
{ACAD_XDICTIONARY
360
19BE
102
}
102
{ACAD_REACTORS
330
186E
102
}
330
186E
100
AcDbVisualStyle
  2
GouraudWithEdges
 70
     3
 71
     2
 72
     2
 73
     1
 90
        2
 40
-0.6
 41
30.0
 62
     5
 63
     7
 74
     1
 91
        4
 64
     7
 65
   257
 75
     1
175
     1
 42
1.0
 92
        0
 66
   257
 43
1.0
 76
     1
 77
     6
 78
     2
 67
     7
 79
     5
170
     0
171
     0
290
     0
174
     0
 93
       13
 44
0.0
173
     0
291
     1
 45
0.0
1001
ACAD
1000
AcDbSavedByObjectVersion
1070
     0
  0
VISUALSTYLE
  5
187F
102
{ACAD_XDICTIONARY
360
19D8
102
}
102
{ACAD_REACTORS
330
186E
102
}
330
186E
100
AcDbVisualStyle
  2
JitterOff
 70
    20
 71
     2
 72
     2
 73
     0
 90
        0
 40
-0.6
 41
-30.0
 62
     5
 63
     7
 74
     1
 91
        4
 64
     7
 65
   257
 75
     1
175
     1
 42
1.0
 92
       10
 66
     7
 43
1.0
 76
     1
 77
     6
 78
     2
 67
     7
 79
     5
170
     0
171
     0
290
     0
174
     0
 93
        1
 44
0.0
173
     0
291
     1
 45
0.0
1001
ACAD
1000
AcDbSavedByObjectVersion
1070
     0
  0
VISUALSTYLE
  5
187C
102
{ACAD_XDICTIONARY
360
19D2
102
}
102
{ACAD_REACTORS
330
186E
102
}
330
186E
100
AcDbVisualStyle
  2
Linepattern
 70
    14
 71
     2
 72
     2
 73
     0
 90
        0
 40
-0.6
 41
-30.0
 62
     5
 63
     7
 74
     1
 91
        4
 64
     7
 65
   257
 75
     7
175
     7
 42
1.0
 92
        8
 66
     7
 43
1.0
 76
     1
 77
     6
 78
     2
 67
     7
 79
     5
170
     0
171
     0
290
     0
174
     0
 93
        1
 44
0.0
173
     0
291
     1
 45
0.0
1001
ACAD
1000
AcDbSavedByObjectVersion
1070
     0
  0
VISUALSTYLE
  5
1880
102
{ACAD_XDICTIONARY
360
19DA
102
}
102
{ACAD_REACTORS
330
186E
102
}
330
186E
100
AcDbVisualStyle
  2
OverhangOff
 70
    21
 71
     2
 72
     2
 73
     0
 90
        0
 40
-0.6
 41
-30.0
 62
     5
 63
     7
 74
     1
 91
        4
 64
     7
 65
   257
 75
     1
175
     1
 42
1.0
 92
        9
 66
     7
 43
1.0
 76
     1
 77
     6
 78
     2
 67
     7
 79
     5
170
     0
171
     0
290
     0
174
     0
 93
        1
 44
0.0
173
     0
291
     1
 45
0.0
1001
ACAD
1000
AcDbSavedByObjectVersion
1070
     0
  0
VISUALSTYLE
  5
1878
102
{ACAD_XDICTIONARY
360
19CA
102
}
102
{ACAD_REACTORS
330
186E
102
}
330
186E
100
AcDbVisualStyle
  2
Realistic
 70
     8
 71
     2
 72
     2
 73
     0
 90
        0
 40
-0.6
 41
-30.0
 62
     5
 63
     7
 74
     1
 91
        0
 64
     7
 65
   257
 75
     1
175
     1
 42
1.0
 92
        8
 66
     8
 43
1.0
 76
     1
 77
     6
 78
     2
 67
     7
 79
     5
170
     0
171
     0
290
     0
174
     0
 93
       13
 44
0.0
173
     0
291
     0
 45
0.0
1001
ACAD
1000
AcDbSavedByObjectVersion
1070
     0
  0
VISUALSTYLE
  5
187B
102
{ACAD_XDICTIONARY
360
19D0
102
}
102
{ACAD_REACTORS
330
186E
102
}
330
186E
100
AcDbVisualStyle
  2
Thicken
 70
    13
 71
     2
 72
     2
 73
     0
 90
        0
 40
-0.6
 41
-30.0
 62
     5
 63
     7
 74
     1
 91
        4
 64
     7
 65
   257
 75
     1
175
     1
 42
1.0
 92
       12
 66
     7
 43
1.0
 76
     1
 77
     6
 78
     2
 67
     7
 79
     5
170
     0
171
     0
290
     0
174
     0
 93
        1
 44
0.0
173
     0
291
     1
 45
0.0
1001
ACAD
1000
AcDbSavedByObjectVersion
1070
     0
  0
DICTIONARYVAR
  5
1994
102
{ACAD_REACTORS
330
1990
102
}
330
1990
100
DictionaryVariables
280
     0
  1
1:1
  0
DICTIONARYVAR
  5
1992
102
{ACAD_REACTORS
330
1990
102
}
330
1990
100
DictionaryVariables
280
     0
  1
STANDARD
  0
DICTIONARYVAR
  5
1991
102
{ACAD_REACTORS
330
1990
102
}
330
1990
100
DictionaryVariables
280
     0
  1
STANDARD
  0
DICTIONARYVAR
  5
19AA
102
{ACAD_REACTORS
330
1990
102
}
330
1990
100
DictionaryVariables
280
     0
  1
1
  0
DICTIONARYVAR
  5
19A9
102
{ACAD_REACTORS
330
1990
102
}
330
1990
100
DictionaryVariables
280
     0
  1
0
  0
DICTIONARYVAR
  5
1996
102
{ACAD_REACTORS
330
1990
102
}
330
1990
100
DictionaryVariables
280
     0
  1
1
  0
DICTIONARYVAR
  5
1997
102
{ACAD_REACTORS
330
1990
102
}
330
1990
100
DictionaryVariables
280
     0
  1
15
  0
DICTIONARYVAR
  5
1995
102
{ACAD_REACTORS
330
1990
102
}
330
1990
100
DictionaryVariables
280
     0
  1
0
  0
DICTIONARYVAR
  5
1993
102
{ACAD_REACTORS
330
1990
102
}
330
1990
100
DictionaryVariables
280
     0
  1
0
  0
DICTIONARYVAR
  5
19A8
102
{ACAD_REACTORS
330
1990
102
}
330
1990
100
DictionaryVariables
280
     0
  1
127
  0
DICTIONARYVAR
  5
19AB
102
{ACAD_REACTORS
330
1990
102
}
330
1990
100
DictionaryVariables
280
     0
  1
2
  0
DICTIONARY
  5
18AA
102
{ACAD_REACTORS
330
265
102
}
330
265
100
AcDbDictionary
280
     1
281
     1
  3
PH_GRPMEMBERS
360
18AB
  0
DICTIONARY
  5
1975
102
{ACAD_REACTORS
330
265
102
}
330
265
100
AcDbDictionary
280
     1
281
     1
  3
$PH$AAAA
360
1976
  3
PH_GRPMEMBERS
360
197A
  0
PH_GROUP
  5
197D
102
{ACAD_REACTORS
330
265
102
}
330
265
  0
DICTIONARY
  5
19B3
330
184E
100
AcDbDictionary
280
     1
281
     1
  3
ACAD_XREC_ROUNDTRIP
360
19B4
  0
DICTIONARY
  5
198B
330
184D
100
AcDbDictionary
280
     1
281
     1
  3
ACAD_XREC_ROUNDTRIP
360
19B2
  3
ADSK_XREC_LAYOUTTHUMBNAIL
360
198C
  0
DICTIONARY
  5
185F
330
185E
100
AcDbDictionary
280
     1
281
     1
  3
ACAD_XREC_ROUNDTRIP
360
19B6
  3
BUMPTILE
360
1861
  3
DIFFUSETILE
360
1860
  3
OPACITYTILE
360
1864
  3
REFLECTIONTILE
360
1863
  3
REFRACTIONTILE
360
1865
  3
SPECULARTILE
360
1862
  0
DICTIONARY
  5
1857
330
1856
100
AcDbDictionary
280
     1
281
     1
  3
ACAD_XREC_ROUNDTRIP
360
19B5
  3
BUMPTILE
360
1859
  3
DIFFUSETILE
360
1858
  3
OPACITYTILE
360
185C
  3
REFLECTIONTILE
360
185B
  3
REFRACTIONTILE
360
185D
  3
SPECULARTILE
360
185A
  0
DICTIONARY
  5
1867
330
1866
100
AcDbDictionary
280
     1
281
     1
  3
ACAD_XREC_ROUNDTRIP
360
19B7
  3
BUMPTILE
360
1869
  3
DIFFUSETILE
360
1868
  3
OPACITYTILE
360
186C
  3
REFLECTIONTILE
360
186B
  3
REFRACTIONTILE
360
186D
  3
SPECULARTILE
360
186A
  0
DICTIONARY
  5
19AC
330
1884
100
AcDbDictionary
280
     1
281
     1
  3
ACAD_ROUNDTRIP_2008_TABLESTYLE_CELLSTYLEMAP
360
19AD
  3
ACAD_XREC_ROUNDTRIP
360
19DE
  0
DICTIONARY
  5
19C2
330
1874
100
AcDbDictionary
280
     1
281
     1
  3
ACAD_XREC_ROUNDTRIP
360
19C3
  0
DICTIONARY
  5
19C6
330
1876
100
AcDbDictionary
280
     1
281
     1
  3
ACAD_XREC_ROUNDTRIP
360
19C7
  0
DICTIONARY
  5
19C4
330
1875
100
AcDbDictionary
280
     1
281
     1
  3
ACAD_XREC_ROUNDTRIP
360
19C5
  0
DICTIONARY
  5
19C0
330
1873
100
AcDbDictionary
280
     1
281
     1
  3
ACAD_XREC_ROUNDTRIP
360
19C1
  0
DICTIONARY
  5
19CE
330
187A
100
AcDbDictionary
280
     1
281
     1
  3
ACAD_XREC_ROUNDTRIP
360
19CF
  0
DICTIONARY
  5
19D6
330
187E
100
AcDbDictionary
280
     1
281
     1
  3
ACAD_XREC_ROUNDTRIP
360
19D7
  0
DICTIONARY
  5
19C8
330
1877
100
AcDbDictionary
280
     1
281
     1
  3
ACAD_XREC_ROUNDTRIP
360
19C9
  0
DICTIONARY
  5
19CC
330
1879
100
AcDbDictionary
280
     1
281
     1
  3
ACAD_XREC_ROUNDTRIP
360
19CD
  0
DICTIONARY
  5
19DC
330
1881
100
AcDbDictionary
280
     1
281
     1
  3
ACAD_XREC_ROUNDTRIP
360
19DD
  0
DICTIONARY
  5
19D4
330
187D
100
AcDbDictionary
280
     1
281
     1
  3
ACAD_XREC_ROUNDTRIP
360
19D5
  0
DICTIONARY
  5
19B8
330
186F
100
AcDbDictionary
280
     1
281
     1
  3
ACAD_XREC_ROUNDTRIP
360
19B9
  0
DICTIONARY
  5
19BA
330
1870
100
AcDbDictionary
280
     1
281
     1
  3
ACAD_XREC_ROUNDTRIP
360
19BB
  0
DICTIONARY
  5
19BC
330
1871
100
AcDbDictionary
280
     1
281
     1
  3
ACAD_XREC_ROUNDTRIP
360
19BD
  0
DICTIONARY
  5
19BE
330
1872
100
AcDbDictionary
280
     1
281
     1
  3
ACAD_XREC_ROUNDTRIP
360
19BF
  0
DICTIONARY
  5
19D8
330
187F
100
AcDbDictionary
280
     1
281
     1
  3
ACAD_XREC_ROUNDTRIP
360
19D9
  0
DICTIONARY
  5
19D2
330
187C
100
AcDbDictionary
280
     1
281
     1
  3
ACAD_XREC_ROUNDTRIP
360
19D3
  0
DICTIONARY
  5
19DA
330
1880
100
AcDbDictionary
280
     1
281
     1
  3
ACAD_XREC_ROUNDTRIP
360
19DB
  0
DICTIONARY
  5
19CA
330
1878
100
AcDbDictionary
280
     1
281
     1
  3
ACAD_XREC_ROUNDTRIP
360
19CB
  0
DICTIONARY
  5
19D0
330
187B
100
AcDbDictionary
280
     1
281
     1
  3
ACAD_XREC_ROUNDTRIP
360
19D1
  0
PH_GROUP
  5
18AB
102
{ACAD_REACTORS
330
18AA
102
}
330
18AA
  0
DICTIONARY
  5
1976
102
{ACAD_REACTORS
330
1975
102
}
330
1975
100
AcDbDictionary
280
     1
281
     1
  3
$PH$AAAA
360
1977
  3
PH_GRPMEMBERS
360
1979
  0
PH_GROUP
  5
197A
102
{ACAD_REACTORS
330
1975
102
}
330
1975
  0
XRECORD
  5
19B4
102
{ACAD_REACTORS
330
19B3
102
}
330
19B3
100
AcDbXrecord
280
     1
102
SHADEPLOT
 70
     0
102
SHADEPLOTRESLEVEL
 70
     2
102
SHADEPLOTCUSTOMDPI
 70
   300
  0
XRECORD
  5
19B2
102
{ACAD_REACTORS
330
198B
102
}
330
198B
100
AcDbXrecord
280
     1
102
SHADEPLOT
 70
     0
102
SHADEPLOTRESLEVEL
 70
     2
102
SHADEPLOTCUSTOMDPI
 70
   300
  0
XRECORD
  5
198C
102
{ACAD_REACTORS
330
198B
102
}
330
198B
100
AcDbXrecord
280
     1
310
28000000000100008600000001000800000000000086000000000000000000000001000000000000F0FCFE0000000000FFFFFF000000000000000000000000000000000000000000000000000000000000000000330000006600000099000000CC000000FF00000000330000333300006633000099330000CC330000FF3300
310
0000660000336600006666000099660000CC660000FF66000000990000339900006699000099990000CC990000FF99000000CC000033CC000066CC000099CC0000CCCC0000FFCC000000FF000033FF000066FF000099FF0000CCFF0000FFFF000000003300330033006600330099003300CC003300FF003300003333003333
310
33006633330099333300CC333300FF33330000663300336633006666330099663300CC663300FF66330000993300339933006699330099993300CC993300FF99330000CC330033CC330066CC330099CC3300CCCC3300FFCC330000FF330033FF330066FF330099FF3300CCFF3300FFFF330000006600330066006600660099
310
006600CC006600FF00660000336600333366006633660099336600CC336600FF33660000666600336666006666660099666600CC666600FF66660000996600339966006699660099996600CC996600FF99660000CC660033CC660066CC660099CC6600CCCC6600FFCC660000FF660033FF660066FF660099FF6600CCFF6600
310
FFFF660000009900330099006600990099009900CC009900FF00990000339900333399006633990099339900CC339900FF33990000669900336699006666990099669900CC669900FF66990000999900339999006699990099999900CC999900FF99990000CC990033CC990066CC990099CC9900CCCC9900FFCC990000FF99
310
0033FF990066FF990099FF9900CCFF9900FFFF99000000CC003300CC006600CC009900CC00CC00CC00FF00CC000033CC003333CC006633CC009933CC00CC33CC00FF33CC000066CC003366CC006666CC009966CC00CC66CC00FF66CC000099CC003399CC006699CC009999CC00CC99CC00FF99CC0000CCCC0033CCCC0066CC
310
CC0099CCCC00CCCCCC00FFCCCC0000FFCC0033FFCC0066FFCC0099FFCC00CCFFCC00FFFFCC000000FF003300FF006600FF009900FF00CC00FF00FF00FF000033FF003333FF006633FF009933FF00CC33FF00FF33FF000066FF003366FF006666FF009966FF00CC66FF00FF66FF000099FF003399FF006699FF009999FF00CC
310
99FF00FF99FF0000CCFF0033CCFF0066CCFF0099CCFF00CCCCFF00FFCCFF0000FFFF0033FFFF0066FFFF0099FFFF00CCFFFF00FFFFFF00000000000D0D0D001A1A1A00282828003535350043434300505050005D5D5D006B6B6B00787878008686860093939300A1A1A100AEAEAE00BBBBBB00C9C9C900D6D6D600E4E4E400
310
F1F1F100FFFFFF0000000000000000000000000000000000000000000000000000000000000000000000000000000000E1E1E1E1E1E1E1E1E1E1E1E1E1E1E1E1E1E1E1E1E1E1E1E1E1E1E1E1E1E1E1E1E1E1BEBEBEBEBEBEBEBEBEBEBEBEBEBEBEBEBEBEBEBEBEBEBEBEBEBEBEBEBEBEBEBEBEBEBEBEBEBEBEBEBEBEBEBEBE
310
BEBEBEBEBEBEBEBEBEBEBEBEBEBEBEBEBEBEBEBEBEBEBEBEBEBEBEBEBEBEBEBEBEBEBEBEBEBEBEBEBEBEBEBEBEBEBEBEBEBEBEBEBEBEBEBEBEBEBEBEBEBEBEBEBEBEBEBEBEBEBEBEBEBEBEBEBEBEBEBEBEBEBEBEBEBEBEBEBEBEBEBEBEBEBEBEBEBEBEBEBEBEBEBEBEBEBEBEBEBEBEBEBEBEBEBEBEBEBEBEBEBEBEBEBEBEBE
310
BEBEBEBEBEBEBEBEBEBEBEBEBEBEBEBEE1E1E1E1E1E1E1E1E1E1E1E1E1E1E1E1E1E1E1E1E1E1E1E1E1E1E1E1E1E1E1E1E1E1E1E1E1E1E1E1E1E1E1E1E1E1E1E1E1E1E1E1E1E1E1E1E1E1E1E1E1E1E1E1E1E1E1E1BEE1E1E1E1E1E1E1E1E1E1E1E1E1E1E1E1E1E1E1E1E1E1E1E1E1E1E1E1E1E1E1E1E1E1E1E1E1E1E1E1E1E1
310
E1E1E1E1E1E1E1E1E1E1E1E1BEE1E1E1E1E1E1E1E1E1E1E1E1E1E1E1E1E1E1E1E1E1E1E1E1E1E1E1E1E1E1E1E1E1E1E1E1E1E1E1E1E1E1E1E1E1E1BEE1E1E1E1E1E1E1E1E1E1E1E1E1E1E1E1E1E1E1E1E1E1E1E1E1E1E1E1E1E1E1E1E1E1E1E1E1E1E1E1E1E1E1E1E1E1E1E1E1E1E1E1E1E1E1E1E1E1E1E1E1E1E1E1E1E1E1
310
E1E1E1E1E1E1E1E1E1E1E1E1E1E1E1E1E1BEE1E1E1E1E1E1E1E1E1E1E1E1E1E1E1E1E1E1E1E1E1E1E1E1E1E1E1E1E1E1E1E1E1E1E1E1E1E1E1E1E1E1E1E1E1E1E1E1E1E1E1E1E1E1E1E1E1E1E1E1E1E1E1E1E1E1E1E1BEE1E1E1E1E1E1E1282828282828282828282828282828282828282828282828282828282828282828
310
2828282828282828282828282828BE28282828282828282828282828282828282828282828282828282828282828282828282828282828282828282828BE28282828282828282828282828282828282828282828282828282828282828282828282828280F2828282828282828282828282828282828282828282828282828
310
28282828282828282828282828282828282828BEE1E1E1E1E1E1E1E1E1E1E1E1E1E1E1E1E1E1E1E1E1E1E1E1E1E1E1E1E1E1E1E1E1E1E1E1E1E1E1E1E1E1E1E1E1E1E1E1E1E1E1E1E1E1E1E1E1E1E1E1E1E1E1E1E1E1E1E1BEE1E1E1E1E1E1E128E1E1E1E1E1E1E1E1E1E1E1E1E1E1E1E1E1E1E1E1E1E1E1E1E1E1E1E1E1E1
310
E1E1E1E1E1E1E1E1E1E1E1E1E1E1E1E1E1E1E1E1E1E1E1E1E1E1E1E1E1E1E1E1E1E1E1E1E1E1E1E1E1E1E1E1E1E1E1E1E1E1E1E1E1E1E1E1E1E1E1E1E1E1E1E1E1E1E1E1E1E1E1E1E1E1E1E1E1E1E1E1E1E1E1E1E1E1E1E1E1E1E1E1E1E1E1E1E1E1E1E1E1E10F0F0F0F0F0F0F0F0F0F0FE10F0F0F0F0F0F0F0F0FE1E1E1E1
310
E1E1E1E1E1E1E1E1E1E1E1E1E1E1E1E1E1E1E1E128BEE1E1E1E1E1E1E1E1E1E1E1E1E1E1E1E1E1E1E1E1E1E1E1E1E1E1E1E1E1E1E1E1E1E1E1E1E1E1E1E1E1E1E1E1E1E1E1E1E1E1E1E1E1E1E1E1E1E1E1E1E1E1E1E1E1E1E1E1BEE1E1E1E1E1E1E128E1E1E1E1E1E1E1E1E1E1E1E1E1E1E1E1E1E1E1E1E1E1E1E1E1E1E1E1
310
E1E1E1E1E1E1E1E1E1E1E1E1E1E1E1E1E1E1E1E1E1E1E1E1E1E1E1E1E1E1E1E1E1E1E1E1E1E1E1E1E1E1E1E1E1E1E1E1E1E1E1E1E1E1E1E1E1E1E1E1E1E1E1E1E1E1E1E1E1E1E1E1E1E1E1E1E1E1E1E1E1E1E1E1E1E1E1E1E1E1E1E1E1E1E1E1E1E1E1E1E1E1E1E10F0F0F0F0F0F0F0F0F0F0FE10F0F0F0F0F0F0F0F0FE1E1
310
E1E1E1E1E1E1E1E1E1E1E1E1E1E1E1E1E1E1E1E1E1E128BEE1E1E1E1E1E1E1E1E1E1E1E1E1E1E1E1E1E1E1E1E1E1E1E1E1E1E1E1E1E1E1E1E1E1E1E1E1E1E1E1E1E1E1E1E1E1E1E1E1E1E1E1E1E1E1E1E1E1E1E1E1E1E1E1E1E1E1E1BEE1E1E1E1E1E1E128E1E1E1E1E1E1E1E1E1E1E1E1E1E1E1E1E1E1E1E1E1E1E1E1E1E1
310
E1E1E1E1E1E1E1E1E1E1E1E1E1E1E1E1E1E1E1E1E1E1E1E1E1E1E1E1E1E1E1E1E1E1E1E1E1E1E1E1E1E1E1E1E1E1E1E1E1E1E1E1E1E1E1E1E1E1E1E1E1E1E1E1E1E1E1E1E1E1E1E1E1E1E1E1E1E1E1E1E1E1E1E1E1E1E1E1E1E1E1E1E1E1E1E1E1E1E1E1E1E1E1E1E1E10F0F0F0F0FE1E1E1E1E1E1E10FE10F0F0F0F0F0FE1
310
E1E1E1E1E1E1E1E1E1E1E1E1E1E1E1E1E1E1E1E1E1E1E1E128BEE1E1E1E1E1E1E1E1E1E1E1E1E1E1E1E1E1E1E1E1E1E1E1E1E1E1E1E1E1E1E1E1E1E1E1E1E1E1E1E1E1E1E1E1E1E1E1E1E1E1E1E1E1E1E1E1E1E1E1E1E1E1E1E1E1E1E1E1BEE1E1E1E1E1E1E128E1E1E1E1E1E1E1E1E1E1E1E1E1E1E1E1E1E1E1E1E1E1E1E1
310
E1E1E1E1E1E1E1E1E1E1E1E1E1E1E1E1E1E1E1E1E1E1E1E1E1E1E1E1E1E1E1E1E1E1E1E1E1E1E1E1E1E1E1E1E1E1E1E1E1E1E1E1E1E1E1E1E1E1E1E1E1E1E1E1E1E1E1E1E1E1E1E1E1E1E1E1E1E1E1E1E1E1E1E1E1E1E1E1E1E1E1E1E1E1E1E1E1E1E1E1E1E1E1E1E1E1E1E10F0F0F0F0FE1E1E1E1E1E1E10F0F0F0F0F0F0F
310
0FE1E1E1E1E1E1E1E1E1E1E1E1E1E1E1E1E1E1E1E1E1E1E1E1E128BEE1E1E1E1E1E1E1E1E1E1E1E1E1E1E1E1E1E1E1E1E1E1E1E1E1E1E1E1E1E1E1E1E1E1E1E1E1E1E1E1E1E1E1E1E1E1E1E1E1E1E1E1E1E1E1E1E1E1E1E1E1E1E1E1E1E1E1E1BEE1E1E1E1E1E1E128E1E1E1E1E1E1E1E1E1E1E1E1E1E1E1E1E1E1E1E1E1E1
310
E1E1E1E1E1E1E1E1E1E1E1E1E1E1E1E1E1E1E1E1E1E1E1E1E1E1E1E1E1E1E1E1E1E1E1E1E1E1E1E1E1E1E1E1E1E1E1E1E1E1E1E1E1E1E1E1E1E1E1E1E1E1E1E1E1E1E1E1E1E1E1E1E1E1E1E1E1E1E1E1E1E1E1E1E1E1E1E1E1E1E1E1E1E1E1E1E1E1E1E1E1E1E1E1E1E1E1E1E1E10F0F0F0F0F0FBE0F0F0F0F0F0F0F0F0F0F
310
0F0F0F0F0F0F0F0F0F0F0F0F0F0F0F0F0F0F0F0F0F0F0F0F0F0F0F0F0FBEE1E1E1E1E1E1E1E1E1E1E1E1E1E1E1E1E1E1E1E1E1E1E1E1E1E1E1E1E1E1E1E1E1E1E1E1E1E1E1E1E1E1E1E1E1E1E1E1E1E1E1E1E1E1E1E1E1E1E1E1E1E1E1E1E1E1E1E1BEE1E1E1E1E1E1E128E1E1E1E1E1E1E1E1E1E1E1E1E1E1E1E1E1E1E1E1
310
E1E1E1E1E1E1E1E1E1E1E1E1E1E1E1E1E1E1E1E1E1E1E1E1E1E1E1E1E1E1E1E1E1E1E1E1E1E1E1E1E1E1E1E1E1E1E1E1E1E1E1E1E1E1E1E1E1E1E1E1E1E1E1E1E1E1E1E1E1E1E1E1E1E1E1E1E1E1E1E1E1E1E1E1E1E1E1E1E1E1E1E1E1E1E1E1E1E1E1E1E1E1E1E1E1E1E1E1E1E1E1E10FBEBEBEBEE1BEBEBEBEBEE1E1E1E1
310
0FE1E1E1E1E1E1E1E1E1E1E1E1E1BEBEBEBEBEBEBEBEBEBEBEBEBEBEBEE128BEE1E1E1E1E1E1E1E1E1E1E1E1E1E1E1E1E1E1E1E1E1E1E1E1E1E1E1E1E1E1E1E1E1E1E1E1E1E1E1E1E1E1E1E1E1E1E1E1E1E1E1E1E1E1E1E1E1E1E1E1E1E1E1E1E1E1E1E1BEE1E1E1E1E1E1E128E1E1E1E1E1E1E1E1E1E1E1E1E1E1E1E1E1E1
310
E1E1E1E1E1E1E1E1E1E1E1E1E1E1E1E1E1E1E1E1E1E1E1E1E1E1E1E1E1E1E1E1E1E1E1E1E1E1E1E1E1E1E1E1E1E1E1E1E1E1E1E1E1E1E1E1E1E1E1E1E1E1E1E1E1E1E1E1E1E1E1E1E1E1E1E1E1E1E1E1E1E1E1E1E1E1E1E1E1E1E1E1E1E1E1E1E1E1E1E1E1E1E1E1E1E1E1E1E1E1E1E1E1E10FBEBEBEE1E1BEBEBEBEBEBEE1
310
E1E10FE1E1E1E1E1E1E1E1E1E1E1E1E1E1E1E1E1E1E1E2E2E2E2E2E2E2E2E2E128BEE1E1E1E1E1E1E1E1E1E1E1E1E1E1E1E1E1E1E1E1E1E1E1E1E1E1E1E1E1E1E1E1E1E1E1E1E1E1E1E1E1E1E1E1E1E1E1E1E1E1E1E1E1E1E1E1E1E1E1E1E1E1E1E1E1E1E1E1BEE1E1E1E1E1E1E128E1E1E1E1E1E1E1E1E1E1E1E1E1E1E1E1
310
E1E1E1E1E1E1E1E1E1E1E1E1E1E1E1E1E1E1E1E1E1E1E1E1E1E1E1E1E1E1E1E1E1E1E1E1E1E1E1E1E1E1E1E1E1E1E1E1E1E1E1E1E1E1E1E1E1E1E1E1E1E1E1E1E1E1E1E1E1E1E1E1E1E1E1E1E1E1E1E1E1E1E1E1E1E1E1E1E1E1E1E1E1E1E1E1E1E1E1E1E1E1E1E1E1E1E1E1E1E1E1E1E1E1E1E10FBEBEBEBEBEBEBEBEBEBE
310
BEBEBEBEBEE1E1E1E1E1E1E1E1E1E1E1E1E1E1E1E1E1E1E1E2E2E2E2E2E2E2E2E2E128BEE1E1E1E1E1E1E1E1E1E1E1E1E1E1E1E1E1E1E1E1E1E1E1E1E1E1E1E1E1E1E1E1E1E1E1E1E1E1E1E1E1E1E1E1E1E1E1E1E1E1E1E1E1E1E1E1E1E1E1E1E1E1E1E1E1E1E1E1BEE1E1E1E1E1E1E128E1E1E1E1E1E1E1E1E1E1E1E1E1E1
310
E1E1E1E1E1E1E1E1E1E1E1E1E1E1E1E1E1E1E1E1E1E1E1E1E1E1E1E1E1E1E1E1E1E1E1E1E1E1E1E1E1E1E1E1E1E1E1E1E1E1E1E1E1E1E1E1E1E1E1E1E1E1E1E1E1E1E1E1E1E1E1E1E1E1E1E1E1E1E1E1E1E1E1E1E1E1E1E1E1E1E1E1E1E1E1E1E1E1E1E1E1E1E1E1E1E1E1E1E1E1E1E1E1E1E1E1E1E10FBEE1E1E1E1BEBEE1
310
E1E1E1E1E1E10FE1E1E1E1E1E1E1E1E1E1E1E1E1E1E1E1E1E1E1E2E2E2E2E2E2E2E2E2E128BEE1E1E1E1E1E1E1E1E1E1E1E1E1E1E1E1E1E1E1E1E1E1E1E1E1E1E1E1E1E1E1E1E1E1E1E1E1E1E1E1E1E1E1E1E1E1E1E1E1E1E1E1E1E1E1E1E1E1E1E1E1E1E1E1E1E1E1E1BEE1E1E1E1E1E1E128E1E1E1E1E1E1E1E1E1E1E1E1
310
E1E1E1E1E1E1E1E1E1E1E1E1E1E1E1E1E1E1E1E1E1E1E1E1E1E1E1E1E1E1E1E1E1E1E1E1E1E1E1E1E1E1E1E1E1E1E1E1E1E1E1E1E1E1E1E1E1E1E1E1E1E1E1E1E1E1E1E1E1E1E1E1E1E1E1E1E1E1E1E1E1E1E1E1E1E1E1E1E1E1E1E1E1E1E1E1E1E1E1E1E1E1E1E1E1E1E1E1E1E1E1E1E1E1E1E1E1E1E1E10FBEE1E1E1E1BE
310
BEE1E1E1E1E1E1E10FE1E1E1E1E1E1E1E1E1E1E1E1E1E1E1E1E1E1E1E1E1BEE2E2E2E2E2E2E228BEE1E1E1E1E1E1E1E1E1E1E1E1E1E1E1E1E1E1E1E1E1E1E1E1E1E1E1E1E1E1E1E1E1E1E1E1E1E1E1E1E1E1E1E1E1E1E1E1E1E1E1E1E1E1E1E1E1E1E1E1E1E1E1E1E1E1E1E1BEE1E1E1E1E1E1E128E1E1E1E1E1E1E1E1E1E1
310
E1E1E1E1E1E1E1E1E1E1E1E1E1E1E1E1E1E1E1E1E1E1E1E1E1E1E1E1E1E1E1E1E1E1E1E1E1E1E1E1E1E1E1E1E1E1E1E1E1E1E1E1E1E1E1E1E1E1E1E1E1E1E1E1E1E1E1E1E1E1E1E1E1E1E1E1E1E1E1E1E1E1E1E1E1E1E1E1E1E1E1E1E1E1E1E1E1E1E1E1E1E1E1E1E1E1E1E1E1E1E1E1E1E1E1E1E1E1E1E1E1E10FBEE1E1E1
310
E1BEBEE1E1E1E1E1E1E10FE1E1E1E1E1E1E1E1E1E1E1E1E1E1E1E1E1E1E1E1BEBEBEE2BEE2BEBEE228BEE1E1E1E1E1E1E1E1E1E1E1E1E1E1E1E1E1E1E1E1E1E1E1E1E1E1E1E1E1E1E1E1E1E1E1E1E1E1E1E1E1E1E1E1E1E1E1E1E1E1E1E1E1E1E1E1E1E1E1E1E1E1E1E1E1E1E1E1BEE1E1E1E1E1E1E128E1E1E1E1E1E1E1E1
310
E1E1E1E1E1E1E1E1E1E1E1E1E1E1E1E1E1E1E1E1E1E1E1E1E1E1E1E1E1E1E1E1E1E1E1E1E1E1E1E1E1E1E1E1E1E1E1E1E1E1E1E1E1E1E1E1E1E1E1E1E1E1E1E1E1E1E1E1E1E1E1E1E1E1E1E1E1E1E1E1E1E1E1E1E1E1E1E1E1E1E1E1E1E1E1E1E1E1E1E1E1E1E1E1E1E1E1E1E1E1E1E1E1E1E1E1E1E1E1E1E1E1E1E10FBEE1
310
E1E1E1BEBEE1E1E1E1E1E1E10FE1E1E1E1E1E1E1E1E1E1E1E1E1E1E1E1E1E1E1E1BEBEBEBEE2E2E2BEE228BEE1E1E1E1E1E1E1E1E1E1E1E1E1E1E1E1E1E1E1E1E1E1E1E1E1E1E1E1E1E1E1E1E1E1E1E1E1E1E1E1E1E1E1E1E1E1E1E1E1E1E1E1E1E1E1E1E1E1E1E1E1E1E1E1E1E1E1E1BEE1E1E1E1E1E1E128E1E1E1E1E1E1
310
E1E1E1E1E1E1E1E1E1E1E1E1E1E1E1E1E1E1E1E1E1E1E1E1E1E1E1E1E1E1E1E1E1E1E1E1E1E1E1E1E1E1E1E1E1E1E1E1E1E1E1E1E1E1E1E1E1E1E1E1E1E1E1E1E1E1E1E1E1E1E1E1E1E1E1E1E1E1E1E1E1E1E1E1E1E1E1E1E1E1E1E1E1E1E1E1E1E1E1E1E1E1E1E1E1E1E1E1E1E1E1E1E1E1E1E1E1E1E1E1E1E1E1E1E1E10F
310
BEE1E1E1E1BEBEE1E1E1E1E1E1E10FE1E1E1E1E1E1E1E1E1E1E1E1E1E1E1E1E1E1E1E1BEBEBEBEE2E2E1E2E228BEE1E1E1E1E1E1E1E1E1E1E1E1E1E1E1E1E1E1E1E1E1E1E1E1E1E1E1E1E1E1E1E1E1E1E1E1E1E1E1E1E1E1E1E1E1E1E1E1E1E1E1E1E1E1E1E1E1E1E1E1E1E1E1E1E1E1E1E1BEE1E1E1E1E1E1E128E1E1E1E1
310
E1E1E1E1E1E1E1E1E1E1E1E1E1E1E1E1E1E1E1E1E1E1E1E1E1E1E1E1E1E1E1E1E1E1E1E1E1E1E1E1E1E1E1E1E1E1E1E1E1E1E1E1E1E1E1E1E1E1E1E1E1E1E1E1E1E1E1E1E1E1E1E1E1E1E1E1E1E1E1E1E1E1E1E1E1E1E1E1E1E1E1E1E1E1E1E1E1E1E1E1E1E1E1E1E1E1E1E1E1E1E1E1E1E1E1E1E1E1E1E1E1E1E1E1E1E1E1
310
E10FBEE1E1E1E1BEBEE1E1E1E1E1E1E10FE1E1E1E1E1E1E1E1E1E1E1E1E1E1E1E1E1E1E1E1E1BEBEBEE1E2E1E1E228BEE1E1E1E1E1E1E1E1E1E1E1E1E1E1E1E1E1E1E1E1E1E1E1E1E1E1E1E1E1E1E1E1E1E1E1E1E1E1E1E1E1E1E1E1E1E1E1E1E1E1E1E1E1E1E1E1E1E1E1E1E1E1E1E1E1E1E1E1BEE1E1E1E1E1E1E128E1E1
310
E1E1E1E1E1E1E1E1E1E1E1E1E1E1E1E1E1E1E1E1E1E1E1E1E1E1E1E1E1E1E1E1E1E1E1E1E1E1E1E1E1E1E1E1E1E1E1E1E1E1E1E1E1E1E1E1E1E1E1E1E1E1E1E1E1E1E1E1E1E1E1E1E1E1E1E1E1E1E1E1E1E1E1E1E1E1E1E1E1E1E1E1E1E1E1E1E1E1E1E1E1E1E1E1E1E1E1E1E1E1E1E1E1E1E1E1E1E1E1E1E1E1E1E1E1E1E1
310
E1E1E10FBEE1E1E1E1BEBEE1E1E1E1E1E1E10FE1E1E1E1E1E1E1E1E1E1E1E1E1E1E1E1E1E1E1E1E1E1E1E1E1E1E1E1E128BEE1E1E1E1E1E1E1E1E1E1E1E1E1E1E1E1E1E1E1E1E1E1E1E1E1E1E1E1E1E1E1E1E1E1E1E1E1E1E1E1E1E1E1E1E1E1E1E1E1E1E1E1E1E1E1E1E1E1E1E1E1E1E1E1E1E1E1E1BEE1E1E1E1E1E1E128
310
E1E1E1E1E1E1E1E1E1E1E1E1E1E1E1E1E1E1E1E1E1E1E1E1E1E1E1E1E1E1E1E1E1E1E1E1E1E1E1E1E1E1E1E1E1E1E1E1E1E1E1E1E1E1E1E1E1E1E1E1E1E1E1E1E1E1E1E1E1E1E1E1E1E1E1E1E1E1E1E1E1E1E1E1E1E1E1E1E1E1E1E1E1E1E1E1E1E1E1E1E1E1E1E1E1E1E1E1E1E1E1E1E1E1E1E1E1E1E1E1E1E1E1E1E1E1E1
310
E1E1E1E1E10FBEE1E1E1E1BEBEE1E1E1E1E1E1E10FE1E1E1E1E1E1E1E1E1E1E1E1E1E1E1E1E1E1E1E1E1E1E1E1E1E1E1E1E128BEE1E1E1E1E1E1E1E1E1E1E1E1E1E1E1E1E1E1E1E1E1E1E1E1E1E1E1E1E1E1E1E1E1E1E1E1E1E1E1E1E1E1E1E1E1E1E1E1E1E1E1E1E1E1E1E1E1E1E1E1E1E1E1E1E1E1E1E1BEE1E1E1E1E1E1
310
E128E1E1E1E1E1E1E1E1E1E1E1E1E1E1E1E1E1E1E1E1E1E1E1E1E1E1E1E1E1E1E1E1E1E1E1E1E1E1E1E1E1E1E1E1E1E1E1E1E1E1E1E1E1E1E1E1E1E1E1E1E1E1E1E1E1E1E1E1E1E1E1E1E1E1E1E1E1E1E1E1E1E1E1E1E1E1E1E1E1E1E1E1E1E1E1E1E1E1E1E1E1E1E1E1E1E1E1E1E1E1E1E1E1E1E1E1E1E1E1E1E1E1E1E1E1
310
E1E1E1E1E1E1E10FBEE1E1E1E1BEBEE1E1E1E1E1E1E10FE1E1E1E1E1E1E1E1E1E1E1E1E1E1E1E1E1E1E1E1E1E1E1E1E1E1E1E1E128BEE1E1E1E1E1E1E1E1E1E1E1E1E1E1E1E1E1E1E1E1E1E1E1E1E1E1E1E1E1E1E1E1E1E1E1E1E1E1E1E1E1E1E1E1E1E1E1E1E1E1E1E1E1E1E1E1E1E1E1E1E1E1E1E1E1E1E1E1BEE1E1E1E1
310
E1E1E128E1E1E1E1E1E1E1E1E1E1E1E1E1E1E1E1E1E1E1E1E1E1E1E1E1E1E1E1E1E1E1E1E1E1E1E1E1E1E1E1E1E1E1E1E1E1E1E1E1E1E1E1E1E1E1E1E1E1E1E1E1E1E1E1E1E1E1E1E1E1E1E1E1E1E1E1E1E1E1E1E1E1E1E1E1E1E1E1E1E1E1E1E1E1E1E1E1E1E1E1E1E1E1E1E1E1E1E1E1E1E1E1E1E1E1E1E1E1E1E1E1E1E1
310
E1E1E1E1E1E1E1E1E10FE1E1E1E1E1BEE1E1E1E1E1E1E1E10FE1E1E1E1E1E1E1E1E1E1E1E1E1E1E1E1E1E1E1E1E1E1E1E1E1E1E1E1E128BEE1E1E1E1E1E1E1E1E1E1E1E1E1E1E1E1E1E1E1E1E1E1E1E1E1E1E1E1E1E1E1E1E1E1E1E1E1E1E1E1E1E1E1E1E1E1E1E1E1E1E1E1E1E1E1E1E1E1E1E1E1E1E1E1E1E1E1E1BEE1E1
310
E1E1E1E1E128E1E1E1E1E1E1E1E1E1E1E1E1E1E1E1E1E1E1E1E1E1E1E1E1E1E1E1E1E1E1E1E1E1E1E1E1E1E1E1E1E1E1E1E1E1E1E1E1E1E1E1E1E1E1E1E1E1E1E1E1E1E1E1E1E1E1E1E1E1E1E1E1E1E1E1E1E1E1E1E1E1E1E1E1E1E1E1E1E1E1E1E1E1E1E1E1E1E1E1E1E1E1E1E1E1E1E1E1E1E1E1E1E1E1E1E1E1E1E1E1E1
310
E1E1E1E1E1E1E1E1E1E1E10FBEE1E1E1E1BEBEE1E1E1E1E1E1E10FE1E1E1E1E1E1E1E1E1E1E1E1E1E1E1E1E1E1E1E1E1E1E1E1E1E1E1E1E128BEE1E1E1E1E1E1E1E1E1E1E1E1E1E1E1E1E1E1E1E1E1E1E1E1E1E1E1E1E1E1E1E1E1E1E1E1E1E1E1E1E1E1E1E1E1E1E1E1E1E1E1E1E1E1E1E1E1E1E1E1E1E1E1E1E1E1E1E1BE
310
E1E1E1E1E1E1E128E1E1E1E1E1E1E1E1E1E1E1E1E1E1E1E1E1E1E1E1E1E1E1E1E1E1E1E1E1E1E1E1E1E1E1E1E1E1E1E1E1E1E1E1E1E1E1E1E1E1E1E1E1E1E1E1E1E1E1E1E1E1E1E1E1E1E1E1E1E1E1E1E1E1E1E1E1E1E1E1E1E1E1E1E1E1E1E1E1E1E1E1E1E1E1E1E1E1E1E1E1E1E1E1E1E1E1E1E1E1E1E1E1E1E1E1E1E1E1
310
E1E1E1E1E1E1E1E1E1E1E1E1E10F0F0F0F0F0F0F0F0F0F0F0F0F0F0F0F0F0F0F0F0F0F0F0F0F0F0F0F0F0F0F0F0F0F0F0F0F0F0F0F0F0F0F0F0F0FBEE1E1E1E1E1E1E1E1E1E1E1E1E1E1E1E1E1E1E1E1E1E1E1E1E1E1E1E1E1E1E1E1E1E1E1E1E1E1E1E1E1E1E1E1E1E1E1E1E1E1E1E1E1E1E1E1E1E1E1E1E1E1E1E1E1E1E1
310
E1BEE1E1E1E1E1E1E128E1E1E1E1E1E1E1E1E1E1E1E1E1E1E1E1E1E1E1E1E1E1E1E1E1E1E1E1E1E1E1E1E1E1E1E1E1E1E1E1E1E1E1E1E1E1E1E1E1E1E1E1E1E1E1E1E1E1E1E1E1E1E1E1E1E1E1E1E1E1E1E1E1E1E1E1E1E1E1E1E1E1E1E1E1E1E1E1E1E1E1E1E1E1E1E1E1E1E1E1E1E1E1E1E1E1E1E1E1E1E1E1E1E1E1E1E1
310
E1E1E1E1E1E1E1E1E1E1E1E1E1E1E10FE1E1E1E1E1E1E1E1E2E1E1E1E1E1E1E1E1E1E1E2E1E1E1E1E1E1E1E1E1E2E1E1E1E1E1E1E1E1E1E1E1E2E1E128BEE1E1E1E1E1E1E1E1E1E1E1E1E1E1E1E1E1E1E1E1E1E1E1E1E1E1E1E1E1E1E1E1E1E1E1E1E1E1E1E1E1E1E1E1E1E1E1E1E1E1E1E1E1E1E1E1E1E1E1E1E1E1E1E1E1
310
E1E1E1BEE1E1E1E1E1E1E128E1E1E1E1E1E1E1E1E1E1E1E1E1E1E1E1E1E1E1E1E1E1E1E1E1E1E1E1E1E1E1E1E1E1E1E1E1E1E1E1E1E1E1E1E1E1E1E1E1E1E1E1E1E1E1E1E1E1E1E1E1E1E1E1E1E1E1E1E1E1E1E1E1E1E1E1E1E1E1E1E1E1E1E1E1E1E1E1E1E1E1E1E1E1E1E1E1E1E1E1E1E1E1E1E1E1E1E1E1E1E1E1E1E1E1
310
E1E1E1E1E1E1E1E1E1E1E1E1E1E1E1E1E10FE2E2E2E2E2E2E2E2E2E2E2E2E2E2E2E2E2E2E2E2E2E1E2E2E2E2E2E2E2E2E2E2E2E2E2E2E2E2E2E2E2E2E1E128BEE1E1E1E1E1E1E1E1E1E1E1E1E1E1E1E1E1E1E1E1E1E1E1E1E1E1E1E1E1E1E1E1E1E1E1E1E1E1E1E1E1E1E1E1E1E1E1E1E1E1E1E1E1E1E1E1E1E1E1E1E1E1E1
310
E1E1E1E1E1BEE1E1E1E1E1E1BE28E1E1E1E1E1E1E1E1E1E1E1E1E1E1E1E1E1E1E1E1E1E1E1E1E1E1E1E1E1E1E1E1E1E1E1E1E1E1E1E1E1E1E1E1E1E1E1E1E1E1E1E1E1E1E1E1E1E1E1E1E1E1E1E1E1E1E1E1E1E1E1E1E1E1E1E1E1E1E1E1E1E1E1E1E1E1E1E1E1E1E1E1E1E1E1E1E1E1E1E1E1E1E1E1E1E1E1E1E1E1E1E1E1
310
E1E1E1E1E1E1E1E1E1E1E1E1E1E1E1E1E1E1E10FE2E2E2E2E2E2E2E2E2E2E2E2E2E2E2E2E2E2E2E2E2E2E2E2E2E2E2E2E2E2E2E2E2E1E2E2E2E2E2E2E2E2E2E128BEE1E1E1E1E1E1E1E1E1E1E1E1E1E1E1E1E1E1E1E1E1E1E1E1E1E1E1E1E1E1E1E1E1E1E1E1E1E1E1E1E1E1E1E1E1E1E1E1E1E1E1E1E1E1E1E1E1E1E1E1E1
310
E1E1E1E1E1E1E1BEE1E1E1E1E1E1BEBEE1E1E1E1E1E1E1E1E1E1E1E1E1E1E1E1E1E1E1E1E1E1E1E1E1E1E1E1E1E1E1E1E1E1E1E1E1E1E1E1E1E1E1E1E1E1E1E1E1E1E1E1E1E1E1E1E1E1E1E1E1E1E1E1E1E1E1E1E1E1E1E1E1E1E1E1E1E1E1E1E1E1E1E1E1E1E1E1E1E1E1E1E1E1E1E1E1E1E1E1E1E1E1E1E1E1E1E1E1E1E1
310
E1E1E1E1E1E1E1E1E1E1E1E1E1E1E1E1E1E1E1E1E10FE1E1E1E1E1E1E1E1E1E1E1E1E1E1E1E1E1E1E1E1E1E1E1E1E1E1E1E1E1E1E1E1E1E1E1E1E1E1E1E1E1E1E1E128BEE1E1E1E1E1E1E1E1E1E1E1E1E1E1E1E1E1E1E1E1E1E1E1E1E1E1E1E1E1E1E1E1E1E1E1E1E1E1E1E1E1E1E1E1E1E1E1E1E1E1E1E1E1E1E1E1E1E1E1
310
E1E1E1E1E1E1E1E1E1BEE1E1E1E1E1E1BEBEE1E1E1E1E1E1E1E1E1E1E1E1E1E1E1E1E1E1E1E1E1E1E1E1E1E1E1E1E1E1E1E1E1E1E1E1E1E1E1E1E1E1E1E1E1E1E1E1E1E1E1E1E1E1E1E1E1E1E1E1E1E1E1E1E1E1E1E1E1E1E1E1E1E1E1E1E1E1E1E1E1E1E1E1E1E1E1E1E1E1E1E1E1E1E1E1E1E1E1E1E1E1E1E1E1E1E1E1E1
310
E1E1E1E1E1E1E1E1E1E1E1E1E1E1E1E1E1E1E1E1E1E1E10FE2E2E2E2E2E2E2E1E2E2E1E2E2E1E2E2E2E2E2E2E2E2E2E1E1E1E1E1E1E1E1E1E1E1E1E1E1E1E1E1E1E1E1E128BEE1E1E1E1E1E1E1E1E1E1E1E1E1E1E1E1E1E1E1E1E1E1E1E1E1E1E1E1E1E1E1E1E1E1E1E1E1E1E1E1E1E1E1E1E1E1E1E1E1E1E1E1E1E1E1E1E1
310
E1E1E1E1E1E1E1E1E1E1E1BEE1E1E1E1E1E1BEBEE1E1E1E1E1E1E1E1E1E1E1E1E1E1E1E1E1E1E1E1E1E1E1E1E1E1E1E1E1E1E1E1E1E1E1E1E1E1E1E1E1E1E1E1E1E1E1E1E1E1E1E1E1E1E1E1E1E1E1E1E1E1E1E1E1E1E1E1E1E1E1E1E1E1E1E1E1E1E1E1E1E1E1E1E1E1E1E1E1E1E1E1E1E1E1E1E1E1E1E1E1E1E1E1E1E1E1
310
E1E1E1E1E1E1E1E1E1E1E1E1E1E1E1E1E1E1E1E1E1E1E1E1E10FE2E2E2E2E2E2E2E2E2E2E1E1E1E1E2E2E2E2E1E1E2E2E2E1E1E1E1E1E1E1E1E1E1E1E1E1E1E1E1E1E1E1E1E128BEE1E1E1E1E1E1E1E1E1E1E1E1E1E1E1E1E1E1E1E1E1E1E1E1E1E1E1E1E1E1E1E1E1E1E1E1E1E1E1E1E1E1E1E1E1E1E1E1E1E1E1E1E1E1E1
310
E1E1E1E1E1E1E1E1E1E1E1E1E1BEE1E1E1E1E1E1BEBEE1E1E1E1E1E1E1E1E1E1E1E1E1E1E1E1E1E1E1E1E1E1E1E1E1E1E1E1E1E1E1E1E1E1E1E1E1E1E1E1E1E1E1E1E1E1E1E1E1E1E1E1E1E1E1E1E1E1E1E1E1E1E1E1E1E1E1E1E1E1E1E1E1E1E1E1E1E1E1E1E1E1E1E1E1E1E1E1E1E1E1E1E1E1E1E1E1E1E1E1E1E1E1E1E1
310
E1E1E1E1E1E1E1E1E1E1E1E1E1E1E1E1E1E1E1E1E1E1E1E1E1E1E10FE1E1E1E1E1E1E1E1E1E1E1E1E1E1E1E1E1E1E1E1E1E1E1E1E1E1E1E1E1E1E1E1E1E1E1E1E1E1E1E1E1E1E1E128BEE1E1E1E1E1E1E1E1E1E1E1E1E1E1E1E1E1E1E1E1E1E1E1E1E1E1E1E1E1E1E1E1E1E1E1E1E1E1E1E1E1E1E1E1E1E1E1E1E1E1E1E1E1
310
E1E1E1E1E1E1E1E1E1E1E1E1E1E1E1BEE1E1E1E1E1E1BEBEE1E1E1E1E1E1E1E1E1E1E1E1E1E1E1E1E1E1E1E1E1E1E1E1E1E1E1E1E1E1E1E1E1E1E1E1E1E1E1E1E1E1E1E1E1E1E1E1E1E1E1E1E1E1E1E1E1E1E1E1E1E1E1E1E1E1E1E1E1E1E1E1E1E1E1E1E1E1E1E1E1E1E1E1E1E1E1E1E1E1E1E1E1E1E1E1E1E1E1E1E1E1E1
310
E1E1E1E1E1E1E1E1E1E1E1E1E1E1E1E1E1E1E1E1E1E1E1E1E1E1E1E1E10FE2E2E2E2E2E2E1E2E2E2E2E2E2E2E2E2E2E2E2E2E1E1E1E1E1E1E1E1E1E1E1E1E1E1E1E1E1E1E1E1E1E1E1E128BEE1E1E1E1E1E1E1E1E1E1E1E1E1E1E1E1E1E1E1E1E1E1E1E1E1E1E1E1E1E1E1E1E1E1E1E1E1E1E1E1E1E1E1E1E1E1E1E1E1E1E1
310
E1E1E1E1E1E1E1E1E1E1E1E1E1E1E1E1E1BEE1E1E1E1E1E1BEBEE1E1E1E1E1E1E1E1E1E1E1E1E1E1E1E1E1E1E1E1E1E1E1E1E1E1E1E1E1E1E1E1E1E1E1E1E1E1E1E1E1E1E1E1E1E1E1E1E1E1E1E1E1E1E1E1E1E1E1E1E1E1E1E1E1E1E1E1E1E1E1E1E1E1E1E1E1E1E1E1E1E1E1E1E1E1E1E1E1E1E1E1E1E1E1E1E1E1E1E1E1
310
E1E1E1E1E1E1E1E1E1E1E1E1E1E1E1E1E1E1E1E1E1E1E1E1E1E1E1E1E1E1E10FE2E2E2E2E2E2E2E2E2E2E2E2E2E1E2E2E2E2E2E2E1E1E1E1E1E1E1E1E1E1E1E1E1E1E1E1E1E1E1E1E1E1E1E128BEE1E1E1E1E1E1E1E1E1E1E1E1E1E1E1E1E1E1E1E1E1E1E1E1E1E1E1E1E1E1E1E1E1E1E1E1E1E1E1E1E1E1E1E1E1E1E1E1E1
310
E1E1E1E1E1E1E1E1E1E1E1E1E1E1E1E1E1E1E1BEE1E1E1E1E1E1BEBEE1E1E1E1E1E1E1E1E1E1E1E1E1E1E1E1E1E1E1E1E1E1E1E1E1E1E1E1E1E1E1E1E1E1E1E1E1E1E1E1E1E1E1E1E1E1E1E1E1E1E1E1E1E1E1E1E1E1E1E1E1E1E1E1E1E1E1E1E1E1E1E1E1E1E1E1E1E1E1E1E1E1E1E1E1E1E1E1E1E1E1E1E1E1E1E1E1E1E1
310
E1E1E1E1E1E1E1E1E1E1E1E1E1E1E1E1E1E1E1E1E1E1E1E1E1E1E1E1E1E1E1E1E10FE1E1E1E1E1E1E1E1E1E1E1E1E1E1E1E1E1E1E1E1E1E1E1E1E1E1E1E1E1E1E1E1E1E1E1E1E1E1E1E1E1E1E1E128BEE1E1E1E1E1E1E1E1E1E1E1E1E1E1E1E1E1E1E1E1E1E1E1E1E1E1E1E1E1E1E1E1E1E1E1E1E1E1E1E1E1E1E1E1E1E1E1
310
E1E1E1E1E1E1E1E1E1E1E1E1E1E1E1E1E1E1E1E1E1BEE1E1E1E1E1E1BEBEE1E1E1E1E1E1E1E1E1E1E1E1E1E1E1E1E1E1E1E1E1E1E1E1E1E1E1E1E1E1E1E1E1E1E1E1E1E1E1E1E1E1E1E1E1E1E1E1E1E1E1E1E1E1E1E1E1E1E1E1E1E1E1E1E1E1E1E1E1E1E1E1E1E1E1E1E1E1E1E1E1E1E1E1E1E1E1E1E1E1E1E1E1E1E1E1E1
310
E1E1E1E1E1E1E1E1E1E1E1E1E1E1E1E1E1E1E1E1E1E1E1E1E1E1E1E1E1E1E1E1E1E1E10FE2E2E2E2E2E2E2E2E2E2E2E1E1E2E2E2E2E2E2E2E2E2E2E1E1E1E1E1E1E1E1E1E1E1E1E1E1E1E1E1E1E1E1E128BEE1E1E1E1E1E1E1E1E1E1E1E1E1E1E1E1E1E1E1E1E1E1E1E1E1E1E1E1E1E1E1E1E1E1E1E1E1E1E1E1E1E1E1E1E1
310
E1E1E1E1E1E1E1E1E1E1E1E1E1E1E1E1E1E1E1E1E1E1E1BEE1E1E1E1E1E1BEBEE1E1E1E1E1E1E1E1E1E1E1E1E1E1E1E1E1E1E1E1E1E1E1E1E1E1E1E1E1E1E1E1E1E1E1E1E1E1E1E1E1E1E1E1E1E1E1E1E1E1E1E1E1E1E1E1E1E1E1E1E1E1E1E1E1E1E1E1E1E1E1E1E1E1E1E1E1E1E1E1E1E1E1E1E1E1E1E1E1E1E1E1E1E1E1
310
E1E1E1E1E1E1E1E1E1E1E1E1E1E1E1E1E1E1E1E1E1E1E1E1E1E1E1E1E1E1E1E1E1E1E1E1E10FE1E2E2E2E2E2E2E2E2E2E1E2E1E1E2E2E2E2E2E2E2E2E1E1E1E1E1E1E1E1E1E1E1E1E1E1E1E1E1E1E1E1E1E128BEE1E1E1E1E1E1E1E1E1E1E1E1E1E1E1E1E1E1E1E1E1E1E1E1E1E1E1E1E1E1E1E1E1E1E1E1E1E1E1E1E1E1E1
310
E1E1E1E1E1E1E1E1E1E1E1E1E1E1E1E1E1E1E1E1E1E1E1E1E1BEE1E1E1E1E1E1BEBEE1E1E1E1E1E1E1E1E1E1E1E1E1E1E1E1E1E1E1E1E1E1E1E1E1E1E1E1E1E1E1E1E1E1E1E1E1E1E1E1E1E1E1E1E1E1E1E1E1E1E1E1E1E1E1E1E1E1E1E1E1E1E1E1E1E1E1E1E1E1E1E1E1E1E1E1E1E1E1E1E1E1E1E1E1E1E1E1E1E1E1E1E1
310
E1E1E1E1E1E1E1E1E1E1E1E1E1E1E1E1E1E1E1E1E1E1E1E1E1E1E1E1E1E1E1E1E1E1E1E1E1E1E10F0F0F0F0F0F0F0F0F0F0F0F0F0F0F0F0F0F0F0F0F0F0F0F0F0F0F0F0F0F0F0F0F0F0F0F0F0F0F0F0F0F0F0F0F0FBEE1E1E1E1E1E1E1E1E1E1E1E1E1E1E1E1E1E1E1E1E1E1E1E1E1E1E1E1E1E1E1E1E1E1E1E1E1E1E1E1E1
310
E1E1E1E1E1E1E1E1E1E1E1E1E1E1E1E1E1E1E1E1E1E1E1E1E1E1E1BEE1E1E1E1E1E1BEBEE1E1E1E1E1E1E1E1E1E1E1E1E1E1E1E1E1E1E1E1E1E1E1E1E1E1E1E1E1E1E1E1E1E1E1E1E1E1E1E1E1E1E1E1E1E1E1E1E1E1E1E1E1E1E1E1E1E1E1E1E1E1E1E1E1E1E1E1E1E1E1E1E1E1E1E1E1E1E1E1E1E1E1E1E1E1E1E1E1E1E1
310
E1E1E1E1E1E1E1E1E1E1E1E1E1E1E1E1E1E1E1E1E1E1E1E1E1E1E1E1E1E1E1E1E1E1E1E1E1E1E1E1E10FE1E1E1E1E1E1E1E1E1E1E2E2E2E2E2E2E2E2E2E2E2E2E2E2E2E2E2E2E2E1E1E1E1E1E1E1E1E1E1E1E1E1E1E128BEE1E1E1E1E1E1E1E1E1E1E1E1E1E1E1E1E1E1E1E1E1E1E1E1E1E1E1E1E1E1E1E1E1E1E1E1E1E1E1
310
E1E1E1E1E1E1E1E1E1E1E1E1E1E1E1E1E1E1E1E1E1E1E1E1E1E1E1E1E1BEE1E1E1E1E1E1BEBEE1E1E1E1E1E1E1E1E1E1E1E1E1E1E1E1E1E1E1E1E1E1E1E1E1E1E1E1E1E1E1E1E1E1E1E1E1E1E1E1E1E1E1E1E1E1E1E1E1E1E1E1E1E1E1E1E1E1E1E1E1E1E1E1E1E1E1E1E1E1E1E1E1E1E1E1E1E1E1E1E1E1E1E1E1E1E1E1E1
310
E1E1E1E1E1E1E1E1E1E1E1E1E1E1E1E1E1E1E1E1E1E1E1E1E1E1E1E1E1E1E1E1E1E1E1E1E1E1E1E1E1E1E10FE1E1E1E1E1E1E1E1E1E1E2E2E2E1E2E2E2E2E2E2E1E2E1E2E2E2E2E2E2E1E1E1E1E1E1E1E1E1E1E1E1E1E1E128BEE1E1E1E1E1E1E1E1E1E1E1E1E1E1E1E1E1E1E1E1E1E1E1E1E1E1E1E1E1E1E1E1E1E1E1E1E1
310
E1E1E1E1E1E1E1E1E1E1E1E1E1E1E1E1E1E1E1E1E1E1E1E1E1E1E1E1E1E1E1BEE1E1E1E1E1E1BEBEE1E1E1E1E1E1E1E1E1E1E1E1E1E1E1E1E1E1E1E1E1E1E1E1E1E1BEE1E1E1E1E1E1E1E1E1E1E1E1E1E1E1E1E1E1E1E1E1E1E1E1E1E1E1E1E1E1E1E1E1E1E1E1E1E1E1E1E1E1E1E1E1E1E1E1E1E1E1E1E1E1E1E1E1E1E1E1
310
E1E1E1E1E1E1E1E1E1E1E1E1E1E1E1E1E1E1E1E1E1E1E1E1E1E1E1E1E1E1E1E1E1E1E1E1E1E1E1E1E1E1E1E1E10FE1E1E1E1E1E1E1E1E1E1E2E2E2E2E2E2E2E2E2E2E1E2E1E2E2E2E2E2E2E1E1E1E1E1E1E1E1E1E1E1E1E1E1E128BEE1E1E1E1E1E1E1E1E1E1E1E1E1E1E1E1E1E1E1E1E1E1E1E1E1E1E1E1E1E1E1E1E1E1E1
310
E1E1E1E1E1E1E1E1E1E1E1E1E1E1E1E1E1E1E1E1E1E1E1E1E1E1E1E1E1E1E1E1E1BEE1E1E1E1E1E1BEBEE1E1E1E1E1E1E1E1E1E1E1E1E1E1E1E1E1E1E1E1E1E1E1E1E1E1BEE1E1E1E1E1E1E1E1E1E1E1E1E1E1E1E1E1E1E1E1E1E1E1E1E1E1E1E1E1E1E1E1E1E1E1E1E1E1E1E1E1E1E1E1E1E1E1E1E1E1E1E1E1E1E1E1E1E1
310
E1E1E1E1E1E1E1E1E1E1E1E1E1E1E1E1E1E1E1E1E1E1E1E1E1E1E1E1BEE1E1E1E1E1E1E1E1E1E1E1E1E1E1E1E1E1E10FE10F0F0F0F0F0F0F0F0F0F0FE10F0F0F0FE10F0F0F0F0F0F0F0F0F0F0F0FE1E1E1E1E1E1E1E1E1E1E1E1E1E128BEE1E1E1E1E1E1E1E1E1E1E1E1E1E1E1E1E1E1E1E1E1E1E1E1E1E1E1E1E1E1E1E1E1
310
E1E1E1E1E1E1E1E1E1E1E1E1E1E1E1E1E1E1E1E1E1E1E1E1E1E1E1E1E1E1E1E1E1E1E1BEE1E1E1E1E1E1BEBEE1E1E1E1E1E1E1E1E1E1E1E1E1E1E1E1E1E1E1E1E1E1E1E1E1E1BEE1E1E1E1E1E1E1E1E1E1E1E1E1E1E1E1E1E1E1E1E1E1E1E1E1E1E1E1E1E1E1E1E1E1E1E1E1E1E1E1E1E1E1E1E1E1E1E1E1E1E1E1E1E1E1E1
310
E1E1E1E1E1E1E1E1E1E1E1E1E1E1E1E1E1E1E1E1E1E1E1E1E1E1E1E1E1E1BEE1E1E1E1E1E1E1E1E1E1E1E1E1E1E1E1E1E10FE10F0F0F0F0F0F0F0F0F0F0F0F0F0FE1E10F0F0F0F0F0F0F0F0F0F0F0F0F0FE1E1E1E1E1E1E1E1E1E1E1E1E128BEE1E1E1E1E1E1E1E1E1E1E1E1E1E1E1E1E1E1E1E1E1E1E1E1E1E1E1E1E1E1E1
310
E1E1E1E1E1E1E1E1E1E1E1E1E1E1E1E1E1E1E1E1E1E1E1E1E1E1E1E1E1E1E1E1E1E1E1E1E1BEE1E1E1E1E1E1BEBEE1E1E1E1E1E1E1E1E1E1E1E1E1E1E1E1E1E1E1E1E1E1E1E1E1E1BEE1E1E1E1E1E1E1E1E1E1E1E1E1E1E1E1E1E1E1E1E1E1E1E1E1E1E1E1E1E1E1E1E1E1E1E1E1E1E1E1E1E1E1E1E1E1E1E1E1E1E1E1E1E1
310
E1E1E1E1E1E1E1E1E1E1E1E1E1E1E1E1E1E1E1E1E1E1E1E1E1E1E1E1E1E1E1E1BEE1E1E1E1E1E1E1E1E1E1E1E1E1E1E1E1E1E10F0F0F0F0F0F0F0F0F0F0F0F0F0F0F0F0F0F0F0F0F0F0F0F0F0F0F0F0F0F0F0F0F0F0F0F0F0F0F0F0F0F0F0F0F0FBEE1E1E1E1E1E1E1E1E1E1E1E1E1E1E1E1E1E1E1E1E1E1E1E1E1E1E1E1E1
310
E1E1E1E1E1E1E1E1E1E1E1E1E1E1E1E1E1E1E1E1E1E1E1E1E1E1E1E1E1E1E1E1E1E1E1E1E1E1E1BEE1E1E1E1E1E1BEBEE1E1E1E1E1E1E1E1E1E1E1E1E1E1E1E1E1E1E1E1E1E1E1E1E1E1BEBEE1E1E1E1E1E1E1E1E1E1E1E1E1E1E1E1E1E1E1E1E1E1E1E1E1E1E1E1E1E1E1E1E1E1E1E1E1E1E1E1E1E1E1E1E1E1E1E1E1E1E1
310
E1E1E1E1E1E1E1E1E1E1E1E1E1E1E1E1E1E1E1E1E1E1E1E1E1E1E1E1E1E1E1E1E1BEBEE1E1E1E1E1E1E1E1E1E1E1E1E1E1E1E1E1E10FE1BEBEBEBEBEE1E1E1E1E1E1E1E1E1E1E1E1E1E1E1E1E1E1E1E1E1E1E1E1E1E1E1E1E1E10F0FE10F0F0F0F0F28BEE1E1E1E1E1E1E1E1E1E1E1E1E1E1E1E1E1E1E1E1E1E1E1E1E1E1E1
310
E1E1E1E1E1E1E1E1E1E1E1E1E1E1E1E1E1E1E1E1E1E1E1E1E1E1E1E1E1E1E1E1E1E1E1E1E1E1E1E1E1BEE1E1E1E1E1E1BEBEE1E1E1E1E1E1E1E1E1E1E1E1E1E1E1E1E1E1E1E1E1E1E1E1E1E1BEBEE1E1E1E1E1E1E1E1E1E1E1E1E1E1E1E1E1E1E1E1E1E1E1E1E1E1E1E1E1E1E1E1E1E1E1E1E1E1E1E1E1E1E1E1E1E1E1E1E1
310
E1E1E1E1E1E1E1E1E1E1E1E1E1E1E1E1E1E1E1E1E1E1E1E1E1E1E1E1E1E1E1E1E1E1E1BEBEE1E1E1E1E1E1E1E1E1E1E1E1E1E1E1E1E1E10FE1BEBEBEBEBEE1E1E1E1E2E2E1E1E1E1E1E1E1E1E1E1E1E1E1E1E1E1E1E1E1E1E1E1E1E1BEBEBEBEBEBEBEBEBEBEE1E1E1E1E1E1E1E1E1E1E1E1E1E1E1E1E1E1E1E1E1E1E1E1E1
310
E1E1E1E1E1E1E1E1E1E1E1E1E1E1E1E1E1E1E1E1E1E1E1E1E1E1E1E1E1E1E1E1E1E1E1E1E1E1E1E1E1E1E1BEE1E1E1E1E1E1BEBEE1E1E1E1E1E1E1E1E1E1E1E1E1E1E1E1E1E1E1E1E1E1E1E1E1E1BEE1E1E1E1E1E1E1E1E1E1E1E1E1E1E1E1E1E1E1E1E1E1E1E1E1E1E1E1E1E1E1E1E1E1E1E1E1E1E1E1E1E1E1E1E1E1E1E1
310
E1E1E1E1E1E1E1E1E1E1E1E1E1E1E1E1E1E1E1E1E1E1E1E1E1E1E1E1E1E1E1E1E1E1E1E1E1E1BEE1E1E1E1E1E1E1E1E1E1E1E1E1E1E1E1E1E10FE1BEBEBEBEBEBEBEE1E1E1E1E1E1E1E1E1E1E1E1E1E1E1E1E1E1E1E1E1E1E1E1E1E1E1E10F0FE10F0F0F0F0F28BEE1E1E1E1E1E1E1E1E1E1E1E1E1E1E1E1E1E1E1E1E1E1E1
310
E1E1E1E1E1E1E1E1E1E1E1E1E1E1E1E1E1E1E1E1E1E1E1E1E1E1E1E1E1E1E1E1E1E1E1E1E1E1E1E1E1E1E1E1E1BEE1E1E1E1E1E1BEBEE1E1E1E1E1E1E1E1E1E1E1E1E1E1E1E1E1E1E1E1E1E1E1E1E1BEBEBEBEBEBEBEBEBEBEE2E2E2E2E2E2E2E2E2E2E2E2E2E2E2E2E2E2E2E2E2E2E2E2E2E2E2E2E2E2E2E2E2E2E2E2E2E2
310
E2E2E2E2E2E2E2E2E2E2E2E2E2E2E2E2E2E2E2E2E2E2E2E2E2E2E2E2E2E2E2E2BEBEBEBEBEBEBEBEBEBEE1E1E1E1E1E1E1E1E1E1E1E1E1E1E1E1E10FE1BEBEBEBEBEBEBEBEE1E1E1E1E1E1E1E1E1E1E1E1E1E1E1E1E1E1E1E1E1E1E1E1E1E1E1E1E10F0FE10F0FE128BEE1E1E1E1E1E1E1E1E1E1E1E1E1E1E1E1E1E1E1E1E1
310
E1E1E1E1E1E1E1E1E1E1E1E1E1E1E1E1E1E1E1E1E1E1E1E1E1E1E1E1E1E1E1E1E1E1E1E1E1E1E1E1E1E1E1E1E1E1E1BEE1E1E1E1E1E1BEBEE1E1E1E1E1E1E1E1E1E1E1E1E1E1E1E1E1E1E1E1E1E1E1E1E1BEBEBEBEBEBEBEBEBEBEE2E2E2E2E2E2E2E2E2E2E2E2E2E2E2E2E2E2E2E2E2E2E2E2E2E2E2E2E2E2E2E2E2E2E2E2
310
E2E2E2E2E2E2E2E2E2E2E2E2E2E2E2E2E2E2E2E2E2E2E2E2E2E2E2E2E2E2E2E2E2E2BEBEBEBEBEBEBEBEBEBEE1E1E1E1E1E1E1E1E1E1E1E1E1E1E1E1E10F0F0F0F0F0F0F0F0F0F0F0F0F0F0F0F0F0F0F0F0F0F0F0F0F0F0F0F0F0F0F0F0F0F0F0F0F0F0F0F0F0F0F0F0F0FBEE1E1E1E1E1E1E1E1E1E1E1E1E1E1E1E1E1E1E1
310
E1E1E1E1E1E1E1E1E1E1E1E1E1E1E1E1E1E1E1E1E1E1E1E1E1E1E1E1E1E1E1E1E1E1E1E1E1E1E1E1E1E1E1E1E1E1E1E1E1BEE1E1E1E1E1E1BEBEE1E1E1E1E1E1E1E1E1E1E1E1E1E1E1E1E1E1E1E1E1E1E1E1E1E1BEE1E1E1E1E1E1E1E2E2E2E2E2E2E2E2E2E2E2E1E1E1E1E1E1E1E1E1E1E1E1E1E1E1E1E1E1E1E1E1E1E1E1
310
E1E1E1E1E1E1E1E1E1E1E1E1E1E1E1E1E1E1E1E1E1E1E1E1E1E1E1E1E1E1E1E1E1E1E1E1E1E1E1E1E1E1E1E1BEE1E1E1E1E1E1E1E1E1E1E1E1E1E1E1E1E1E1E1E1E1E1E1E1E1E1E1E1E1E1E1E1E1E1E1E1E1E1E1E1E1E1E1E1E1E1E1E1E1E1E1E1E1E1E1E1E1E1E1E1E1E1E128BEE1E1E1E1E1E1E1E1E1E1E1E1E1E1E1E1E1
310
E1E1E1E1E1E1E1E1E1E1E1E1E1E1E1E1E1E1E1E1E1E1E1E1E1E1E1E1E1E1E1E1E1E1E1E1E1E1E1E1E1E1E1E1E1E1E1E1E1E1E1BEE1E1E1E1E1E1BEBEE1E1E1E1E1E1E1E1E1E1E1E1E1E1E1E1E1E1E1E1E1E1E1E1E1E1BEBEE1E1E1E1E1E1E2E2E1E1E1E1E1E1E1E1E1E1E1E1E1E1E1E1E1E1E1E1E1E1E1E1E1E1E1E1E1E1E1
310
E1E1E1E1E1E1E1E1E1E1E1E1E1E1E1E1E1E1E1E1E1E1E1E1E1E1E1E1E1E1E1E1E1E1E1E1E1E1E1E1E1E1E1E1E1BEBEE1E1E1E1E1E1E1E1E1E1E1E1E1E1E1E1E1E1E1E1E1E1E1E1E1E1E1E1E1E1E1E1E1E1E1E1E1E1E1E1E1E1E1E1E1E1E1E1E1E1E1E1E1E1E1E1E1E1E1E1E1E1E128BEE1E1E1E1E1E1E1E1E1E1E1E1E1E1E1
310
E1E1E1E1E1E1E1E1E1E1E1E1E1E1E1E1E1E1E1E1E1E1E1E1E1E1E1E1E1E1E1E1E1E1E1E1E1E1E1E1E1E1E1E1E1E1E1E1E1E1E1E1E1BEE1E1E1E1E1E1BEBEE1E1E1E1E1E1E1E1E1E1E1E1E1E1E1E1E1E1E1E1E1E1E1E1E1E1BEBEE1E1E1E1E1E1E2E2E1E1E1E1E1E1E1E1E1E1E1E1E1E1E1E1E1E1E1E1E1E1E1E1E1E1E1E1E1
310
E1E1E1E1E1E1E1E1E1E1E1E1E1E1E1E1E1E1E1E1E1E1E1E1E1E1E1E1E1E1E1E1E1E1E1E1E1E1E1E1E1E1E1E1E1E1E1BEBEE1E1E1E1E1E1E1E1E1E1E1E1E1E1E1E1E1E1E1E1E1E1E1E1E1E1E1E1E1E1E1E1E1E1E1E1E1E1E1E1E1E1E1E1E1E1E1E1E1E1E1E1E1E1E1E1E1E1E1E1E1E1E128BEE1E1E1E1E1E1E1E1E1E1E1E1E1
310
E1E1E1E1E1E1E1E1E1E1E1E1E1E1E1E1E1E1E1E1E1E1E1E1E1E1E1E1E1E1E1E1E1E1E1E1E1E1E1E1E1E1E1E1E1E1E1E1E1E1E1E1E1E1E1BEE1E1E1E1E1E1BEBEE1E1E1E1E1E1E1E1E1E1E1E1E1E1E1E1E1E1E1E1E1E1E1E1E1E1BEE1E1E1E1E1E1E1E2E2E1E1E1E1E1E1E1E1E1E1E1E1E1E1E1E1E1E1E1E1E1E1E1E1E1E1E1
310
E1E1E1E1E1E1E1E1E1E1E1E1E1E1E1E1E1E1E1E1E1E1E1E1E1E1E1E1E1E1E1E1E1E1E1E1E1E1E1E1E1E1E1E1E1E1E1E1E1E1BEE1E1E1E1E1E1E1E1E1E1E1E1E1E1E1E1E1E1E1E1E1E1E1E1E1E1E1E1E1E1E1E1E1E1E1E1E1E1E1E1E1E1E1E1E1E1E1E1E1E1E1E1E1E1E1E1E1E1E1E1E1E1E128BEE1E1E1E1E1E1E1E1E1E1E1
310
E1E1E1E1E1E1E1E1E1E1E1E1E1E1E1E1E1E1E1E1E1E1E1E1E1E1E1E1E1E1E1E1E1E1E1E1E1E1E1E1E1E1E1E1E1E1E1E1E1E1E1E1E1E1E1E1E1BEE1E1E1E1E1E1BEBEE1E1E1E1E1E1E1E1E1E1E1E1E1E1E1E1E1E1E1E1E1E1E1E10F0FBEE1E1E1E1E1E1E1E2E2E1E1E1E1E1E1E1E1E1E1E1E1E1E1E1E1E1E1E1E1E1E1E1E1E1
310
E1E1E1E1E1E1E1E1E1E1E1E1E1E1E1E1E1E1E1E1E1E1E1E1E1E1E1E1E1E1E1E1E1E1E1E1E1E1E1E1E1E1E1E1E1E1E1E10FE1E10FBEE1E1E1E1E1E1E1E1E1E1E1E1E1E1E1E1E1E1E1E1E1E1E1E1E1E1E1E1E1E1E1E1E1E1E1E1E1E1E1E1E1E1E1E1E1E1E1E1E1E1E1E1E1E1E1E1E1E1E1E1E1E1E128BEE1E1E1E1E1E1E1E1E1
310
E1E1E1E1E1E1E1E1E1E1E1E1E1E1E1E1E1E1E1E1E1E1E1E1E1E1E1E1E1E1E1E1E1E1E1E1E1E1E1E1E1E1E1E1E1E1E1E1E1E1E1E1E1E1E1E1E1E1E1BEE1E1E1E1E1E1BEBEE1E1E1E1E1E1E1E1E1E1E1E1E1E1E1E1E1E1E1E1E1E10F0F0F0FBEE1E1E1E1E1E1E1E2E2E1E1E1E1E1E1E1E1E1E1E1E1E1E1E1E1E1E1E1E1E1E1E1
310
E1E1E1E1E1E1E1E1E1E1E1E1E1E1E1E1E1E1E1E1E1E1E1E1E1E1E1E1E1E1E1E1E1E1E1E1E1E1E1E1E1E1E1E1E1E1E1E1E1E10F0F0F0FBEE1E1E1E1E1E1E1E1E1E1E1E1E1E1E1E1E1E1E1E1E1E1E1E1E1E1E1E1E1E1E1E1E1E1E1E1E1E1E1E1E1E1E1E1E1E1E1E1E1E1E1E1E1E1E1E1E1E1E1E1E1E1E128BEE1E1E1E1E1E1E1
310
E1E1E1E1E1E1E1E1E1E1E1E1E1E1E1E1E1E1E1E1E1E1E1E1E1E1E1E1E1E1E1E1E1E1E1E1E1E1E1E1E1E1E1E1E1E1E1E1E1E1E1E1E1E1E1E1E1E1E1E1E1BEE1E1E1E1E1E1BEBEE1E1E1E1E1E1E1E1E1E1E1E1E1E1E1E1E1E1E1E1E1E1E1E1E10FBEE1E1E1E1E1E1E1BEBEE1E1E1E1E1E1E1E1E1E1E1E1E1E1E1E1E1E1E1E1E1
310
E1E1E1E1E1E1E1E1E1E1E1E1E1E1E1E1E1E1E1E1E1E1E1E1E1E1E1E1E1E1E1E1E1E1E1E1E1E1E1E1E1E1E1E1E1E1E1E1E1E1E1E1E1E1E1E1BEE1E1E1E1E1E1E1E1E1E1E1E1E1E1E1E1E1E1E1E1E1E1E1E1E1E1E1E1E1E1E1E1E1E1E1E1E1E1E1E1E1E1E1E1E1E1E1E1E1E1E1E1E1E1E1E1E1E1E1E1E1E1E128BEE1E1E1E1E1
310
E1E1E1E1E1E1E1E1E1E1E1E1E1E1E1E1E1E1E1E1E1E1E1E1E1E1E1E1E1E1E1E1E1E1E1E1E1E1E1E1E1E1E1E1E1E1E1E1E1E1E1E1E1E1E1E1E1E1E1E1E1E1E1BEE1E1E1E1E1E1BEBEE1E1E1E1E1E1E1E1E1E1E1E1E1E1E1E1E1E1E1E1E1E1E1E10F0FBEE1E1E1E1E1E1E1BEBEE1E1E1E1E1E1E1E1E1E1E1E1E1E1E1E1E1E1E1
310
E1E1E1E1E1E1E1E1E1E1E1E1E1E1E1E1E1E1E1E1E1E1E1E1E1E1E1E1E1E1E1E1E1E1E1E1E1E1E1E1E1E1E1E1E1E1E1E1E1E1E1E1E1E1E1E1E1E1BEE1E1E1E1E1E1E1E1E1E1E1E1E1E1E1E1E1E1E1E1E1E1E1E1E1E1E1E1E1E1E1E1E1E1E1E1E1E1E1E1E1E1E1E1E1E1E1E1E1E1E1E1E1E1E1E1E1E1E1E1E1E1E128BEE1E1E1
310
E1E1E1E1E1E1E1E1E1E1E1E1E1E1E1E1E1E1E1E1E1E1E1E1E1E1E1E1E1E1E1E1E1E1E1E1E1E1E1E1E1E1E1E1E1E1E1E1E1E1E1E1E1E1E1E1E1E1E1E1E1E1E1E1E1BEE1E1E1E1E1E1BEBEE1E1E1E1E1E1E1E1E1E1E1E1E1E1E1E1E1E1E1E1E1E10F0F0F0FBEE1E1E1E1E1E1E1BEBEE1E1E1E1E1E1E1E1E1E1E1E1E1E1E1E1E1
310
E1E1E1E1E1E1E1E1E1E1E1E1E1E1E1E1E1E1E1E1E1E1E1E1E1E1E1E1E1E1E1E1E1E1E1E1E1E1E1E1E1E1E1E1E1E1E1E1E1E1E1E1E1E1E1E1E1E1E1E1E1E1E1E1E1E1E1E1E1E1E1E1E1E1E1E1E1E1E1E1E1E1E1E1E1E1E1E1E1E1E1E1E1E1E1E1E1E1E1E1E1E1E1E1E1E1E1E1E1E1E1E1E1E1E1E1E1E1E1E1E1E1E1E128BEE1
310
E1E1E1E1E1E1E1E1E1E1E1E1E1E1E1E1E1E1E1E1E1E1E1E1E1E1E1E1E1E1E1E1E1E1E1E1E1E1E1E1E1E1E1E1E1E1E1E1E1E1E1E1E1E1E1E1E1E1E1E1E1E1E1E1E1E1E1BEE1E1E1E1E1E1BEBEE1E1E1E1E1E1E1E1E1E1E1E1E1E1E1E1E1E1E1E1E1E1E1E1E10FBEE1E1E1E1E1E1E1BEBEE1E1E1E1E1E1E1E1E1E1E1E1E1E1E1
310
E1E1E1E1E1E1E1E1E1E1E1E1E1E1E1E1E1E1E1E1E1E1E1E1E1E1E1E1E1E1E1E1E1E1E1E1E1E1E1E1E1E1E1E1E1E1E1E1E1E1E1E1E1E1E1E1E1E1E1E1E1E1E1E1E1E1E1E1E1E1E1E1E1E1E1BEE1E1BEE1E1E1E1E1E1E1E1E1E1E1E1E1E1E1E1E1E1E1E1E1E1E1E1E1E1E1E1E1E1E1E1E1E1E1E1E1E1E1E1E1E1E1E1E1E1E128
310
BEE1E1E1E1E1E1E1E1E1E1E1E1E1E1E1E1E1E1E1E1E1E1E1E1E1E1E1E1E1E1E1E1E1E1E1E1E1E1E1E1E1E1E1E1E1E1E1E1E1E1E1E1E1E1E1E1E1E1E1E1E1E1E1E1E1E1E1E1BEE1E1E1E1E1E1BE28E1E1E1E1E1E1E1E1E1E1E1E1E1E1E1E1E1E1E1E1E1E1E1E1E1E1E1E1BEBEBEBEBEBEBEBEBEBEBEBEBEBEBEE1E1E1E1E1E1
310
E1E1E1E1E1BEBEBEBEBEBEBEBEBEBEBEE1E1E1E1E1E1E1E1E1E1E1E1E1E1E1E1E1E1E1BEBEBEBEBEBEBEE1E1E1E1E1E1E1E1E1E1E1E1E1E1E1E1E1E1E1E1E1E1E1E1E1E1E1E1E1BEBEBEBEBEBEBEBEBEBEBEBEBEBEBEBEBEBEBEBEE1E1E1E1E1E1E1E1E1E1E1E1E1E1E1E1E1E1E1E1E1E1E1E1E1E1E1E1E1E1E1E1E1E1E1E1
310
E128BEE1E1E1E1E1E1E1E1E1E1E1E1E1E1E1E1E1E1E1E1E1E1E1E1E1E1E1E1E1E1E1E1E1E1E1E1E1E1E1E1E1E1E1E1E1E1E1E1E1E1E1E1E1E1E1E1E1E1E1E1E1E1E1E1E1E1E1E1BEE1E1E1E1E1E1BEBEE1E1E1E1E1E1E1E1E1E1E1E1E1E1E1E1E1E1E1E1E1E1E1E1E1E1E1E1E1E1E1BEBEE1BEBEE1BEBEE1E1E1E1E1E1E1E1
310
E1E1E1E1E1E1BEE10F0FE1E1E10F0FE10FE1E1E1E1E1E1E1E1E1E1E1E1E1E1E1E1E1E1E1BEE1E1E1E1E1E1E1E1E1E1E1E1E1E1E1E1E1E1E1E1E1E1E1E1E1E1E1E1E1E1E1E1E1E1E1E1E1E1E1BEBEE1BEE1E1BEE1BEBEE1E1E1E1E1E1E1E1E1E1E1E1E1E1E1E1E1E1E1E1E1E1E1E1E1E1E1E1E1E1E1E1E1E1E1E1E1E1E1E1E1
310
E1E1E128BEE1E1E1E1E1E1E1E1E1E1E1E1E1E1E1E1E1E1E1E1E1E1E1E1E1E1E1E1E1E1E1E1E1E1E1E1E1E1E1E1E1E1E1E1E1E1E1E1E1E1E1E1E1E1E1E1E1E1E1E1E1E1E1E1E1E1E1E1BEE1E1E1E1E1E1BEBEE1E1E1E1E1E1E1E1E1E1E1E1E1E1E1E1E1E1E1E1E1E1E1E1E1E1E1E1E1E1E1E1E1E1BEBEE1E1E1E10F0FE1E1E1
310
E1E1E1E1E1E1E1E1BEE10F0F0FE10F0F0F0F0F0FE1E1E1E1E1E1E1E1E1E1E1E1E1E1E1E1E1E1BE0F0F0FE10F0FE1E1E1E1E1E1E1E1E1E1E1E1E1E1E1E1E1E1E1E1E1E1E1E1E1E1E1E1E1E1E1E1E1E1E1E1BEE1E1BEE1E1E1E10F0F0F0F0FE1E1E1E1E1E1E1E1E1E1E1E1E1E1E1E1E1E1E1E1E1E1E1E1E1E1E1E1E1E1E1E1E1
310
E1E1E1E1E128BEE1E1E1E1E1E1E1E1E1E1E1E1E1E1E1E1E1E1E1E1E1E1E1E1E1E1E1E1E1E1E1E1E1E1E1E1E1E1E1E1E1E1E1E1E1E1E1E1E1E1E1E1E1E1E1E1E1E1E1E1E1E1E1E1E1E1E1E1BEE1E1E1E1E1E1BEBEE1E1E1E1E1E1E1E1E1E1E1E1E1E1E1E1E1E1E1E1E1E1E1E1E1E1E1E1E1E1E1E1E1E1E1E1E1E1E1E10F0FE1
310
E1E1E1E1E1E1E1E1E1BEE1E10F0F0FE1E10FE10F0F0FE1E1E1E1E1E1E1E1E1E1E1E1E1E1E1E1E1BEE10FE10FE10F0FE1E1E1E1E1E1E1E1E1E1E1E1E1E1E1E1E1E1E1E1E1E1E1E1E1E1E1E1E1E1E1E1E1E1E1E1BEE1E1BEE1E1E1E10F0FE10F0FE1E1E1E1E1E1E1E1E1E1E1E1E1E1E1E1E1E1E1E1E1E1E1E1E1E1E1E1E1E1E1
310
E1E1E1E1E1E1E128BEE1E1E1E1E1E1E1E1E1E1E1E1E1E1E1E1E1E1E1E1E1E1E1E1E1E1E1E1E1E1E1E1E1E1E1E1E1E1E1E1E1E1E1E1E1E1E1E1E1E1E1E1E1E1E1E1E1E1E1E1E1E1E1E1E1E1E1E1BEE1E1E1E1E1E1BEBEE1E1E1E1E1E1E1E1E1E1E1E1E1E1E1E1E1E1E1E1E1E1E1E1E1E1E1E1E1E1E1E1E1E1E1E1E1E1E1E10F
310
0FE1E1E1E1E1E1E1E1E1BEE1E1E1E1E1E1E1E10FE1E10FE1E1E1E1E1E1E1E1E1E1E1E1E1E1E1E1E1BEE1E10F0F0FE1E10FE1E1E1E1E1E1E1E1E1E1E1E1E1E1E1E1E1E1E1E1E1E1E1E1E1E1E1E1E1E1E1E1E1E1E1E1BEE1E1BEE1E1E1E10F0FE10F0FE1E1E1E1E1E1E1E1E1E1E1E1E1E1E1E1E1E1E1E1E1E1E1E1E1E1E1E1E1
310
E1E1E1E1E1E1E1E1E128BEE1E1E1E1E1E1E1E1E1E1E1E1E1E1E1E1E1E1E1E1E1E1E1E1E1E1E1E1E1E1E1E1E1E1E1E1E1E1E1E1E1E1E1E1E1E1E1E1E1E1E1E1E1E1E1E1E1E1E1E1E1E1E1E1E1E1E1E1BEE1E1E1E1E1E1BEBEE1E1E1E1E1E1E1E1E1E1E1E1E1E1E1E1E1E1E1E1E1E1E1E1E1E1E1E1E1E1E1E1E1E1E1E1E1E1E1
310
E1E1E1E1E1E1E1E1E1E1E1BEE1E1E1E1E1E1E1E1E1E1E1E1E1E1E1E1E1E1E1E1E1E1E1E1E1E1E1E1E1BEE1E1E1E1E1E1E1E1E1E1E1E1E1E1E1E1E1E1E1E1E1E1E1E1E1E1E1E1E1E1E1E1E1E1E1E1E1E1E1E1E1E1E1E1E1BEE1E1BEE1E1E1E1E1E1E1E1E1E1E1E1E1E1E1E1E1E1E1E1E1E1E1E1E1E1E1E1E1E1E1E1E1E1E1E1
310
E1E1E1E1E1E1E1E1E1E1E128BEE1E1E1E1E1E1E1E1E1E1E1E1E1E1E1E1E1E1E1E1E1E1E1E1E1E1E1E1E1E1E1E1E1E1E1E1E1E1E1E1E1E1E1E1E1E1E1E1E1E1E1E1E1E1E1E1E1E1E1E1E1E1E1E1E1E1E1E1BEE1E1E1E1E1E1BEBEE1E1E1E1E1E1E1E1E1E1E1E1E1E1E1E1E1E1E1E1E1E1E1E1E1E1E1E1E1E1E1E1E1E1E1E1E1
310
E1E1E1E1E1E1E1E1E1E1E1E1E1BEE1E1E1E1E1E1E1E1E1E1E1E1E1E1E1E1E1E1E1E1E1E1E1E1E1E1E1E1E1BEE1E1E1E1E1E1E1E1E1E1E1E1E1E1E1E1E1E1E1E1E1E1E1E1E1E1E1E1E1E1E1E1E1E1E1E1E1E1E1E1E1E1E1E1E1BEE1E1BEE1E1E1E1E1E1E1E1E1E1E1E1E1E1E1E1E1E1E1E1E1E1E1E1E1E1E1E1E1E1E1E1E1E1
310
E1E1E1E1E1E1E1E1E1E1E1E1E128BEE1E1E1E1E1E1E1E1E1E1E1E1E1E1E1E1E1E1E1E1E1E1E1E1E1E1E1E1E1E1E1E1E1E1E1E1E1E1E1E1E1E1E1E1E1E1E1E1E1E1E1E1E1E1E1E1E1E1E1E1E1E1E1E1E1E1E1E1BEE1E1E1E1E1E1BEBEE1E1E1E1E1E1E1E1E1E1E1E1E1E1E1E1E1E1E1E1E1E1E1E1E1E1E1E1E1E1E1E1E1E1E1
310
E1E1E1E1E1E1E1E1E1E1E1E1E1E1BEE1E1E1E1E1E1E1E1E1E1E1E1E1E1E1E1E1E1E1E1E1E1E1E1E1E1E1E1E1BEE1E1E1E1E1E1E1E1E1E1E1E1E1E1E1E1E1E1E1E1E1E1E1E1E1E1E1E1E1E1E1E1E1E1E1E1E1E1E1E1E1E1E1E1E1E1BEE1E1BEE1E1E1E1E1E1E1E1E1E1E1E1E1E1E1E1E1E1E1E1E1E1E1E1E1E1E1E1E1E1E1E1
310
E1E1E1E1E1E1E1E1E1E1E1E1E1E1E128BEE1E1E1E1E1E1E1E1E1E1E1E1E1E1E1E1E1E1E1E1E1E1E1E1E1E1E1E1E1E1E1E1E1E1E1E1E1E1E1E1E1E1E1E1E1E1E1E1E1E1E1E1E1E1E1E1E1E1E1E1E1E1E1E1E1E1E1E1BEE1E1E1E1E1E1BEBEE1E1E1E1E1E1E1E1E1E1E1E1E1E1E1E1E1E1E1BEE1E1E1E1E1E1E1E1E1E1E1E1E1
310
E1E2E2E2E2E2E2E2E2E2E2E20FE2E2E2E2E2E2E2E2E2E2E2E2E2E2E2E2E2E2E2E2E2E2E2E2E2E2E2E2E2E2E2E2E2E2E2E2E2E2E2E2E2E2E2E2E2E2E2E2E2E2E2E2E2E2E2E2E2E2E2E2E1E1E1E1E1E1E1E1E1E1E1E1E1E1E1E1E1E1E1E1BEE2E2BEE2E2E20F0FE1E1E1E1E1E1E1E1E1E1E1E1E1E1E1E1E1E1E1E1E1E1E1E1E1
310
E1E1E1E1E1E1E1E1E1E1E1E1E1E1E1E1E128BEE1E1E1E1E1E1E1E1E1E1E1E1E1E1E1E1E1E1E1E1E1E1E1E1E1E1E1E1E1E1E1E1E1E1E1E1E1E1E1E1E1E1E1E1E1E1E1E1E1E1E1E1E1E1E1E1E1E1E1E1E1E1E1E1E1E1E1E1BEE1E1E1E1E1E1BEBEE1E1E1E1E1E1E1E1E1E1E1E1E1E1E1E1E1E1E1BEE1E1E1E1E1E1E1E1E1E1E1
310
E1E1E1E2E2E1E1E2E2E1E1E2E2E10FE1E2E2E1E1E2E2E1E1E1E2E2E1E1E2E2E1E1E1E2E2E1E1E2E2E1E1E1E2E2E1E1E2E2E1E1E1E2E2E1E1E2E2E1E1E1E2E2E1E1E2E2E1E1E1E2E2E1E1E2E1E1E1E1E1E1E1E1E1E1E1E1E1E1E1E1E1E1E1E1E2E1E1BEE1E1E10F0FE1E1E1E1E1E1E1E1E1E1E1E1E1E1E1E1E1E1E1E1E1E1E1
310
E1E1E1E1E1E1E1E1E1E1E1E1E1E1E1E1E1E1E128BEE1E1E1E1E1E1E1E1E1E1E1E1E1E1E1E1E1E1E1E1E1E1E1E1E1E1E1E1E1E1E1E1E1E1E1E1E1E1E1E1E1E1E1E1E1E1E1E1E1E1E1E1E1E1E1E1E1E1E1E1E1E1E1E1E1E1E1E1BEE1E1E1E1E1E1BEBEE1E1E1E1E1E1E1E1E1E1E1E1E1E1E1E1E1E1BEBEE1E1E1E1E1BEBEBEBE
310
BEBEBEBEBEBEBEBEBEE2E2E1E1E2E2E20FE1E2E2E1E1E2E2E2E1E1E2E2E1E1E2E2E2E1E1E2E2E1E1E2E2E2E1E1E2E2E1BEE2E2E2E1E1E2E2E1E1E2E2E2E1E1E2E2E1E1E2E2E2E1E1E2E2E1E1E2E1E1E1E1E1E1E1E1E1E1E1E1E1E1E1E1E1E1E1E1E2E1E1BEE1E1E10F0FE1E1E1E1E1E1E1E1E1E1E1E1E1E1E1E1E1E1E1E1E1
310
E1E1E1E1E1E1E1E1E1E1E1E1E1E1E1E1E1E1E1E1E128BEE1E1E1E1E1E1E1E1E1E1E1E1E1E1E1E1E1E1E1E1E1E1E1E1E1E1E1E1E1E1E1E1E1E1E1E1E1E1E1E1E1E1E1E1E1E1E1E1E1E1E1E1E1E1E1E1E1E1E1E1E1E1E1E1E1E1E1E1BEE1E1E1E1E1E1BEBEE1E1E1E1E1E1E1E1E1E1E1E1E1E1E1E1E1E1BEBEE1E1E1E1E1E1BE
310
E1E1E1E1E1E1E1E2E2E2E2E1E1E2E2E1E1E20FE2E1E1E2E2E1E1E2E2E2E1E1E2E2E1E1E2E2E2E1E1E2E2E1E1E2E2E2E1E1E2E2E1E1E2E2E2E1E1E2E2E1E1E2E2E2E1E1E2E2E1E1E2E2E2E1E1E2E2E2E1E1E1E1E1E1E1E1E1E1E1E1E1E1E1E1E1E1E1E1E2E1E1BEE1E1E10F0FE1E1BEBEBEBEBEBEBEBEBEBEBEBEBEBEBEBEBE
310
BEE1E1E1E1E1E1E1E1E1E1E1E1E1E1E1E1E1E1E1E1E1E128BEE1E1E1E1E1E1E1E1E1E1E1E1E1E1E1E1E1E1E1E1E1E1E1E1E1E1E1E1E1E1E1E1E1E1E1E1E1E1E1E1E1E1E1E1E1E1E1E1E1E1E1E1E1E1E1E1E1E1E1E1E1E1E1E1E1E1E1E1BEE1E1E1E1E1E1BEBEE1E1E1E1E1E1E1E1E1E1E1E1E1E1E1E1E1E1E1BEE1E1E1E1E1
310
E1BEBEE1E1E1E1E1E1E2E2E1E2E1E1E2E2E1E1E20FE2E1E1E2E2E1E1E2E1E2E1E1E2E2E1E1E2E1E2E1E1E2E2E1E1E2E1E2E1BEE2E2E1E1E2E1E2E1E1E2E2E1E1E2E1E2E1E1E2E2E1E1E2E1E2E1E1E2E2E2E1E1E1E1E1E1E1E1E1E1E1E1E1E1E1E1E1E1E1E1E2E1E1BEE1E1E10F0FE1BEE1E10FE10FE10FE10FE10F0FE1E10F
310
E10F0F0FE1E1E1E1E1E1E1E1E1E1E1E1E1E1E1E1E1E1E1E1E128BEE1E1E1E1E1E1E1E1E1E1E1E1E1E1E1E1E1E1E1E1E1E1E1E1E1E1E1E1E1E1E1E1E1E1E1E1E1E1E1E1E1E1E1E1E1E1E1E1E1E1E1E1E1E1E1E1E1E1E1E1E1E1E1E1E1E1E1E1BEE1E1E1E1E1E1BEBEE1E1E1E1E1E1E1E1E1E1E1E1E1E1E1E1E1E1E1BEE1E1E1
310
E1E1E1BEBEE1E1E1E1E1E1E2E2E1E1E1E1E1E1E1E1E10FE1E1E1E1E1E1E1E1E1E1E1E1E1E1E1E1E1E1E1E1E1E1E1E1E1E1E1E1E1BEE1E1E1E1E1E1E1E1E1E1E1E1E1E1E1E1E1E1E1E1E1E1E1E1E1E1E1E1E1E2E1E1E1E1E1E1E1E1E1E1E1E1E1E1E1E1E1E1E1E1E2E1E1BEE1E1E10F0FBEE1E1E10FE10FE10F0F0FE1E10FE1
310
E10FE1E1E10FE1E1E1E1E1E1E1E1E1E1E1E1E1E1E1E1E1E1E1E1E128BEE1E1E1E1E1E1E1E1E1E1E1E1E1E1E1E1E1E1E1E1E1E1E1E1E1E1E1E1E1E1E1E1E1E1E1E1E1E1E1E1E1E1E1E1E1E1E1E1E1E1E1E1E1E1E1E1E1E1E1E1E1E1E1E1E1E1E1E1BEE1E1E1E1E1E1BEBEE1E1E1E1E1E1E1E1E1E1E1E1E1E1E1E1E1E1E1BEE1
310
E1E1E1E1E1BEE1E1E1E1E1E1E1E2E2E1E1E2E2E1E1E1E1E10FE1E2E2E1E1E1E1E1E1E1E2E2E1E1E1E1E1E1E1E2E2E1E1E1E1E1E1E1E2E2E1E1E1E1E1E1E1E2E2E1E1E1E1E1E1E2E2E2E1E1E1E1E1E1E2E2E2BEBEE2BEBEBEBEBEBEBEBEBEBEBEBEBEBEBEBEBEE1E1E1E2E1E1BEE1E1E10FBEE1E1E1E10FE10FE1E10FE1E10F
310
0FE1E10F0FE10FE1E1E1E1E1E1E1E1E1E1E1E1E1E1E1E1E1E1E1E1E1E128BEE1E1E1E1E1E1E1E1E1E1E1E1E1E1E1E1E1E1E1E1E1E1E1E1E1E1E1E1E1E1E1E1E1E1E1E1E1E1E1E1E1E1E1E1E1E1E1E1E1E1E1E1E1E1E1E1E1E1E1E1E1E1E1E1E1E1E1E1BEE1E1E1E1E1E1BEBEE1E1E1E1E1E1E1E1E1E1E1E1E1E1E1E1E1E1E1
310
BEE1E1E1E1E1E1BEE1E1E1E1E1E1E1E2E2E1E1E2E2E1E1E1E1E10FE1E2E2E1E1E1E1E1E1E1E2E2E1E1E1E1E1E1E1E2E2E1E1E1E1E1E1E1E2E2E1E1E1E1E1E1E1E2E2E1E1E1E1E1E1E2E2E2E1E1E1E1E1E1E2E2E2E1E1E2E1E1E1E1E1E1E1BEE1E1E1E1E1E1BEE1E1E1E1E1E2E1E1BEE1E1E1BE0FE1E1E1E10FE10FE1E10FE1
310
E1E1E1E1E10F0FE10F0FE1E1E1E1E1E1E1E1E1E1E1E1E1E1E1E1E1E1E1E1E128BEE1E1E1E1E1E1E1E1E1E1E1E1E1E1E1E1E1E1E1E1E1E1E1E1E1E1E1E1E1E1E1E1E1E1E1E1E1E1E1E1E1E1E1E1E1E1E1E1E1E1E1E1E1E1E1E1E1E1E1E1E1E1E1E1E1E1E1E1BEE1E1E1E1E1E1BEBEE1E1E1E1E1E1E1E1E1E1E1E1E1E1E1E1E1
310
E1E1BEE1E1E1E1E1E1BEE1E1E1E1E1E1E1E2E2E1E1E1E1E1E1E1E1E10FE1E1E1E1E1E1E1E1E1E1E1E1E1E1E1E1E1E1E1E1E1E1E1E1E1E1E1E1E1E1E1E1E1E1E1E1E1E1E1E1E1E1E1E1E1E1E1E1E1E1E1E1E1E1E1E1E1E1E1E2E1E1E1E1E10FE1BEE1E1E1E1E1E1BEBEE1E1E1E1E2E1E1BEE1E1BE0F0FE1E1E1E1E1E1E1E1E1
310
E1E1E1E1E1E1E1E1E1E1E1E1E1E1E1E1E1E1E1E1E1E1E1E1E1E1E1E1E1E1E1E1E128BEE1E1E1E1E1E1E1E1E1E1E1E1E1E1E1E1E1E1E1E1E1E1E1E1E1E1E1E1E1E1E1E1E1E1E1E1E1E1E1E1E1E1E1E1E1E1E1E1E1E1E1E1E1E1E1E1E1E1E1E1E1E1E1E1E1E1E1E1BEE1E1E1E1E1E1BEBEE1E1E1E1E1E1E1E1E1E1E1E1E1E1E1
310
E1E1E1E1BEE1E1E1E1E1E1BEE1E1E1E1E1E1E1E2E2E1E1E1E1E1E1E1E1E10FE1E1E1E1E1E1E1E1E1E1E1E1E1E1E1E1E1E1E1E1E1E1E1E1E1E1E1E1E1E1E1E1E1E1E1E1E1E1E1E1E1E1E1E1E1E1E1E1E1E1E1E1E1E1E1E1E1E1E1E2E1E1E10F0F0F0FBEE1E1E1E1E1E1BEBEE1E1E1E1E2E1E1BEE1BEE10F0FE1E1E1E1E1E1E1
310
E1E1E1E1E1E1E1E1E1E1E1E1E1E1E1E1E1E1E1E1E1E1E1E1E1E1E1E1E1E1E1E1E1E1E128BEE1E1E1E1E1E1E1E1E1E1E1E1E1E1E1E1E1E1E1E1E1E1E1E1E1E1E1E1E1E1E1E1E1E1E1E1E1E1E1E1E1E1E1E1E1E1E1E1E1E1E1E1E1E1E1E1E1E1E1E1E1E1E1E1E1E1E1E1BEE1E1E1E1E1E1BEBEE1E1E1E1E1E1E1E1E1E1E1E1E1
310
E1E1E1E1E1E1BEE1E1E1E1E1E1BEE1E1E1E1E1E1E1E2E2E1E1E1E1E1E1E1E1E10FE1E1E1E1E1E1E1E1E1E1E1E1E1E1E1E1E1E1E1E1E1E1E1E1E1E1E1E1E1E1E1E1E1E1E1E1E1E1E1E1E1E1E1E1E1E1E1E1E1E1E1E1E1E1E1E1E1E1E1E2E1E1E1E1E10FBEBEE1E1E1E1E1E1BEBEE1E1E1E1E2E1E2BEBEE1E10F0FE1E1E1E1E1
310
E1E1E1E1E1E1E1E1E1E1E1E1E1E1E1E1E1E1E1E1E1E1E1E1E1E1E1E1E1E1E1E1E1E1E1E1E128BEE1E1E1E1E1E1E1E1E1E1E1E1E1E1E1E1E1E1E1E1E1E1E1E1E1E1E1E1E1E1E1E1E1E1E1E1E1E1E1E1E1E1E1E1E1E1E1E1E1E1E1E1E1E1E1E1E1E1E1E1E1E1E1E1E1E1E1E1BEE1E1E1E1E1E1BEBEE1E1E1E1E1E1E1E1E1E1E1
310
E1E1E1E1E1E1E1E1BEE1E1E1E1E1E1BEE1E1E1E1E1E1E1E2E2E1E1E1E1E1E1E1E1E10FE1E1E1E1E1E1E1E1E1E1E1E1E1E1E1E1E1E1E1E1E1E1E1E1E1E1E1E1E1E1E1E1E1E1E1E1E1E1E1E1E1E1E1E1E1E1E1E1E1E1E1E1E1E1E1E1E1E1E1E2E1E1E10F0F0FE1BEE1E1E1E1E1E1BEE1E1E1E1E1E2E2E1BEBEBEBEBEBEBEBEBE
310
BEBEBEBEBEBEBEE1E1E1E1E1E1E1E1E1E1E1E1E1E1E1E1E1E1E1E1E1E1E1E1E1E1E1E1E1E1E1E128BEE1E1E1E1E1E1E1E1E1E1E1E1E1E1E1E1E1E1E1E1E1E1E1E1E1E1E1E1E1E1E1E1E1E1E1E1E1E1E1E1E1E1E1E1E1E1E1E1E1E1E1E1E1E1E1E1E1E1E1E1E1E1E1E1E1E1E1E1BEE1E1E1E1E1E1BEBEE1E1E1E1E1E1E1E1E1
310
E1E1E1E1E1E1E1E1E1E1BEE1E1E1E1E1E1BEE1E1E1E1E1E1E1E2E2E1E1E1E1E1E1E1E1E10FE1E1E1E1E1E1E1E1E1E1E1E1E1E1E1E1E1E1E1E1E1E1E1E1E1E1E1E1E1E1E1E1E1E1E1E1E1E1E1E1E1E1E1E1E1E1E1E1E1E1E1E1E1E1E1E1E1E1E1E2E1E1E1E10F0F0FBEE1E1E1E1E1E1BEE1E1E1E1E1E2E1E2E2E2E1E10F0FE1
310
E1E1E1E1E1E1BEE1E1E1E1E1E1E1E1E1E1E1E1E1E1E1E1E1E1E1E1E1E1E1E1E1E1E1E1E1E1E1E1E1E128BEE1E1E1E1E1E1E1E1E1E1E1E1E1E1E1E1E1E1E1E1E1E1E1E1E1E1E1E1E1E1E1E1E1E1E1E1E1E1E1E1E1E1E1E1E1E1E1E1E1E1E1E1E1E1E1E1E1E1E1E1E1E1E1E1E1E1E1E1BEE1E1E1E1E1E1BEBEE1E1E1E1E1E1E1
310
E1E1E1E1E1E1E1E1E1E1E1E1BEE1E1E1E1E1E1BEE1E1E1E1E1E1E1E2E2E1E1E1E1E1E1E1E1E1E1E1E1E1E1E1E1E1E1E1E1E1E1E1E1E1E1E1E1E1E1E1E1E1E1E1E1E1E1E1E1E1E1E1E1E1E1E1E1E1E1E1E1E1E1E1E1E1E1E1E1E1E1E1E1E1E1E1E1E1E2E1E1E1E1E10F0FBEE1E1E1E1E1E1BEE1E1E1E1E1E2E1E1E1E1E1E1E1
310
E2E1E1E1E1E1E1BEBEE1E1E1E1E1E1E1E1E1E1E1E1E1E1E1E1E1E1E1E1E1E1E1E1E1E1E1E1E1E1E1E1E1E128BEE1E1E1E1E1E1E1E1E1E1E1E1E1E1E1E1E1E1E1E1E1E1E1E1E1E1E1E1E1E1E1E1E1E1E1E1E1E1E1E1E1E1E1E1E1E1E1E1E1E1E1E1E1E1E1E1E1E1E1E1E1E1E1E1E1E1E1E1BEE1E1E1E1E1E1BEBEE1E1E1E1E1
310
E1E1E1E1E1E1E1E1E1E1E1E1E1E1BEE1E1E1E1E1E1BEE1E1E1E1E1E1E1E2E2E1E1E1E1E1E1E1E1E10FE1E1E1E1E1E1E1E1E1E1E1E1E1E1E1E1E1E1E1E1E1E1E1E1E1E1E1E1E1E1E1E1E1E1E1E1E1E1E1E1E1E1E1E1E1E1E1E1E1E1E1E1E1E1E1E1E1E1E1E2E1E1E1E1E10FE1BEE1E1E1E1E1E1BEE1E1E1E1E1E2E1E1E1E1E1
310
E10F0FE1E1E1E1E1E1BEBEE1E1E1E1E1E1E1E1E1E1E1E1E1E1E1E1E1E1E1E1E1E1E1E1E1E1E1E1E1E1E1E1E1E128BEE1E1E1E1E1E1E1E1E1E1E1E1E1E1E1E1E1E1E1E1E1E1E1E1E1E1E1E1E1E1E1E1E1E1E1E1E1E1E1E1E1E1E1E1E1E1E1E1E1E1E1E1E1E1E1E1E1E1E1E1E1E1E1E1E1E1E1E1BEE1E1E1E1E1E1BEBEE1E1E1
310
E1E1E1E1E1E1E1E1E1E1E1E1E1E1E1E1BEE1E1E1E1E1E1BEE1E1E1E1E1E1E1E2E2E1E1E1E1E1E1E1E1E10FE1E1E1E1E1E1E1E1E1E1E1E1E1E1E1E1E1E1E1E1E1E1E1E1E1E1E1E1E1E1E1E1E1E1E1E1E1E1E1E1E1E1E1E1E1E1E1E1E1E1E1E1E1E1E1E1E1E1E1E2E1E1E10F0F0F0FBEE1E1E1E1E1E1BEE1E1E1E1E1E2E1E1E1
310
E1E1E10F0FE1E1E1E1E1E1E1BEE1E1E1E1E1E1E1E1E1E1E1E1E1E1E1E1E1E1E1E1E1E1E1E1E1E1E1E1E1E1E1E1E1E128BEE1E1E1E1E1E1E1E1E1E1E1E1E1E1E1E1E1E1E1E1E1E1E1E1E1E1E1E1E1E1E1E1E1E1E1E1E1E1E1E1E1E1E1E1E1E1E1E1E1E1E1E1E1E1E1E1E1E1E1E1E1E1E1E1E1E1E1E1BEE1E1E1E1E1E1BEBEE1
310
E1E1E1E1E1E1E1E1E1E1E1E1E1E10F0F0F0FBEE1E10F0F0F0FBEE1E1E1E1E1E1E1E2E2E1E1E1E1E1E1E1E1E10FE1E1E1E1E1E1E1E1E1E1E1E1E1E1E1E1E1E1E1E1E1E1E1E1E1E1E1E1E1E1E1E1E1E1E1E1E1E1E1E1E1E1E1E1E1E1E1E1E1E1E1E1E1E1E1E1E1E1E1E2E1E1E1E1E10FE1BEE1E10F0F0F0FBEE1E1E1E1E1E2E1
310
E1E1E1E1E10F0FE1E1E10F0FE10FBEE1E1E1E1E1E1E1E1E1E1E1E1E1E1E1E1E1E1E1E1E1E1E1E1E1E1E1E1E1E1E1E1E1E128BEE1E1E1E1E1E1E1E1E1E1E1E1E1E1E1E1E1E1E1E1E1E1E1E1E1E1E1E1E1E1E1E1E1E1E1E1E1E1E1E1E1E1E1E1E1E1E1E1E1E1E1E1E1E1E1E1E1E1E1E1E1E1E1E1E1E1E1E1BEE1E1E1E1E1E1BE
310
28E1E1E1E1E1E1E1E1E1E1E1E1E1E1E10F0FE10FBEE1E1E10FE10FBEE1E1E1E1E1E1E1E2E2E1E1E1E1E1E1E1E1E10FE1E1E1E1E1E1E1E1E1E1E1E1E1E1E1E1E1E1E1E1E1E1E1E1E1E1E1E1E1E1E1E1E1E1E1E1E1E1E1E1E1E1E1E1E1E1E1E1E1E1E1E1E1E1E1E1E1E1E1E2E1E1E10F0FE10FBEE1E10F0F0F0FBEE1E1E1E1E1
310
E2E1E1E1E1E1E10F0FE1E1E10F0FE10FBEE1E1E1E1E1E1E1E1E1E1E1E1E1E1E1E1E1E1E1E1E1E1E1E1E1E1E1E1E1E1E1E1E1E128BEE1E1E1E1E1E1E1E1E1E1E1E1E1E1E1E1E1E1E1E1E1E1E1E1E1E1E1E1E1E1E1E1E1E1E1E1E1E1E1E1E1E1E1E1E1E1E1E1E1E1E1E1E1E1E1E1E1E1E1E1E1E1E1E1E1E1E1E1BEE1E1E1E1E1
310
E1BEBEE1E1E1E1E1E1E1E1E1E1E1E1E1E1E10F0F0F0FBEE1E10F0F0F0FBEE1E1E1E1E1E1E1E2E2E1E1E1E1E1E1E1E1E10FE1E1E1E1E1E1E1E1E1E1E1E1E1E1E1E1E1E1E1E1E1E1E1E1E1E1E1E1E1E1E1E1E1E1E1E1E1E1E1E1E1E1E1E1E1E1E1E1E1E1E1E1E1E1E1E1E1E1E1E2E1E1E10F0F0FBEBEE1E1E10F0FE1BEE1E1E1
310
E1E1E2E1E1E1E1E1E10F0FE1E1E10FE10FE1BEE1E1E1E1E1E1E1E1E1E1E1E1E1E1E1E1E1E1E1E1E1E1E1E1E1E1E1E1E1E1E1E1E1E128BEE1E1E1E1E1E1E1E1E1E1E1E1E1E1E1E1E1E1E1E1E1E1E1E1E1E1E1E1E1E1E1E1E1E1E1E1E1E1E1E1E1E1E1E1E1E1E1E1E1E1E1E1E1E1E1E1E1E1E1E1E1E1E1E1E1E1E1E1BEE1E1E1
310
E1E1E1BEBEE1E1E1E1E1E1E1E1E1E1E1E1E1E1E10FE1E10FBEE1E1E10FE10FBEE1E1E1E1E1E1E1E2E2E1E1E2E2E1E1E1E1E10FE1E2E2E1E1E1E1E1E1E1E2E2E1E1E1E1E1E1E1E2E2E1E1E1E1E1E1E1E2E2E1E1E1E1E1E1E1E2E2E1E1E1E1E1E1E2E2E2E1E1E1E1E1E1E2E2E2E1E1E2E1E1E1E1E1E1E1BEE1E10F0F0F0FBEE1
310
E1E1E1E1E2E1E1E1E1E1E10F0FE1E1E10FE10F0FBEE1E1E1E1E1E1E1E1E1E1E1E1E1E1E1E1E1E1E1E1E1E1E1E1E1E1E1E1E1E1E1E1E1E128BEE1E1E1E1E1E1E1E1E1E1E1E1E1E1E1E1E1E1E1E1E1E1E1E1E1E1E1E1E1E1E1E1E1E1E1E1E1E1E1E1E1E1E1E1E1E1E1E1E1E1E1E1E1E1E1E1E1E1E1E1E1E1E1E1E1E1E1E1BEE1
310
E1E1E1E1E1BEBEE1E1E1E1E1E1E1E1E1E1E1E1E1E1E10F0F0F0FBEE1E10F0F0F0FBEE1E1E1E1E1E1E1E2E2E1E1E2E2E1E1E1E1E10FE1E2E2E1E1E1E1E1E1E1E2E2E1E1E1E1E1E1E1E2E2E1E1E1E1E1E1E1E2E2E1E1E1E1E1E1E1E2E2E1E1E1E1E1E1E2E1E2E1E1E1E1E1E1E2BEE2BEBEE2BEBEBEBEBEBEBEBEBEE10F0F0F0F
310
BEE1E1E1E1E1E2E1E1E1E1E1E10F0FE1E1E10F0FE1E1BEE1E1E1E1E1E1E1E1E1E1E1E1E1E1E1E1E1E1E1E1E1E1E1E1E1E1E1E1E1E1E1E1E1E128BEE1E1E1E1E1E1E1E1E1E1E1E1E1E1E1E1E1E1E1E1E1E1E1E1E1E1E1E1E1E1E1E1E1E1E1E1E1E1E1E1E1E1E1E1E1E1E1E1E1E1E1E1E1E1E1E1E1E1E1E1E1E1E1E1E1E1E1E1
310
BEE1E1E1E1E1E1BEBEE1E1E1E1E1E1E1E1E1E1E1E1E1E1E1E10FE10FBEE1E1E1E1E10FBEE1E1E1E1E1E1E1E2E2E1E1E2E2E1E1E1E1E10FE1E2E2E1E1E1E1E1E1E1E2E2E1E1E1E1E1E1E1E2E2E1E1E1E1E1E1E1E2E2E1E1E1E1E1E1E1E2E2E1E1E1E1E1E1E2E2E2E1E1E1E1E1E1E2E2E2E1E1E2E1E1E1E1E1E1E1E1E1E1E1E1
310
E10FBEE1E1E1E1E1E2E1E1E1E1E1E10F0FE1E1E1E1E1E10FBEE1E1E1E1E1E1E1E1E1E1E1E1E1E1E1E1E1E1E1E1E1E1E1E1E1E1E1E1E1E1E1E1E1E128BEE1E1E1E1E1E1E1E1E1E1E1E1E1E1E1E1E1E1E1E1E1E1E1E1E1E1E1E1E1E1E1E1E1E1E1E1E1E1E1E1E1E1E1E1E1E1E1E1E1E1E1E1E1E1E1E1E1E1E1E1E1E1E1E1E1E1
310
E1E1BEE1E1E1E1E1E1BEBEE1E1E1E1E1E1E1E1E1E1E1E1E1E1E1E10F0FE1BEE1E1E1E10F0FBEE1E1E1E1E1E1E1E2E2E1E1E1E1E1E1E1E1E10FE1E1E1E1E1E1E1E1E1E1E1E1E1E1E1E1E1E1E1E1E1E1E1E1E1E1E1E1E1E1E1E1E1E1E1E1E1E1E1E1E1E1E1E1E1E1E1E1E1E1E1E1E1E1E1E1E1E1E1E2E1E1E1E1E1E1E1E1E1E1
310
0F0F0F0FBEE1E1E1E1E1E2E1E1E1E1E1E10F0FE1E1E10FE1E10FBEE1E1E1E1E1E1E1E1E1E1E1E1E1E1E1E1E1E1E1E1E1E1E1E1E1E1E1E1E1E1E1E1E1E128BEE1E1E1E1E1E1E1E1E1E1E1E1E1E1E1E1E1E1E1E1E1E1E1E1E1E1E1E1E1E1E1E1E1E1E1E1E1E1E1E1E1E1E1E1E1E1E1E1E1E1E1E1E1E1E1E1E1E1E1E1E1E1E1E1
310
E1E1E1E1BEE1E1E1E1E1E1BEBEE1E1E1E1E1E1E1E1E1E1E1E1E1E1E10F0FE10FBEE1E10F0F0F0FBEE1E1E1E1E1E1E1E2E2E1E1E1E1E1E1E1E1E10FE1E1E1E1E1E1E1E1E1E1E1E1E1E1E1E1E1E1E1E1E1E1E1E1E1E1E1E1E1E1E1E1E1E1E1E1E1E1E1E1E1E1E1E1E1E1E1E1E1E1E1E1E1E1E1E1E1E1E1E2E1E1E1E1E1E1E1E1
310
E1E10F0F0F0FBEE1E1E1E1E1E2E1E1E1E1E1E10F0FE1E1E10F0F0F0FBEE1E1E1E1E1E1E1E1E1E1E1E1E1E1E1E1E1E1E1E1E1E1E1E1E1E1E1E1E1E1E1E1E1E128BEE1E1E1E1E1E1E1E1E1E1E1E1E1E1E1E1E1E1E1E1E1E1E1E1E1E1E1E1E1E1E1E1E1E1E1E1E1E1E1E1E1E1E1E1E1E1E1E1E1E1E1E1E1E1E1E1E1E1E1E1E1E1
310
E1E1E1E1E1E1BEE1E1E1E1E1E1BEBEE1E1E1E1E1E1E1E1E1E1E1E1E1E1E1E10F0FE1BEE1E1E1E1E1E1BEE1E1E1E1E1E1E1E2E2E1E1E1E1E1E1E1E1E10FE1E1E1E1E1E1E1E1E1E1E1E1E1E1E1E1E1E1E1E1E1E1E1E1E1E1E1E1E1E1E1E1E1E1E1E1E1E1E1E1E1E1E1E1E1E1E1E1E1E1E1E1E1E1E1E1E1E1E1E2E1E1E1E1E1E1
310
E1E1E1E1E1E1E1E1BEE1E1E1E1E1E2E1E1E1E1E1E10F0FE1E1E1E1E1E1E1BEE1E1E1E1E1E1E1E1E1E1E1E1E1E1E1E1E1E1E1E1E1E1E1E1E1E1E1E1E1E1E1E1E1E128BEE1E1E1E1E1E1E1E1E1E1E1E1E1E1E1E1E1E1E1E1E1E1E1E1E1E1E1E1E1E1E1E1E1E1E1E1E1E1E1E1E1E1E1E1E1E1E1E1E1E1E1E1E1E1E1E1E1E1E1E1
310
E1E1E1E1E1E1E1E1BEE1E1E1E1E1E1BEBEE1E1E1E1E1E1E1E1E1E1E1E1E1E1E1E1E1E1E1BEE1E1E1E1E1E1BEE1E1E1E1E1E1E1E2E2E1E1E1E1E1E1E1E1E10FE1E1E1E1E1E1E1E1E1E1E1E1E1E1E1E1E1E1E1E1E1E1E1E1E1E1E1E1E1E1E1E1E1E1E1E1E1E1E1E1E1E1E1E1E1E1E1E1E1E1E1E1E1E1E1E1E1E1E1E2E1E1E1E1
310
E1E1E1E1E1E1E1E1E1E1BEE1E1E1E1E1E2E1E1E1E1E1E10F0FE1E1E1E1E1E1BEBEE1E1E1E1E1E1E1E1E1E1E1E1E1E1E1E1E1E1E1E1E1E1E1E1E1E1E1E1E1E1E1E1E1E128BEE1E1E1E1E1E1E1E1E1E1E1E1E1E1E1E1E1E1E1E1E1E1E1E1E1E1E1E1E1E1E1E1E1E1E1E1E1E1E1E1E1E1E1E1E1E1E1E1E1E1E1E1E1E1E1E1E1E1
310
E1E1E1E1E1E1E1E1E1E1BEE1E1E1E1E1E1BEBEE1E1E1E1E1E1E1E1E1E1E1E1E1E1E1E1E1E1E1BEE1E1E1E1E1E1BEE1E1E1E1E1E1E1E2E2E1E1E1E1E1E1E1E1E10FE1E1E1E1E1E1E1E1E1E1E1E1E1E1E1E1E1E1E1E1E1E1E1E1E1E1E1E1E1E1E1E1E1E1E1E1E1E1E1E1E1E1E1E1E1E1E1E1E1E1E1E1E1E1E1E1E1E1E1E2E1E1
310
E1E1E1E1E1E1E1E1E1E1E1E1BEE1E1E1E1E1E2E1E1E1E1E1E10F0FE1E1E1E1E1E1BEBEE1E1E1E1E1E1E1E1E1E1E1E1E1E1E1E1E1E1E1E1E1E1E1E1E1E1E1E1E1E1E1E1E1E128BEE1E1E1E1E1E1E1E1E1E1E1E1E1E1E1E1E1E1E1E1E1E1E1E1E1E1E1E1E1E1E1E1E1E1E1E1E1E1E1E1E1E1E1E1E1E1E1E1E1E1E1E1E1E1E1E1
310
E1E1E1E1E1E1E1E1E1E1E1E1BEE1E1E1E1E1E1BEBEE1E1E1E1E1E1E1E1E1E1E1E1E1E1E1E1E1E1E1BEE1E1E1E1E1E1BEE1E1E1E1E1E1E1E2E2E1E1E1E1E1E1E1E1E10FE1E1E1E1E1E1E1E1E1E1E1E1E1E1E1E1E1E1E1E1E1E1E1E1E1E1E1E1E1E1E1E1E1E1E1E1E1E1E1E1E1E1E1E1E1E1E1E1E1E1E1E1E1E1E1E1E1E1E1E2
310
E1E1E1E1E1E1E1E1E1E1E1E1E1E1BEE1E1E1E1E1E2E1E2E2E2E1E10F0FE1E1E1E1E1E1E1BEE1E1E1E1E1E1E1E1E1E1E1E1E1E1E1E1E1E1E1E1E1E1E1E1E1E1E1E1E1E1E1E1E1E128BEE1E1E1E1E1E1E1E1E1E1E1E1E1E1E1E1E1E1E1E1E1E1E1E1E1E1E1E1E1E1E1E1E1E1E1E1E1E1E1E1E1E1E1E1E1E1E1E1E1E1E1E1E1E1
310
E1E1E1E1E1E1E1E1E1E1E1E1E1E1BEE1E1E1E1E1E1BEBEE1E1E1E1E1E1E1E1E1E1E1E1E1E1E1E1E1E1E1BEE1E1E1E1E1E1BEE1E1E1E1E1E1E1E2E2E1E1E1E1E1E1E1E1E10FE1E1E1E1E1E1E1E1E1E1E1E1E1E1E1E1E1E1E1E1E1E1E1E1E1E1E1E1E1E1E1E1E1E1E1E1E1E1E1E1E1E1E1E1E1E1E1E1E1E1E1E1E1E1E1E1E1E1
310
E1E2E1E1E1E1E1E1E1E1E1E1E1E1E1E1BEE1E1E1E1E1E2E2E1BEBEBEBEBEBEBEBEBEBEBEBEBEBEBEBEE1E1E1E1E1E1E1E1E1E1E1E1E1E1E1E1E1E1E1E1E1E1E1E1E1E1E1E1E1E1E1E128BEE1E1E1E1E1E1E1E1E1E1E1E1E1E1E1E1E1E1E1E1E1E1E1E1E1E1E1E1E1E1E1E1E1E1E1E1E1E1E1E1E1E1E1E1E1E1E1E1E1E1E1E1
310
E1E1E1E1E1E1E1E1E1E1E1E1E1E1E1E1BEE1E1E1E1E1E1BEBEE1E1E1E1E1E1E1E1E1E1E1E1E1E1E1E1E1E1E1BEE1E1E1E1E1E1BEE1E1E1E1E1E1E1E2E2E1E1BEE1E1E1E1E1E10FE1BEE1E1E1E1E1E1E1E1E1E1E1E1E1E1E1E1E1E1E1E1E1E1E1E1E1E1E1E1E1E1E1E1E1E1E1E1E1E1E1E1E1E1E1E1E1E1E1E1E1E1E1E1E1BE
310
E1E1E1E2E1E1E1E1E1E1E1E1E1E1E1E1E1E1BEE1E1E1E1E1E2E1E2E2E2E1E10F0FE1E1E1E1E1E1E1E1E1E1E1E1E1E1E1E1E1E1E1E1E1E1E1E1E1E1E1E1E1E1E1E1E1E1E1E1E1E1E1E1E1E128BEE1E1E1E1E1E1E1E1E1E1E1E1E1E1E1E1E1E1E1E1E1E1E1E1E1E1E1E1E1E1E1E1E1E1E1E1E1E1E1E1E1E1E1E1E1E1E1E1E1E1
310
E1E1E1E1E1E1E1E1E1E1E1E1E1E1E1E1E1E1BEE1E1E1E1E1E1BEBEE1E1E1E1E1E1E1E1E1E1E1E1E1E1E1E1E1E1E1BEE1E1E1E1E1E1BEE1E1E1E1E1E1E1E2E2E1E1BEE1E1E1E1E1E10FE1BEE1E1E1E1E1E1E1E1E1E1E1E1E1E1E1E1E1E1E1E1E1E1E1E1E1E1E1E1E1E1E1E1E1E1E1E1E1E1E1E1E1E1E1E1E1E1E1E1E1E1E1E1
310
E1BEE1E1E1E2E1E1E1E1E1E1E1E1E1E1E1E1E1E1BEBEE1E1E1E1E2E1E1E1E1E1E10F0FE1E1E1E1E1E1E1E1E1E1E1E1E1E1E1E1E1E1E1E1E1E1E1E1E1E1E1E1E1E1E1E1E1E1E1E1E1E1E1E1E1E128BEE1E1E1E1E1E1E1E1E1E1E1E1E1E1E1E1E1E1E1E1E1E1E1E1E1E1E1E1E1E1E1E1E1E1E1E1E1E1E1E1E1E1E1E1E1E1E1E1
310
E1E1E1E1E1E1E1E1E1E1E1E1E1E1E1E1E1E1E1E1BEE1E1E1E1E1E1BE28E1E1E1E1E1E1E1E1E1E1E1E1E1E1E1E1E1E1E1BEE1E1E1E1E1E1BEE1E1E1E1E1E1E1E2E2E1E1BEE1E1E1E1E1E10FE1BEE1E1E1E1E1E1E1E1E1E1E1E1E1E1E1E1E1E1E1E1E1E1E1E1E1E1E1E1E1E1E1E1E1E1E1E1E1E1E1E1E1E1E1E1E1E1E1E1E1E1
310
E1E1E1BEE1E1E1E2E1E1E1E1E1E1E1E1E1E1E1E1E1E1BEBEE1E1E1E1E2E1E1E1E1E1E10F0FE1E1E1E1E1E1E1E1E1E1E1E1E1E1E1E1E1E1E1E1E1E1E1E1E1E1E1E1E1E1E1E1E1E1E1E1E1E1E1E1E1E128BEE1E1E1E1E1E1E1E1E1E1E1E1E1E1E1E1E1E1E1E1E1E1E1E1E1E1E1E1E1E1E1E1E1E1E1E1E1E1E1E1E1E1E1E1E1E1
310
E1E1E1E1E1E1E1E1E1E1E1E1E1E1E1E1E1E1E1E1E1E1BEE1E1E1E1E1E1E128E1E1E1E1E1E1E1E1E1E1E1E1E1E1E1E1E1E1E1BEE1E1E1E1E1E1BEE1E1E1E1E1E1E1E2E2E1E1E2E2E1E1E1E1E10FE1E2E2E1E1E1E1E1E1E1E2E2E1E1E1E1E1E1E1E2E2E1E1E1E1E1E1E1E2E2E1E1E1E1E1E1E1E2E2E1E1E1E1E1E1E2E2E2E1E1
310
E1E1E1E1E2E2E2E1E1E2E1E1E1E1E1E1E1E1E1E1E1E1E1E1BEE1E1E1E1E1E2E1E1E1E1E1E10F0FE1E1E1E1E1E1E1E1E1E1E1E1E1E1E1E1E1E1E1E1E1E1E1E1E1E1E1E1E1E1E1E1E1E1E1E1E1E1E1E1E1E128BEE1E1E1E1E1E1E1E1E1E1E1E1E1E1E1E1E1E1E1E1E1E1E1E1E1E1E1E1E1E1E1E1E1E1E1E1E1E1E1E1E1E1E1E1
310
E1E1E1E1E1E1E1E1E1E1E1E1E1E1E1E1E1E1E1E1E1E1E1E1BEE1E1E1E1E1E1E128E1E1E1E1E1E1E1E1E1E1E1E1E1E1E1E1E1E1E1BEE1E1E1E1E1E1BEE1E1E1E1E1E1E1E2E2E1E1E2E2E1E1E1E1E1E1E1E2E2E1E1E1E1E1E1E1E2E2E1E1E1E1E1E1E1E2E2E1E1E1E1E1E1E1E2E2E1E1E1E1E1E1E1E2E2E1E1E1E1E1E1E2E1E2
310
E1E1E1E1E1E1E2BEE2BEBEE2BEBEBEBEBEBEBEBEBEBEBEBEBEBEBEBEBEE1E1E1E2E1E1E1E1E1E1E1E2E1E1E1E1E1E1E1E1E1E1E1E1E1E1E1E1E1E1E1E1E1E1E1E1E1E1E1E1E1E1E1E1E1E1E1E1E1E1E1E1E1E128BEE1E1E1E1E1E1E1E1E1E1E1E1E1E1E1E1E1E1E1E1E1E1E1E1E1E1E1E1E1E1E1E1E1E1E1E1E1E1E1E1E1E1
310
E1E1E1E1E1E1E1E1E1E1E1E1E1E1E1E1E1E1E1E1E1E1E1E1E1E1BEE1E1E1E1E1E1E128E1E1E1E1E1E1E1E1E1E1E1E1E1E1E1E1E1E1E1BEE1E1E1E1E1E1BEE1E1E1E1E1E1E1E2E2E1E1E2E2E1E1E1E1E10FE1E2E2E1E1E1E1E1E1E1E2E2E1E1E1E1E1E1E1E2E2E1E1E1E1E1E1E1E2E2E1E1E1E1E1E1E1E2E2E1E1E1E1E1E1E2
310
E2E2E1E1E1E1E1E1E2E2E2E1E1E2E1E1E1E1E1E1E1E1E1E1E1E1E1E1E1E1E1E1E1E1E2E1E1E1E1E1E10F0FE1E1E1E1E1E1E1E1E1E1E1E1E1E1E1E1E1E1E1E1E1E1E1E1E1E1E1E1E1E1E1E1E1E1E1E1E1E1E1E1E1E128BEE1E1E1E1E1E1E1E1E1E1E1E1E1E1E1E1E1E1E1E1E1E1E1E1E1E1E1E1E1E1E1E1E1E1E1E1E1E1E1E1
310
E1E1E1E1E1E1E1E1E1E1E1E1E1E1E1E1E1E1E1E1E1E1E1E1E1E1E1E1BEE1E1E1E1E1E1E128E1E1E1E1E1E1E1E1E1E1E1E1E1E1E1E1E1E1E1BEE1E1E1E1E1E1BEBEE1E1E1E1E1E1E2E2E1E2BEE1E2E2E1E1E20FE2BEE1E2E2E1E1E2E1E2E1E1E2E2E1E1E2E1E2E1E1E2E2E1E1E2E1E2E1E1E2E2E1E1E2E1E2E1E1E2E2E1E1E2
310
E1E2E1E1E2E2E1E1E2E1E2BEE1E2E2E2E1E1E1E1E1E1E1E1E1E1E1E1E1E1E1E1E1E1E1E1E2E1E1E1E1E1E10F0FE1E1E1E1E1E1E1E1E1E1E1E1E1E1E1E1E1E1E1E1E1E1E1E1E1E1E1E1E1E1E1E1E1E1E1E1E1E1E1E1E1E128BEE1E1E1E1E1E1E1E1E1E1E1E1E1E1E1E1E1E1E1E1E1E1E1E1E1E1E1E1E1E1E1E1E1E1E1E1E1E1
310
E1E1E1E1E1E1E1E1E1E1E1E1E1E1E1E1E1E1E1E1E1E1E1E1E1E1E1E1E1E1BEE1E1E1E1E1E1E128E1E1E1E1E1E1E1E1E1E1E1E1E1E1E1E1E1E1BEBEE1E1E1E1E1E1BEBEE1E1E1E1E1E1E2E2E1E2BEE1E2E2E1BEE20FE2BEE1E2E2E1BEE2E1E2E1E1E2E2E1E1E2E1E2E1E1E2E2E1E1E2E1E2E1E1E2E2E1E1E2E1E2E1E1E2E2E1
310
E1E2E1E2E1E1E2E2E1E1E2E1E2BEE1E2E2E2E1E1E1E1E1E1E1E1E1E1E1E1E1E1E1E1E1E1E1E1E2E1E1E1E1E1E10F0FE1E1E1E1E1E1E1E1E1E1E1E1E1E1E1E1E1E1E1E1E1E1E1E1E1E1E1E1E1E1E1E1E1E1E1E1E1E1E1E1E1E128BEE1E1E1E1E1E1E1E1E1E1E1E1E1E1E1E1E1E1E1E1E1E1E1E1E1E1E1E1E1E1E1E1E1E1E1E1
310
E1E1E1E1E1E1E1E1E1E1E1E1E1E1E1E1E1E1E1E1E1E1E1E1E1E1E1E1E1E1E1E1BEE1E1E1E1E1E1E128E1E1E1E1E1E1E1E1E1E1E1E1E1E1E1E1E1E1BEBEE1E1E1E1E1E1BEE1E1E1E1E1E1E1E2E2E2E2E2E2E2E2E2E2E20FE2E2E2E2E2E2E2E2E2E2E2E2E2E2E2E2E2E2E2E2E2E2E2E2E2E2E2E2E2E2E2E2E2E2E2E2E2E2E2E2
310
E2E2E2E2E2E2E2E2E2E2E2E2E2E2E2E2E2E2E2E2E1E1E1E1E1E1E1E1E1E1E1E1E1E1E1E1E1E1E1E1E2E1E1E1E1E1E10F0FE1E1E1E1E1E1E1E1E1E1E1E1E1E1E1E1E1E1E1E1E1E1E1E1E1E1E1E1E1E1E1E1E1E1E1E1E1E1E1E1E1E128BEE1E1E1E1E1E1E1E1E1E1E1E1E1E1E1E1E1E1E1E1E1E1E1E1E1E1E1E1E1E1E1E1E1E1
310
E1E1E1E1E1E1E1E1E1E1E1E1E1E1E1E1E1E1E1E1E1E1E1E1E1E1E1E1E1E1E1E1E1E1BEE1E1E1E1E1E1E128E1E1E1E1E1E1E1E1E1E1E1E1E1E1E1E1E1E1E1BEE1E1E1E1E1BEBEBEBEBEBEBEBEBEBEBEBEBEE2E2E1E1E2E2E20FE1E2E2E1E1E2E2E2E1E1E2E2E1E1E2E2E2E1E1E2E2E1E1E2E2E2E1E1E2E2E1E1E2E2E2E1E1E2
310
E2E1E1E2E2E2E1E1E2E2E1E1E2E2E2E1E1E2E2E1E1E2E1E1E1E1E1E1E1E1E1E1E1E1E1E1E1E1E1E1E1E1E2E1E1E1E1E1E10F0FE1E1E1E1E1E1E1E1E1E1E1E1E1E1E1E1E1E1E1E1E1E1E1E1E1E1E1E1E1E1E1E1E1E1E1E1E1E1E1E1E1E128BEE1E1E1E1E1E1E1E1E1E1E1E1E1E1E1E1E1E1E1E1E1E1E1E1E1E1E1E1E1E1E1E1
310
E1E1E1E1E1E1E1E1E1E1E1E1E1E1E1E1E1E1E1E1E1E1E1E1E1E1E1E1E1E1E1E1E1E1E1E1BEE1E1E1E1E1E1E128E1E1E1E1E1E1E1E1E1E1E1E1E1E1E1E1E1BEBEBEBEBEBEBEBEBEBEBEBEBEBEBEBEBEBEE2E2E2E2E2E2E2E2E2E20FE2E2E2E2E2E2E2E2E2E2E2E2E2E2E2E2E2E2E2E2E2E2E2E2E2E2E2E2E2E2E2E2E2E2E2E2
310
E2E2E2E2E2E2E2E2E2E2E2E2E2E2E2E2E2E2E2E2E2E2E2E2E1E1E1E1E1E1E1E1E1E1E1E1E1E1E1E1E1E1E1E1BEE2E2E2E2E2E20FBEE1E1E1E1E1E1E1E1E1E1E1E1E1E1E1E1E1E1E1E1E1E1E1E1E1E1E1E1E1E1E1E1E1E1E1E1E1E1E1E1E1E128BEE1E1E1E1E1E1E1E1E1E1E1E1E1E1E1E1E1E1E1E1E1E1E1E1E1E1E1E1E1E1
310
E1E1E1E1E1E1E1E1E1E1E1E1E1E1E1E1E1E1E1E1E1E1E1E1E1E1E1E1E1E1E1E1E1E1E1E1E1E1BEE1E1E1E1E1E1E128E1E1E1E1E1E1E1E1E1E1E1E1E1E1E1E1E1E1E1E1E1E1E1E1E1E1E1E1E1E1E1E1E1E1BEBEE1E1BEE1E1E1E1BEE1E1E1BEE1E1E1E1BEE1E1E1E1E1E1E1E1E1E1E1E1E1E1E1E1E1E1E1E1E1E1E1E1E1E1E1
310
E1E1E1E1E1E1E1E1E1E1E1E1E1E1E1E1E1E1E1E1E1BEE1E1E1BEE1E1E1E1E1E1E1E1E1E1E1E1E1E1E1E1E1E1E1E1BEE1E1E1E1E1E1E1BEE1E1E1E1E1E1E1E1E1E1E1E1E1E1E1E1E1E1E1E1E1E1E1E1E1E1E1E1E1E1E1E1E1E1E1E1E1E1E1E1E1E128BEE1E1E1E1E1E1E1E1E1E1E1E1E1E1E1E1E1E1E1E1E1E1E1E1E1E1E1E1
310
E1E1E1E1E1E1E1E1E1E1E1E1E1E1E1E1E1E1E1E1E1E1E1E1E1E1E1E1E1E1E1E1E1E1E1E1E1E1E1E1BEE1E1E1E1E1E1E128E1E1E1E1E1E1E1E1E1E1E1E1E1E1E1E1E1E1E1E1E1E1E1E1E1E1E1E1E1E1E1E1E1E1BEBEE1E1BEE1E1E1E1BEE1E1E1BEE1E1E1E1BEE1E1E1E1E1E1E1E1E1E1E1E1E1E1E1E1E1E1E1E1E1E1E1E1E1
310
E1E1E1E1E1E1E1E1E1E1E1E1E1E1E1E1E1E1E1E1E1E1E1BEE1E1E1BEE1E1E1E1E1E1E1E1E1E1E1E1E1E1E1E1E1E1E1E1BEE1E1E1E1E1E1E1BEE1E1E1E1E1E1E1E1E1E1E1E1E1E1E1E1E1E1E1E1E1E1E1E1E1E1E1E1E1E1E1E1E1E1E1E1E1E1E1E1E1E128BEE1E1E1E1E1E1E1E1E1E1E1E1E1E1E1E1E1E1E1E1E1E1E1E1E1E1
310
E1E1E1E1E1E1E1E1E1E1E1E1E1E1E1E1E1E1E1E1E1E1E1E1E1E1E1E1E1E1E1E1E1E1E1E1E1E1E1E1E1E1BEE1E1E1E1E1E1E128E1E1E1E1E1E1E1E1E1E1E1E1E1E1E1E1E1E1E1E1E1E1E1E1E1E1E1E1E1E1E1E1E1E1BEBEE1E1BEE1E1E1E1E1E1E1E1E1E1E1E1E1E1E1E1E1E1E1E1E1E1E1E1E1E1E1E1E1E1E1E1E1E1E1E1E1
310
E1E1E1E1E1E1E1E1E1E1E1E1E1E1E1E1E1E1E1E1E1E1E1E1E1BEE1E1E1BEE1E1E1E1E1E1E1E1E1E1E1E1E1E1E1E1E1E1E1E1BEE1E1E1E1E1E1E1BEE1E1E1E1E1E1E1E1E1E1E1E1E1E1E1E1E1E1E1E1E1E1E1E1E1E1E1E1E1E1E1E1E1E1E1E1E1E1E1E1E1E128BEE1E1E1E1E1E1E1E1E1E1E1E1E1E1E1E1E1E1E1E1E1E1E1E1
310
E1E1E1E1E1E1E1E1E1E1E1E1E1E1E1E1E1E1E1E1E1E1E1E1E1E1E1E1E1E1E1E1E1E1E1E1E1E1E1E1E1E1E1E1BEE1E1E1E1E1E1E128E1E1E1E1E1E1E1E1E1E1E1E1E1E1E1E1E1E1E1E1E1E1E1E1E1E1E1E1E1E1E1E1E1E1BEBEE1E1BEE1E1E1E1E1E1E1E1E1E1E1E1E1E1E1E1E1E1E1E1E1E1E1E1E1E1E1E1E1E1E1E1E1E1E1
310
E1E1E1E1E1E1E1E1E1E1E1E1E1E1E1E1E1E1E1E1E1E1E1E1E1E1E1BEE1E1E1BEE1E1E1E1E1E1E1E1E1E1E1E1E1E1E1E1E1E1E1E1BEE1E1E1E1E1E1E1BEE1E1E1E1E1E1E1E1E1E1E1E1E1E1E1E1E1E1E1E1E1E1E1E1E1E1E1E1E1E1E1E1E1E1E1E1E1E1E1E1E1E128BEE1E1E1E1E1E1E1E1E1E1E1E1E1E1E1E1E1E1E1E1E1E1
310
E1E1E1E1E1E1E1E1E1E1E1E1E1E1E1E1E1E1E1E1E1E1E1E1E1E1E1E1E1E1E1E1E1E1E1E1E1E1E1E1E1E1E1E1E1E1BEE1E1E1E1E1E1E128E1E1E1E1E1E1E1E1E1E1E1E1E1E1E1E1E1E1E1E1E1E1E1E1E1E1E1E1E1E1E1E1E1E1BEBEE1E1BEE1E1E1E1E1E1E1E1E1E1E1E1E1E1E1E1E1E1E1E1E1E1E1E1E1E1E1E1E1E1E1E1E1
310
E1E1E1E1E1E1E1E1E1E1E1E1E1E1E1E1E1E1E1E1E1E1E1E1E1E1E1E1E1BEE1E1E1BEE1E1E1E1E1E1E1E1E1E1E1E1E1E1E1E1E1E1E1E1BEE1E1E1E1E1E1E1BEE1E1E1E1E1E1E1E1E1E1E1E1E1E1E1E1E1E1E1E1E1E1E1E1E1E1E1E1E1E1E1E1E1E1E1E1E1E1E1E1E1E128BEE1E1E1E1E1E1E1E1E1E1E1E1E1E1E1E1E1E1E1E1
310
E1E1E1E1E1E1E1E1E1E1E1E1E1E1E1E1E1E1E1E1E1E1E1E1E1E1E1E1E1E1E1E1E1E1E1E1E1E1E1E1E1E1E1E1E1E1E1E1BEE1E1E1E1E1E1E128E1E1E1E1E1E1E1E1E1E1E1E1E1E1E1E1E1E1E1E1E1E1E1E1E1E1E1E1E1E1E1E1E1E1BEBEE1E1BEE1E1E1E1E1E1E1E1E1E1E1E1E1E1E1E1E1E1E1E1E1E1E1E1E1E1E1E1E1E1E1
310
E1E1E1E1E1E1E1E1E1E1E1E1E1E1E1E1E1E1E1E1E1E1E1E1E1E1E1E1E1E1E1BEE1E1E1BEE1E1E1E1E1E1E1E1E1E1E1E1E1E1E1E1E1E1E1E1BEE1E1E1E1E1E1E1BEE1E1E1E1E1E1E1E1E1E1E1E1E1E1E1E1E1E1E1E1E1E1E1E1E1E1E1E1E1E1E1E1E1E1E1E1E1E1E1E1E1E128BEE1E1E1E1E1E1E1E1E1E1E1E1E1E1E1E1E1E1
310
E1E1E1E1E1E1E1E1E1E1E1E1E1E1E1E1E1E1E1E1E1E1E1E1E1E1E1E1E1E1E1E1E1E1E1E1E1E1E1E1E1E1E1E1E1E1E1E1E1E1BEE1E1E1E1E1E1E128E1E1E1E1E1E1E1E1E1E1E1E1E1E1E1E1E1E1E1E1E1E1E1E1E1E1E1E1E1E1E1E1BEBEBEBEE1E1BEE1E1BEBEE1E1E1E1E1E1E1E1E1E1E1E1E1E1E1E1E1E1E1E1E1E1E1E1E1
310
E1E1E1E1E1E1E1E1E1E1E1E1E1E1E1E1E1E1E1E1E1E1E1E1E1E1E1E1E1E1BEBEE1BEE1E1E1BEE1BEBEE1E1E1E1E1E1E1E1E1E1E1E1E1E1E1E1E1BEE1BEBEE1BEBEE1BEE1E1E1E1E1E1E1E1E1E1E1E1E1E1E1E1E1E1E1E1E1E1E1E1E1E1E1E1E1E1E1E1E1E1E1E1E1E1E1E1E1E128BEE1E1E1E1E1E1E1E1E1E1E1E1E1E1E1E1
310
E1E1E1E1E1E1E1E1E1E1E1E1E1E1E1E1E1E1E1E1E1E1E1E1E1E1E1E1E1E1E1E1E1E1E1E1E1E1E1E1E1E1E1E1E1E1E1E1E1E1E1E1BEE1E1E1E1E1E1E128E1E1E1E1E1E1E1E1E1E1E1E1E1E1E1E1E1E1E1E1E1E1E1E1BEBEBEBEBEBEBEBEBEBEBEBEBEBEBEBEBEBEBEBEBEBEBEBEBEBEBEBEBEBEBEBEBEBEBEBEBEBEBEBEBEBE
310
BEBEBEBEBEBEBEBEBEBEBEBEBEBEBEBEBEBEBEBEBEBEBEBEBEBEBEBEBEBEBEBEBEBEBEBEBEBEBEBEBEBEBEBEBEBEBEBEBEBEBEE1E1E1E1E1E1E1E1E1BEBEBEBEBEBEBEBEBEE1E1E1E1E1E1E1E1E1E1E1E1E1E1E1E1E1E1E1E1E1E1E1E1E1E1E1E1E1E1E1E1E1E1E1E1E1E1E1E1E1E128BEE1E1E1E1E1E1E1E1E1E1E1E1E1E1
310
E1E1E1E1E1E1E1E1E1E1E1E1E1E1E1E1E1E1E1E1E1E1E1E1E1E1E1E1E1E1E1E1E1E1E1E1E1E1E1E1E1E1E1E1E1E1E1E1E1E1E1E1E1E1BEE1E1E1E1E1E1E128E1E1E1E1E1E1E1E1E1E1E1E1E1E1E1E1E1E1E1E1E1E1E1E1E1E10F0F0F0F0F0FE1E1E1BEE1E1BEE1E1E1E1E1E1E1E1E1E1E1E1E1E1E1E1E1E1E1E1E1E1E1E1E1
310
E10F0FE10FE10FE1E10F0F0FE1E1E1E1E1E1E1E1E1E1E1E1E1E1E1E1E1E1E1E1E1E1E1E1E1BEE1E1E1BEE1E1E1E1E10F0F0F0F0F0FE1E1E1E1E1E1E1E1E1BE0F0FE10F0FE10FBEE1E1E1E1E1E1E1E1E1E1E1E1E1E1E1E1E1E1E1E1E1E1E1E1E1E1E1E1E1E1E1E1E1E1E1E1E1E1E1E1E1E128BEE1E1E1E1E1E1E1E1E1E1E1E1
310
E1E1E1E1E1E1E1E1E1E1E1E1E1E1E1E1E1E1E1E1E1E1E1E1E1E1E1E1E1E1E1E1E1E1E1E1E1E1E1E1E1E1E1E1E1E1E1E1E1E1E1E1E1E1E1E1BEE1E1E1E1E1E1E128E1E1E1E1E1E1E1E1E1E1E1E1E1E1E1E1E1E1E1E1E1E1E1E1E1E10FE10FE1E10FE1E1E1BEE1E1BEE1E1E1E1E1E1E1E1E1E1E1E1E1E1E1E1E1E1E1E1E1E1E1
310
E1E1E10F0FE1E10FE1E1E10FE10FE1E1E1E1E1E1E1E1E1E1E1E1E1E1E1E1E1E1E1E1E1E1E1E1E1BEE1E1E1BEE1E1E1E1E10FE10FE1E10FE1E1E1E1E1E1E1E1E1BEE10FE10FE10F0FBEE1E1E1E1E1E1E1E1E1E1E1E1E1E1E1E1E1E1E1E1E1E1E1E1E1E1E1E1E1E1E1E1E1E1E1E1E1E1E1E1E1E128BEE1E1E1E1E1E1E1E1E1E1
310
E1E1E1E1E1E1E1E1E1E1E1E1E1E1E1E1E1E1E1E1E1E1E1E1E1E1E1E1E1E1E1E1E1E1E1E1E1E1E1E1E1E1E1E1E1E1E1E1E1E1E1E1E1E1E1E1E1E1BEE1E1E1E1E1E1E128E1E1E1E1E1E1E1E1E1E1E1E1E1E1E1E1E1E1E1E1E1E1E1E1E10F0F0F0FE10F0FE1E1BEBEE1E1E1E1E1E1E1E1E1E1E1E1E1E1E1E1E1E1E1E1E1E1E1E1
310
E1E1E1E1E10F0FE10FE10FE10F0F0FE1E1E1E1E1E1E1E1E1E1E1E1E1E1E1E1E1E1E1E1E1E1E1E1E1E1E1E1E1E1BEE1E1E1E10F0F0F0FE10FE1E1E1E1E1E1E1E1E1E1E10F0F0F0FE10F0F0FE1E1E1E1E1E1E1E1E1E1E1E1E1E1E1E1E1E1E1E1E1E1E1E1E1E1E1E1E1E1E1E1E1E1E1E1E1E1E1E1E1E128BEE1E1E1E1E1E1E1E1
310
E1E1E1E1E1E1E1E1E1E1E1E1E1E1E1E1E1E1E1E1E1E1E1E1E1E1E1E1E1E1E1E1E1E1E1E1E1E1E1E1E1E1E1E1E1E1E1E1E1E1E1E1E1E1E1E1E1E1E1E1BEE1E1E1E1E1E1E128E1E1E1E1E1E1E1E1E1E1E1E1E1E1E1E1E1E1E1E1E1E1E1E1E1E10F0F0FE10F0FE1E1BEBEE1E1E1E1E1E1E1E1E1E1E1E1E1E1E1E1E1E1E1E1E1E1
310
E1E1E1E1E1E1E1E1E1E1E1E1E1E1E10F0F0FE1E1E1E1E1E1E1E1E1E1E1E1E1E1E1E1E1E1E1E1E1E1E1E1E1E1E1E1E1BEE1E1E1E1E10F0F0FE10F0FE1E1E1E1E1E1E1E1E1E10F0F0F0FE1E10FE1E1E1E1E1E1E1E1E1E1E1E1E1E1E1E1E1E1E1E1E1E1E1E1E1E1E1E1E1E1E1E1E1E1E1E1E1E1E1E1E1E1E128BEE1E1E1E1E1E1
310
E1E1E1E1E1E1E1E1E1E1E1E1E1E1E1E1E1E1E1E1E1E1E1E1E1E1E1E1E1E1E1E1E1E1E1E1E1E1E1E1E1E1E1E1E1E1E1E1E1E1E1E1E1E1E1E1E1E1E1E1E1E1BEE1E1E1E1E1E1E128E1E1E1E1E1E1E1E1E1E1E1E1E1E1E1E1E1E1E1E1E1E1E1E1E1E1E1E1E1E1E1E1E1E1BEBEE1E1E1E1E1E1E1E1E1E1E1E1E1E1E1E1E1E1E1E1
310
E1E1E1E1E1E1E1E1E1E1E1E1E1E1E1E1E1E1E1E1E1E1E1E1E1E1E1E1E1E1E1E1E1E1E1E1E1E1E1E1E1E1E1E1E1E1E1E1E1BEE1E1E1E1E1E1E1E1E1E1E1E1E1E1E1E1E1E1E1E1E1E1E1E1E1E1E1E1E1E1E1E1E1E1E1E1E1E1E1E1E1E1E1E1E1E1E1E1E1E1E1E1E1E1E1E1E1E1E1E1E1E1E1E1E1E1E1E1E1E1E128BEE1E1E1E1
310
E1E1E1E1E1E1E1E1E1E1E1E1E1E1E1E1E1E1E1E1E1E1E1E1E1E1E1E1E1E1E1E1E1E1E1E1E1E1E1E1E1E1E1E1E1E1E1E1E1E1E1E1E1E1E1E1E1E1E1E1E1E1E1E1BEE1E1E1E1E1E1E128E1E1E1E1E1E1E1E1E1E1E1E1E1E1E1E1E1E1E1E1E1E1E1E1E1E1E1E1E1E1E1E1E1E1BEBEE1E1E1E1E1E1E1E1E1E1E1E1E1E1E1E1E1E1
310
E1E1E1E1E1E1E1E1E1E1E1E1E1E1E1E1E1E1E1E1E1E1E1E1E1E1E1E1E1E1E1E1E1E1E1E1E1E1E1E1E1E1E1E1E1E1E1E1E1E1E1BEE1E1E1E1E1E1E1E1E1E1E1E1E1E1E1E1E1E1E1E1E1E1E1E1E1E1E1E1E1E1E1E1E1E1E1E1E1E1E1E1E1E1E1E1E1E1E1E1E1E1E1E1E1E1E1E1E1E1E1E1E1E1E1E1E1E1E1E1E1E1E128BEE1E1
310
E1E1E1E1E1E1E1E1E1E1E1E1E1E1E1E1E1E1E1E1E1E1E1E1E1E1E1E1E1E1E1E1E1E1E1E1E1E1E1E1E1E1E1E1E1E1E1E1E1E1E1E1E1E1E1E1E1E1E1E1E1E1E1E1E1E1BEE1E1E1E1E1E1E128E1E1E1E1E1E1E1E1E1E1E1E1E1E1E1E1E1E1E1E1E1E1E1E1E1E1E1E1BEBEBEBEBEBEBEBEBEBEBEBEBEBEBEBEBEBEBEBEBEBEBEBE
310
BEBEBEBEBEBEBEBEBEBEBEBEBEBEBEBEBEBEBEBEBEBEBEBEBEBEBEBEBEBEBEBEBEBEBEBEBEBEBEBEBEBEBEBEBEBEBEBEBEBEBEBEBEBEE1E1E1E1E1E1E1E1E1E1E1E1E1E1E1E1E1E1E1E1E1E1E1E1E1E1E1E1E1E1E1E1E1E1E1E1E1E1E1E1E1E1E1E1E1E1E1E1E1E1E1E1E1E1E1E1E1E1E1E1E1E1E1E1E1E1E1E1E1E1E128BE
310
E1E1E1E1E1E1E1E1E1E1E1E1E1E1E1E1E1E1E1E1E1E1E1E1E1E1E1E1E1E1E1E1E1E1E1E1E1E1E1E1E1E1E1E1E1E1E1E1E1E1E1E1E1E1E1E1E1E1E1E1E1E1E1E1E1E1E1E1BEE1E1E1E1E1E1E128E1E1E1E1E1E1E1E1E1E1E1E1E1E1E1E1E1E1E1E1E1E1E1E1E1E1E1E1E10F0FBEBEE1BEBEE1BEBEE1E1E1E1E1E1E1E1E1E1E1
310
E1E1E1E1E1E1E1E1E1E1E1E1E1E1E1E1E1E1E1E10FE1E1E1E1E1E1E1E1E1E1E1E1E1E1E1E1E1E1E1E1E1E1E1E1E1E1E1E1E1E1E1BEBEE1BEE1E1E1E1E1E1E1E1E1E1E1E1E1E1E1E1E1E1E1E1E1E1E1E1E1E1E1E1E1E1E1E1E1E1E1E1E1E1E1E1E1E1E1E1E1E1E1E1E1E1E1E1E1E1E1E1E1E1E1E1E1E1E1E1E1E1E1E1E1E1E1
310
28BEE1E1E1E1E1E1E1E1E1E1E1E1E1E1E1E1E1E1E1E1E1E1E1E1E1E1E1E1E1E1E1E1E1E1E1E1E1E1E1E1E1E1E1E1E1E1E1E1E1E1E1E1E1E1E1E1E1E1E1E1E1E1E1E1E1E1E1E1BEE1E1E1E1E1E1E128E1E1E1E1E1E1E1E1E1E1E1E1E1E1E1E1E1E1E1E1E1E1E1E1E1E1E1E1E1E10FE1E1E1BEBEE1E1E1E1E1E1E1E1E1E1E1E1
310
E1E1E1E1E1E1E1E1E1E1E1E1E1E1E1E1E1E1E1E1E1E10FE1E1E1E1E1E1E1E1E1E1E1E1E1E1E1E1E1E1E1E1E1E1E1E1E1E1E1E1E1E1E1E1E1E1BEE1E1E1E1E1E1E1E1E1E1E1E1E1E1E1E1E1E1E1E1E1E1E1E1E1E1E1E1E1E1E1E1E1E1E1E1E1E1E1E1E1E1E1E1E1E1E1E1E1E1E1E1E1E1E1E1E1E1E1E1E1E1E1E1E1E1E1E1E1
310
E1E128BEE1E1E1E1E1E1E1E1E1E1E1E1E1E1E1E1E1E1E1E1E1E1E1E1E1E1E1E1E1E1E1E1E1E1E1E1E1E1E1E1E1E1E1E1E1E1E1E1E1E1E1E1E1E1E1E1E1E1E1E1E1E1E1E1E1E1E1E1BEE1E1E1E1E1E1E128E1E1E1E1E1E1E1E1E1E1E1E1E1E1E1E1E1E1E1E1E1E1E1E1E1E1E1E1E10F0FE1E1E1E1E1E1E1E1E1E1E1E1E1E1E1
310
E1E1E1E1E1E1E1E1E1E1E1E1E1E1E1E1E1E1E1E1E1E1E1E10FE1E1E1E1E1E1E1E1E1E1E1E1E1E1E1E1E1E1E1E1E1E1E1E1E1E1E1E1E1E1E1E1E1E1E1E1E1E1E1E1E1E1E1E1E1E1E1E1E1E1E1E1E1E1E1E1E1E1E1E1E1E1E1E1E1E1E1E1E1E1E1E1E1E1E1E1E1E1E1E1E1E1E1E1E1E1E1E1E1E1E1E1E1E1E1E1E1E1E1E1E1E1
310
E1E1E1E128BEE1E1E1E1E1E1E1E1E1E1E1E1E1E1E1E1E1E1E1E1E1E1E1E1E1E1E1E1E1E1E1E1E1E1E1E1E1E1E1E1E1E1E1E1E1E1E1E1E1E1E1E1E1E1E1E1E1E1E1E1E1E1E1E1E1E1E1E1BEE1E1E1E1E1E1E128E1E1E1E1E1E1E1E1E1E1E1E1E1E1E1E1E1E1E1E1E1E1E1E1E1E1E1E1E10F0FE1E1E1E1E1E1E1E1E1E1E1E1E1
310
E1E1E1E1E1E1E1E1E1E1E1E1E1E1E1E1E1E1E1E1E1E1E1E1E10F0F0FE1E1E1E1E1E1E1E1E1E1E1E1E1E1E1E1E1E1E1E1E1E1E1E1E1E1E1E1E1E1E1E1E1E1E1E1E1E1E1E1E1E1E1E1E1E1E1E1E1E1E1E1E1E1E1E1E1E1E1E1E1E1E1E1E1E1E1E1E1E1E1E1E1E1E1E1E1E1E1E1E1E1E1E1E1E1E1E1E1E1E1E1E1E1E1E1E1E1E1
310
E1E1E1E1E1E128BEE1E1E1E1E1E1E1E1E1E1E1E1E1E1E1E1E1E1E1E1E1E1E1E1E1E1E1E1E1E1E1E1E1E1E1E1E1E1E1E1E1E1E1E1E1E1E1E1E1E1E1E1E1E1E1E1E1E1E1E1E1E1E1E1E1E1E1E1BEE1E1E1E1E1E1E128E1E1E1E1E1E1E1E1E1E1E1E1E1E1E1E1E1E1E1E1E1E1E1E1E1E1E1E1E1E1E1E1E1E1E1E1E1E1E1E1E1E1
310
E1E1E1E1E1E1E1E1E1E1E1E1E1E1E1E1E1E1E1E1E1E1E1E1E1E1E1E1E1E1E1E1E1E1E1E1E1E1E1E1E1E1E1E1E1E1E1E1E1E1E1E1E1E1E1E1E1E1E1E1E1E1E1E1E1E1E1E1E1E1E1E1E1E1E1E1E1E1E1E1E1E1E1E1E1E1E1E1E1E1E1E1E1E1E1E1E1E1E1E1E1E1E1E1E1E1E1E1E1E1E1E1E1E1E1E1E1E1E1E1E1E1E1E1E1E1E1
310
E1E1E1E1E1E1E1E128BEE1E1E1E1E1E1E1E1E1E1E1E1E1E1E1E1E1E1E1E1E1E1E1E1E1E1E1E1E1E1E1E1E1E1E1E1E1E1E1E1E1E1E1E1E1E1E1E1E1E1E1E1E1E1E1E1E1E1E1E1E1E1E1E1E1E1E1E1BEE1E1E1E1E1E1E128E1E1E1E1E1E1E1E1E1E1E1E1E1E1E1E1E1E1E1E1E1E1E1E1E1E1E1E1E1E1E1E1E1E1E1E1E1E1E1E1
310
E1E1E1E1E1E1E1E1E1E1E1E1E1E1E1E1E1E1E1E1E1E1E1E1E1E1E1E1E1E1E1E1E1E1E1E1E1E1E1E1E1E1E1E1E1E1E1E1E1E1E1E1E1E1E1E1E1E1E1E1E1E1E1E1E1E1E1E1E1E1E1E1E1E1E1E1E1E1E1E1E1E1E1E1E1E1E1E1E1E1E1E1E1E1E1E1E1E1E1E1E1E1E1E1E1E1E1E1E1E1E1E1E1E1E1E1E1E1E1E1E1E1E1E1E1E1E1
310
E1E1E1E1E1E1E1E1E1E128BEE1E1E1E1E1E1E1E1E1E1E1E1E1E1E1E1E1E1E1E1E1E1E1E1E1E1E1E1E1E1E1E1E1E1E1E1E1E1E1E1E1E1E1E1E1E1E1E1E1E1E1E1E1E1E1E1E1E1E1E1E1E1E1E1E1E1E1E1BEE1E1E1E1E1E1E128E1E1E1E1E1E1E1E1E1E1E1E1E1E1E1E1E1E1E1E1E1E1E1E1E1E1E1E1E1E1E1E1E1E1E1E1E1E1
310
E1E1E1E1E1E1E1E1E1E1E1E1E1E1E1E1E1E1E1E1E1E1E1E1E1E1E1E1E1E1E1E1E1E1E1E1E1E1E1E1E1E1E1E1E1E1E1E1E1E1E1E1E1E1E1E1E1E1E1E1E1E1E1E1E1E1E1E1E1E1E1E1E1E1E1E1E1E1E1E1E1E1E1E1E1E1E1E1E1E1E1E1E1E1E1E1E1E1E1E1E1E1E1E1E1E1E1E1E1E1E1E1E1E1E1E1E1E1E1E1E1E1E1E1E1E1E1
310
E1E1E1E1E1E1E1E1E1E1E1E128BEE1E1E1E1E1E1E1E1E1E1E1E1E1E1E1E1E1E1E1E1E1E1E1E1E1E1E1E1E1E1E1E1E1E1E1E1E1E1E1E1E1E1E1E1E1E1E1E1E1E1E1E1E1E1E1E1E1E1E1E1E1E1E1E1E1E1E1E1BEE1E1E1E1E1E1E128E1E1E1E1E1E1E1E1E1E1E1E1E1E1E1E1E1E1E1E1E1E1E1E1E1E1E1E1E1E1E1E1E1E1E1E1
310
E1E1E1E1E1E1E1E1E1E1E1E1E1E1E1E1E1E1E1E1E1E1E1E1E1E1E1E1E1E1E1E1E1E1E1E1E1E1E1E1E1E1E1E1E1E1E1E1E1E1E1E1E1E1E1E1E1E1E1E1E1E1E1E1E1E1E1E1E1E1E1E1E1E1E1E1E1E1E1E1E1E1E1E1E1E1E1E1E1E1E1E1E1E1E1E1E1E1E1E1E1E1E1E1E1E1E1E1E1E1E1E1E1E1E1E1E1E1E1E1E1E1E1E1E1E1E1
310
E1E1E1E1E1E1E1E1E1E1E1E1E1E128BEE1E1E1E1E1E1E1E1E1E1E1E1E1E1E1E1E1E1E1E1E1E1E1E1E1E1E1E1E1E1E1E1E1E1E1E1E1E1E1E1E1E1E1E1E1E1E1E1E1E1E1E1E1E1E1E1E1E1E1E1E1E1E1E1E1E1E1E1BEE1E1E1E1E1E1E128E1E1E1E1E1E1E1E1E1E1E1E1E1E1E1E1E1E1E1E1E1E1E1E1E1E1E1E1E1E1E1E1E1E1
310
E1E1E1E1E1E1E1E1E1E1E1E1E1E1E1E1E1E1E1E1E1E1E1E1E1E1E1E1E1E1E1E1E1E1E1E1E1E1E1E1E1E1E1E1E1E1E1E1E1E1E1E1E1E1E1E1E1E1E1E1E1E1E1E1E1E1E1E1E1E1E1E1E1E1E1E1E1E1E1E1E1E1E1E1E1E1E1E1E1E1E1E1E1E1E1E1E1E1E1E1E1E1E1E1E1E1E1E1E1E1E1E1E1E1E1E1E1E1E1E1E1E1E1E1E1E1E1
310
E1E1E1E1E1E1E1E1E1E1E1E1E1E1E1E128BEE1E1E1E1E1E1E1E1E1E1E1E1E1E1E1E1E1E1E1E1E1E1E1E1E1E1E1E1E1E1E1E1E1E1E1E1E1E1E1E1E1E1E1E1E1E1E1E1E1E1E1E1E1E1E1E1E1E1E1E1E1E1E1E1E1E1E1E1BEE1E1E1E1E1E1E128E1E1E1E1E1E1E1E1E1E1E1E1E1E1E1E1E1E1E1E1E1E1E1E1E1E1E1E1E1E1E1E1
310
E1E1E1E1E1E1E1E1E1E1E1E1E1E1E1E1E1E1E1E1E1E1E1E1E1E1E1E1E1E1E1E1E1E1E1E1E1E1E1E1E1E1E1E1E1E1E1E1E1E1E1E1E1E1E1E1E1E1E1E1E1E1E1E1E1E1E1E1E1E1E1E1E1E1E1E1E1E1E1E1E1E1E1E1E1E1E1E1E1E1E1E1E1E1E1E1E1E1E1E1E1E1E1E1E1E1E1E1E1E1E1E1E1E1E1E1E1E1E1E1E1E1E1E1E1E1E1
310
E1E1E1E1E1E1E1E1E1E1E1E1E1E1E1E1E1E128BEE1E1E1E1E1E1E1E1E1E1E1E1E1E1E1E1E1E1E1E1E1E1E1E1E1E1E1E1E1E1E1E1E1E1E1E1E1E1E1E1E1E1E1E1E1E1E1E1E1E1E1E1E1E1E1E1E1E1E1E1E1E1E1E1E1E1E1E1BEE1E1E1E1E1E1E128E1E1E1E1E1E1E1E1E1E1E1E1E1E1E1E1E1E1E1E1E1E1E1E1E1E1E1E1E1E1
310
E1E1E1E1E1E1E1E1E1E1E1E1E1E1E1E1E1E1E1E1E1E1E1E1E1E1E1E1E1E1E1E1E1E1E1E1E1E1E1E1E1E1E1E1E1E1E1E1E1E1E1E1E1E1E1E1E1E1E1E1E1E1E1E1E1E1E1E1E1E1E1E1E1E1E1E1E1E1E1E1E1E1E1E1E1E1E1E1E1E1E1E1E1E1E1E1E1E1E1E1E1E1E1E1E1E1E1E1E1E1E1E1E1E1E1E1E1E1E1E1E1E1E1E1E1E1E1
310
E1E1E1E1E1E1E1E1E1E1E1E1E1E1E1E1E1E1E1E128BEE1E1E1E1E1E1E1E1E1E1E1E1E1E1E1E1E1E1E1E1E1E1E1E1E1E1E1E1E1E1E1E1E1E1E1E1E1E1E1E1E1E1E1E1E1E1E1E1E1E1E1E1E1E1E1E1E1E1E1E1E1E1E1E1E1E1E1E1BEE1E1E1E1E1E1E12828282828282828282828282828282828282828282828282828282828
310
28282828282828282828282828282828282828282828282828282828282828282828282828282828282828282828282828282828282828282828282828282828282828282828282828282828282828282828282828282828282828282828282828282828282828282828282828282828282828282828282828282828282828
310
2828282828282828282828282828282828282828282828BEE1E1E1E1E1E1E1E1E1E1E1E1E1E1E1E1E1E1E1E1E1E1E1E1E1E1E1E1E1E1E1E1E1E1E1E1E1E1E1E1E1E1E1E1E1E1E1E1E1E1E1E1E1E1E1E1E1E1E1E1E1E1E1E1E1E1E1E1BEBEBEBEBEBEBEBEBEBEBEBEBEBEBEBEBEBEBEBEBEBEBEBEBEBEBEBEBEBEBEBEBEBEBE
310
BEBEBEBEBEBEBEBEBEBEBEBEBEBEBEBEBEBEBEBEBEBEBEBEBEBEBEBEBEBEBEBEBEBEBEBEBEBEBEBEBEBEBEBEBEBEBEBEBEBEBEBEBEBEBEBEBEBEBEBEBEBEBEBEBEBEBEBEBEBEBEBEBEBEBEBEBEBEBEBEBEBEBEBEBEBEBEBEBEBEBEBEBEBEBEBEBEBEBEBEBEBEBEBEBEBEBEBEBEBEBEBEBEBEBEBEBEBEBEBEBEBEBEBEBEBEBE
310
BEBEBEBEBEBEBEBEBEBEBEBEBEBEBEBEBEBEBEBEBEBEBEBEBEBEE1E1E1E1E1E1E1E1E1E1E1E1E1E1E1E1E1E1E1E1E1E1E1E1E1E1E1E1E1E1E1E1E1E1E1E1E1E1E1E1E1E1E1E1E1E1E1E1E1E1E1E1E1E1E1E1E1E1E1E1E1E1E1E1E1E1E1E1E1E1E1E1E1E1E1E1E1E1E1E1E1E1E1E1E1E1E1E1E1E1E1E1E1E1E1E1E1E1E1E1E1
310
E1E1E1E1E1E1E1E1E1E1E1E1E1E1E1E1E1E1E1E1E1E1E1E1E1E1E1E1E1E1E1E1E1E1E1E1E1E1E1E1E1E1E1E1E1E1E1E1E1E1E1E1E1E1E1E1E1E1E1E1E1E1E1E1E1E1E1E1E1E1E1E1E1E1E1E1E1E1E1E1E1E1E1E1E1E1E1E1E1E1E1E1E1E1E1E1E1E1E1E1E1E1E1E1E1E1E1E1E1E1E1E1E1E1E1E1E1E1E1E1E1E1E1E1E1E1E1
310
E1E1E1E1E1E1E1E1E1E1E1E1E1E1E1E1E1E1E1E1E1E1E1E1E1E1E1E1E1E1E1E1E1E1E1E1E1E1E1E1E1E1E1E1E1E1E1E1E1E1E1E1E1E1E1E1E1E1E1E1E1E1
  0
XRECORD
  5
19B6
102
{ACAD_REACTORS
330
185F
102
}
330
185F
100
AcDbXrecord
280
     1
102
MATERIAL
148
0.0
149
0.0
149
0.0
 93
        0
 94
      127
282
     0
 72
     0
 77
     0
171
     0
175
     0
179
     0
273
     0
  0
XRECORD
  5
1861
102
{ACAD_REACTORS
330
185F
102
}
330
185F
100
AcDbXrecord
280
     1
270
     1
271
     1
  0
XRECORD
  5
1860
102
{ACAD_REACTORS
330
185F
102
}
330
185F
100
AcDbXrecord
280
     1
270
     1
271
     1
  0
XRECORD
  5
1864
102
{ACAD_REACTORS
330
185F
102
}
330
185F
100
AcDbXrecord
280
     1
270
     1
271
     1
  0
XRECORD
  5
1863
102
{ACAD_REACTORS
330
185F
102
}
330
185F
100
AcDbXrecord
280
     1
270
     1
271
     1
  0
XRECORD
  5
1865
102
{ACAD_REACTORS
330
185F
102
}
330
185F
100
AcDbXrecord
280
     1
270
     1
271
     1
  0
XRECORD
  5
1862
102
{ACAD_REACTORS
330
185F
102
}
330
185F
100
AcDbXrecord
280
     1
270
     1
271
     1
  0
XRECORD
  5
19B5
102
{ACAD_REACTORS
330
1857
102
}
330
1857
100
AcDbXrecord
280
     1
102
MATERIAL
148
0.0
149
0.0
149
0.0
 93
        0
 94
      127
282
     0
 72
     0
 77
     0
171
     0
175
     0
179
     0
273
     0
  0
XRECORD
  5
1859
102
{ACAD_REACTORS
330
1857
102
}
330
1857
100
AcDbXrecord
280
     1
270
     1
271
     1
  0
XRECORD
  5
1858
102
{ACAD_REACTORS
330
1857
102
}
330
1857
100
AcDbXrecord
280
     1
270
     1
271
     1
  0
XRECORD
  5
185C
102
{ACAD_REACTORS
330
1857
102
}
330
1857
100
AcDbXrecord
280
     1
270
     1
271
     1
  0
XRECORD
  5
185B
102
{ACAD_REACTORS
330
1857
102
}
330
1857
100
AcDbXrecord
280
     1
270
     1
271
     1
  0
XRECORD
  5
185D
102
{ACAD_REACTORS
330
1857
102
}
330
1857
100
AcDbXrecord
280
     1
270
     1
271
     1
  0
XRECORD
  5
185A
102
{ACAD_REACTORS
330
1857
102
}
330
1857
100
AcDbXrecord
280
     1
270
     1
271
     1
  0
XRECORD
  5
19B7
102
{ACAD_REACTORS
330
1867
102
}
330
1867
100
AcDbXrecord
280
     1
102
MATERIAL
148
0.0
149
0.0
149
0.0
 93
        0
 94
      127
282
     0
 72
     0
 77
     0
171
     0
175
     0
179
     0
273
     0
  0
XRECORD
  5
1869
102
{ACAD_REACTORS
330
1867
102
}
330
1867
100
AcDbXrecord
280
     1
270
     1
271
     1
  0
XRECORD
  5
1868
102
{ACAD_REACTORS
330
1867
102
}
330
1867
100
AcDbXrecord
280
     1
270
     1
271
     1
  0
XRECORD
  5
186C
102
{ACAD_REACTORS
330
1867
102
}
330
1867
100
AcDbXrecord
280
     1
270
     1
271
     1
  0
XRECORD
  5
186B
102
{ACAD_REACTORS
330
1867
102
}
330
1867
100
AcDbXrecord
280
     1
270
     1
271
     1
  0
XRECORD
  5
186D
102
{ACAD_REACTORS
330
1867
102
}
330
1867
100
AcDbXrecord
280
     1
270
     1
271
     1
  0
XRECORD
  5
186A
102
{ACAD_REACTORS
330
1867
102
}
330
1867
100
AcDbXrecord
280
     1
270
     1
271
     1
  0
CELLSTYLEMAP
  5
19AD
102
{ACAD_REACTORS
330
19AC
102
}
330
19AC
100
AcDbCellStyleMap
 90
        3
300
CELLSTYLE
  1
TABLEFORMAT_BEGIN
 90
        5
170
     1
 91
        0
 92
    32768
 62
   257
 93
        1
300
CONTENTFORMAT
  1
CONTENTFORMAT_BEGIN
 90
        0
 91
        0
 92
      512
 93
        0
300

 40
0.0
140
1.0
 94
        5
 62
     0
340
F
144
6.0
309
CONTENTFORMAT_END
171
     1
301
MARGIN
  1
CELLMARGIN_BEGIN
 40
1.5
 40
1.5
 40
1.5
 40
1.5
 40
4.5
 40
4.5
309
CELLMARGIN_END
 94
        6
 95
        1
302
GRIDFORMAT
  1
GRIDFORMAT_BEGIN
 90
        0
 91
        1
 62
     0
 92
       -2
340
0
 93
        0
 40
1.125
309
GRIDFORMAT_END
 95
        2
302
GRIDFORMAT
  1
GRIDFORMAT_BEGIN
 90
        0
 91
        1
 62
     0
 92
       -2
340
0
 93
        0
 40
1.125
309
GRIDFORMAT_END
 95
        4
302
GRIDFORMAT
  1
GRIDFORMAT_BEGIN
 90
        0
 91
        1
 62
     0
 92
       -2
340
0
 93
        0
 40
1.125
309
GRIDFORMAT_END
 95
        8
302
GRIDFORMAT
  1
GRIDFORMAT_BEGIN
 90
        0
 91
        1
 62
     0
 92
       -2
340
0
 93
        0
 40
1.125
309
GRIDFORMAT_END
 95
       16
302
GRIDFORMAT
  1
GRIDFORMAT_BEGIN
 90
        0
 91
        1
 62
     0
 92
       -2
340
0
 93
        0
 40
1.125
309
GRIDFORMAT_END
 95
       32
302
GRIDFORMAT
  1
GRIDFORMAT_BEGIN
 90
        0
 91
        1
 62
     0
 92
       -2
340
0
 93
        0
 40
1.125
309
GRIDFORMAT_END
309
TABLEFORMAT_END
  1
CELLSTYLE_BEGIN
 90
        1
 91
        1
300
_TITLE
309
CELLSTYLE_END
300
CELLSTYLE
  1
TABLEFORMAT_BEGIN
 90
        5
170
     1
 91
        0
 92
        0
 62
   257
 93
        1
300
CONTENTFORMAT
  1
CONTENTFORMAT_BEGIN
 90
        0
 91
        0
 92
      512
 93
        0
300

 40
0.0
140
1.0
 94
        5
 62
     0
340
F
144
4.5
309
CONTENTFORMAT_END
171
     1
301
MARGIN
  1
CELLMARGIN_BEGIN
 40
1.5
 40
1.5
 40
1.5
 40
1.5
 40
4.5
 40
4.5
309
CELLMARGIN_END
 94
        6
 95
        1
302
GRIDFORMAT
  1
GRIDFORMAT_BEGIN
 90
        0
 91
        1
 62
     0
 92
       -2
340
0
 93
        0
 40
1.125
309
GRIDFORMAT_END
 95
        2
302
GRIDFORMAT
  1
GRIDFORMAT_BEGIN
 90
        0
 91
        1
 62
     0
 92
       -2
340
0
 93
        0
 40
1.125
309
GRIDFORMAT_END
 95
        4
302
GRIDFORMAT
  1
GRIDFORMAT_BEGIN
 90
        0
 91
        1
 62
     0
 92
       -2
340
0
 93
        0
 40
1.125
309
GRIDFORMAT_END
 95
        8
302
GRIDFORMAT
  1
GRIDFORMAT_BEGIN
 90
        0
 91
        1
 62
     0
 92
       -2
340
0
 93
        0
 40
1.125
309
GRIDFORMAT_END
 95
       16
302
GRIDFORMAT
  1
GRIDFORMAT_BEGIN
 90
        0
 91
        1
 62
     0
 92
       -2
340
0
 93
        0
 40
1.125
309
GRIDFORMAT_END
 95
       32
302
GRIDFORMAT
  1
GRIDFORMAT_BEGIN
 90
        0
 91
        1
 62
     0
 92
       -2
340
0
 93
        0
 40
1.125
309
GRIDFORMAT_END
309
TABLEFORMAT_END
  1
CELLSTYLE_BEGIN
 90
        2
 91
        1
300
_HEADER
309
CELLSTYLE_END
300
CELLSTYLE
  1
TABLEFORMAT_BEGIN
 90
        5
170
     1
 91
        0
 92
        0
 62
   257
 93
        1
300
CONTENTFORMAT
  1
CONTENTFORMAT_BEGIN
 90
        0
 91
        0
 92
      512
 93
        0
300

 40
0.0
140
1.0
 94
        2
 62
     0
340
F
144
4.5
309
CONTENTFORMAT_END
171
     1
301
MARGIN
  1
CELLMARGIN_BEGIN
 40
1.5
 40
1.5
 40
1.5
 40
1.5
 40
4.5
 40
4.5
309
CELLMARGIN_END
 94
        6
 95
        1
302
GRIDFORMAT
  1
GRIDFORMAT_BEGIN
 90
        0
 91
        1
 62
     0
 92
       -2
340
0
 93
        0
 40
1.125
309
GRIDFORMAT_END
 95
        2
302
GRIDFORMAT
  1
GRIDFORMAT_BEGIN
 90
        0
 91
        1
 62
     0
 92
       -2
340
0
 93
        0
 40
1.125
309
GRIDFORMAT_END
 95
        4
302
GRIDFORMAT
  1
GRIDFORMAT_BEGIN
 90
        0
 91
        1
 62
     0
 92
       -2
340
0
 93
        0
 40
1.125
309
GRIDFORMAT_END
 95
        8
302
GRIDFORMAT
  1
GRIDFORMAT_BEGIN
 90
        0
 91
        1
 62
     0
 92
       -2
340
0
 93
        0
 40
1.125
309
GRIDFORMAT_END
 95
       16
302
GRIDFORMAT
  1
GRIDFORMAT_BEGIN
 90
        0
 91
        1
 62
     0
 92
       -2
340
0
 93
        0
 40
1.125
309
GRIDFORMAT_END
 95
       32
302
GRIDFORMAT
  1
GRIDFORMAT_BEGIN
 90
        0
 91
        1
 62
     0
 92
       -2
340
0
 93
        0
 40
1.125
309
GRIDFORMAT_END
309
TABLEFORMAT_END
  1
CELLSTYLE_BEGIN
 90
        3
 91
        2
300
_DATA
309
CELLSTYLE_END
  0
XRECORD
  5
19DE
102
{ACAD_REACTORS
330
19AC
102
}
330
19AC
100
AcDbXrecord
280
     1
102
ACAD_ROUNDTRIP_PRE2007_TABLESTYLE
 90
      512
 91
        0
  1

 92
      512
 93
        0
  2

 94
      512
 95
        0
  3

  0
XRECORD
  5
19C3
102
{ACAD_REACTORS
330
19C2
102
}
330
19C2
100
AcDbXrecord
280
     1
102
RTVSPropertyOp0
 70
     1
102
RTVSPropertyOp1
 70
     1
102
RTVSPropertyOp2
 70
     1
102
RTVSPropertyOp3
 70
     1
102
RTVSPropertyOp4
 70
     1
102
RTVSPropertyOp5
 70
     1
102
RTVSPropertyOp6
 70
     1
102
RTVSPropertyOp7
 70
     1
102
RTVSPropertyOp8
 70
     1
102
RTVSPropertyOp9
 70
     1
102
RTVSPropertyOp10
 70
     1
102
RTVSPropertyOp11
 70
     1
102
RTVSPropertyOp12
 70
     1
102
RTVSPropertyOp13
 70
     1
102
RTVSPropertyOp14
 70
     1
102
RTVSPropertyOp15
 70
     1
102
RTVSPropertyOp16
 70
     1
102
RTVSPropertyOp17
 70
     1
102
RTVSPropertyOp18
 70
     1
102
RTVSPropertyOp19
 70
     1
102
RTVSPropertyOp20
 70
     1
102
RTVSPropertyOp21
 70
     1
102
RTVSPropertyOp22
 70
     1
102
RTVSPropertyOp23
 70
     1
102
RTVSPropertyOp24
 70
     1
102
RTVSPropertyOp25
 70
     1
102
RTVSPropertyOp26
 70
     1
102
RTVSPropertyOp27
 70
     1
  0
XRECORD
  5
19C7
102
{ACAD_REACTORS
330
19C6
102
}
330
19C6
100
AcDbXrecord
280
     1
102
RTVSPropertyOp0
 70
     1
102
RTVSPropertyOp1
 70
     1
102
RTVSPropertyOp2
 70
     1
102
RTVSPropertyOp3
 70
     1
102
RTVSPropertyOp4
 70
     1
102
RTVSPropertyOp5
 70
     1
102
RTVSPropertyOp6
 70
     1
102
RTVSPropertyOp7
 70
     1
102
RTVSPropertyOp8
 70
     1
102
RTVSPropertyOp9
 70
     1
102
RTVSPropertyOp10
 70
     1
102
RTVSPropertyOp11
 70
     1
102
RTVSPropertyOp12
 70
     1
102
RTVSPropertyOp13
 70
     1
102
RTVSPropertyOp14
 70
     1
102
RTVSPropertyOp15
 70
     1
102
RTVSPropertyOp16
 70
     1
102
RTVSPropertyOp17
 70
     1
102
RTVSPropertyOp18
 70
     1
102
RTVSPropertyOp19
 70
     1
102
RTVSPropertyOp20
 70
     1
102
RTVSPropertyOp21
 70
     1
102
RTVSPropertyOp22
 70
     1
102
RTVSPropertyOp23
 70
     1
102
RTVSPropertyOp24
 70
     1
102
RTVSPropertyOp25
 70
     1
102
RTVSPropertyOp26
 70
     1
102
RTVSPropertyOp27
 70
     1
  0
XRECORD
  5
19C5
102
{ACAD_REACTORS
330
19C4
102
}
330
19C4
100
AcDbXrecord
280
     1
102
RTVSPropertyOp0
 70
     1
102
RTVSPropertyOp1
 70
     1
102
RTVSPropertyOp2
 70
     1
102
RTVSPropertyOp3
 70
     1
102
RTVSPropertyOp4
 70
     1
102
RTVSPropertyOp5
 70
     1
102
RTVSPropertyOp6
 70
     1
102
RTVSPropertyOp7
 70
     1
102
RTVSPropertyOp8
 70
     1
102
RTVSPropertyOp9
 70
     1
102
RTVSPropertyOp10
 70
     1
102
RTVSPropertyOp11
 70
     1
102
RTVSPropertyOp12
 70
     1
102
RTVSPropertyOp13
 70
     1
102
RTVSPropertyOp14
 70
     1
102
RTVSPropertyOp15
 70
     1
102
RTVSPropertyOp16
 70
     1
102
RTVSPropertyOp17
 70
     1
102
RTVSPropertyOp18
 70
     1
102
RTVSPropertyOp19
 70
     1
102
RTVSPropertyOp20
 70
     1
102
RTVSPropertyOp21
 70
     1
102
RTVSPropertyOp22
 70
     1
102
RTVSPropertyOp23
 70
     1
102
RTVSPropertyOp24
 70
     1
102
RTVSPropertyOp25
 70
     1
102
RTVSPropertyOp26
 70
     1
102
RTVSPropertyOp27
 70
     1
  0
XRECORD
  5
19C1
102
{ACAD_REACTORS
330
19C0
102
}
330
19C0
100
AcDbXrecord
280
     1
102
RTVSPropertyOp0
 70
     1
102
RTVSPropertyOp1
 70
     1
102
RTVSPropertyOp2
 70
     1
102
RTVSPropertyOp3
 70
     1
102
RTVSPropertyOp4
 70
     1
102
RTVSPropertyOp5
 70
     1
102
RTVSPropertyOp6
 70
     1
102
RTVSPropertyOp7
 70
     1
102
RTVSPropertyOp8
 70
     1
102
RTVSPropertyOp9
 70
     1
102
RTVSPropertyOp10
 70
     1
102
RTVSPropertyOp11
 70
     1
102
RTVSPropertyOp12
 70
     1
102
RTVSPropertyOp13
 70
     1
102
RTVSPropertyOp14
 70
     1
102
RTVSPropertyOp15
 70
     1
102
RTVSPropertyOp16
 70
     1
102
RTVSPropertyOp17
 70
     1
102
RTVSPropertyOp18
 70
     1
102
RTVSPropertyOp19
 70
     1
102
RTVSPropertyOp20
 70
     1
102
RTVSPropertyOp21
 70
     1
102
RTVSPropertyOp22
 70
     1
102
RTVSPropertyOp23
 70
     1
102
RTVSPropertyOp24
 70
     1
102
RTVSPropertyOp25
 70
     1
102
RTVSPropertyOp26
 70
     1
102
RTVSPropertyOp27
 70
     1
  0
XRECORD
  5
19CF
102
{ACAD_REACTORS
330
19CE
102
}
330
19CE
100
AcDbXrecord
280
     1
102
RTVSPropertyOp0
 70
     1
102
RTVSPropertyOp1
 70
     1
102
RTVSPropertyOp2
 70
     1
102
RTVSPropertyOp3
 70
     1
102
RTVSPropertyOp4
 70
     1
102
RTVSPropertyOp5
 70
     1
102
RTVSPropertyOp6
 70
     1
102
RTVSPropertyOp7
 70
     1
102
RTVSPropertyOp8
 70
     1
102
RTVSPropertyOp9
 70
     1
102
RTVSPropertyOp10
 70
     1
102
RTVSPropertyOp11
 70
     1
102
RTVSPropertyOp12
 70
     1
102
RTVSPropertyOp13
 70
     1
102
RTVSPropertyOp14
 70
     1
102
RTVSPropertyOp15
 70
     1
102
RTVSPropertyOp16
 70
     1
102
RTVSPropertyOp17
 70
     1
102
RTVSPropertyOp18
 70
     1
102
RTVSPropertyOp19
 70
     1
102
RTVSPropertyOp20
 70
     1
102
RTVSPropertyOp21
 70
     1
102
RTVSPropertyOp22
 70
     1
102
RTVSPropertyOp23
 70
     1
102
RTVSPropertyOp24
 70
     1
102
RTVSPropertyOp25
 70
     1
102
RTVSPropertyOp26
 70
     1
102
RTVSPropertyOp27
 70
     1
  0
XRECORD
  5
19D7
102
{ACAD_REACTORS
330
19D6
102
}
330
19D6
100
AcDbXrecord
280
     1
102
RTVSPropertyOp0
 70
     1
102
RTVSPropertyOp1
 70
     1
102
RTVSPropertyOp2
 70
     1
102
RTVSPropertyOp3
 70
     1
102
RTVSPropertyOp4
 70
     1
102
RTVSPropertyOp5
 70
     1
102
RTVSPropertyOp6
 70
     1
102
RTVSPropertyOp7
 70
     1
102
RTVSPropertyOp8
 70
     1
102
RTVSPropertyOp9
 70
     1
102
RTVSPropertyOp10
 70
     1
102
RTVSPropertyOp11
 70
     1
102
RTVSPropertyOp12
 70
     1
102
RTVSPropertyOp13
 70
     1
102
RTVSPropertyOp14
 70
     1
102
RTVSPropertyOp15
 70
     1
102
RTVSPropertyOp16
 70
     1
102
RTVSPropertyOp17
 70
     1
102
RTVSPropertyOp18
 70
     1
102
RTVSPropertyOp19
 70
     1
102
RTVSPropertyOp20
 70
     1
102
RTVSPropertyOp21
 70
     1
102
RTVSPropertyOp22
 70
     1
102
RTVSPropertyOp23
 70
     1
102
RTVSPropertyOp24
 70
     1
102
RTVSPropertyOp25
 70
     1
102
RTVSPropertyOp26
 70
     1
102
RTVSPropertyOp27
 70
     1
  0
XRECORD
  5
19C9
102
{ACAD_REACTORS
330
19C8
102
}
330
19C8
100
AcDbXrecord
280
     1
102
RTVSPropertyOp0
 70
     1
102
RTVSPropertyOp1
 70
     1
102
RTVSPropertyOp2
 70
     1
102
RTVSPropertyOp3
 70
     1
102
RTVSPropertyOp4
 70
     1
102
RTVSPropertyOp5
 70
     1
102
RTVSPropertyOp6
 70
     1
102
RTVSPropertyOp7
 70
     1
102
RTVSPropertyOp8
 70
     1
102
RTVSPropertyOp9
 70
     1
102
RTVSPropertyOp10
 70
     1
102
RTVSPropertyOp11
 70
     1
102
RTVSPropertyOp12
 70
     1
102
RTVSPropertyOp13
 70
     1
102
RTVSPropertyOp14
 70
     1
102
RTVSPropertyOp15
 70
     1
102
RTVSPropertyOp16
 70
     1
102
RTVSPropertyOp17
 70
     1
102
RTVSPropertyOp18
 70
     1
102
RTVSPropertyOp19
 70
     1
102
RTVSPropertyOp20
 70
     1
102
RTVSPropertyOp21
 70
     1
102
RTVSPropertyOp22
 70
     1
102
RTVSPropertyOp23
 70
     1
102
RTVSPropertyOp24
 70
     1
102
RTVSPropertyOp25
 70
     1
102
RTVSPropertyOp26
 70
     1
102
RTVSPropertyOp27
 70
     1
  0
XRECORD
  5
19CD
102
{ACAD_REACTORS
330
19CC
102
}
330
19CC
100
AcDbXrecord
280
     1
102
RTVSPropertyOp0
 70
     1
102
RTVSPropertyOp1
 70
     1
102
RTVSPropertyOp2
 70
     1
102
RTVSPropertyOp3
 70
     1
102
RTVSPropertyOp4
 70
     1
102
RTVSPropertyOp5
 70
     1
102
RTVSPropertyOp6
 70
     1
102
RTVSPropertyOp7
 70
     1
102
RTVSPropertyOp8
 70
     1
102
RTVSPropertyOp9
 70
     1
102
RTVSPropertyOp10
 70
     1
102
RTVSPropertyOp11
 70
     1
102
RTVSPropertyOp12
 70
     1
102
RTVSPropertyOp13
 70
     1
102
RTVSPropertyOp14
 70
     1
102
RTVSPropertyOp15
 70
     1
102
RTVSPropertyOp16
 70
     1
102
RTVSPropertyOp17
 70
     1
102
RTVSPropertyOp18
 70
     1
102
RTVSPropertyOp19
 70
     1
102
RTVSPropertyOp20
 70
     1
102
RTVSPropertyOp21
 70
     1
102
RTVSPropertyOp22
 70
     1
102
RTVSPropertyOp23
 70
     1
102
RTVSPropertyOp24
 70
     1
102
RTVSPropertyOp25
 70
     1
102
RTVSPropertyOp26
 70
     1
102
RTVSPropertyOp27
 70
     1
  0
XRECORD
  5
19DD
102
{ACAD_REACTORS
330
19DC
102
}
330
19DC
100
AcDbXrecord
280
     1
102
RTVSPropertyOp0
 70
     0
102
RTVSPropertyOp1
 70
     0
102
RTVSPropertyOp2
 70
     0
102
RTVSPropertyOp3
 70
     0
102
RTVSPropertyOp4
 70
     0
102
RTVSPropertyOp5
 70
     0
102
RTVSPropertyOp6
 70
     0
102
RTVSPropertyOp7
 70
     0
102
RTVSPropertyOp8
 70
     0
102
RTVSPropertyOp9
 70
     0
102
RTVSPropertyOp10
 70
     0
102
RTVSPropertyOp11
 70
     0
102
RTVSPropertyOp12
 70
     0
102
RTVSPropertyOp13
 70
     0
102
RTVSPropertyOp14
 70
     2
102
RTVSPropertyOp15
 70
     0
102
RTVSPropertyOp16
 70
     0
102
RTVSPropertyOp17
 70
     0
102
RTVSPropertyOp18
 70
     0
102
RTVSPropertyOp19
 70
     0
102
RTVSPropertyOp20
 70
     0
102
RTVSPropertyOp21
 70
     0
102
RTVSPropertyOp22
 70
     0
102
RTVSPropertyOp23
 70
     0
102
RTVSPropertyOp24
 70
     0
102
RTVSPropertyOp25
 70
     0
102
RTVSPropertyOp26
 70
     0
102
RTVSPropertyOp27
 70
     0
  0
XRECORD
  5
19D5
102
{ACAD_REACTORS
330
19D4
102
}
330
19D4
100
AcDbXrecord
280
     1
102
RTVSPropertyOp0
 70
     1
102
RTVSPropertyOp1
 70
     1
102
RTVSPropertyOp2
 70
     1
102
RTVSPropertyOp3
 70
     1
102
RTVSPropertyOp4
 70
     1
102
RTVSPropertyOp5
 70
     1
102
RTVSPropertyOp6
 70
     1
102
RTVSPropertyOp7
 70
     1
102
RTVSPropertyOp8
 70
     1
102
RTVSPropertyOp9
 70
     1
102
RTVSPropertyOp10
 70
     1
102
RTVSPropertyOp11
 70
     1
102
RTVSPropertyOp12
 70
     1
102
RTVSPropertyOp13
 70
     1
102
RTVSPropertyOp14
 70
     1
102
RTVSPropertyOp15
 70
     1
102
RTVSPropertyOp16
 70
     1
102
RTVSPropertyOp17
 70
     1
102
RTVSPropertyOp18
 70
     1
102
RTVSPropertyOp19
 70
     1
102
RTVSPropertyOp20
 70
     1
102
RTVSPropertyOp21
 70
     1
102
RTVSPropertyOp22
 70
     1
102
RTVSPropertyOp23
 70
     1
102
RTVSPropertyOp24
 70
     1
102
RTVSPropertyOp25
 70
     1
102
RTVSPropertyOp26
 70
     1
102
RTVSPropertyOp27
 70
     1
  0
XRECORD
  5
19B9
102
{ACAD_REACTORS
330
19B8
102
}
330
19B8
100
AcDbXrecord
280
     1
102
RTVSPropertyOp0
 70
     1
102
RTVSPropertyOp1
 70
     1
102
RTVSPropertyOp2
 70
     1
102
RTVSPropertyOp3
 70
     1
102
RTVSPropertyOp4
 70
     1
102
RTVSPropertyOp5
 70
     1
102
RTVSPropertyOp6
 70
     1
102
RTVSPropertyOp7
 70
     1
102
RTVSPropertyOp8
 70
     1
102
RTVSPropertyOp9
 70
     1
102
RTVSPropertyOp10
 70
     1
102
RTVSPropertyOp11
 70
     1
102
RTVSPropertyOp12
 70
     1
102
RTVSPropertyOp13
 70
     1
102
RTVSPropertyOp14
 70
     1
102
RTVSPropertyOp15
 70
     1
102
RTVSPropertyOp16
 70
     1
102
RTVSPropertyOp17
 70
     1
102
RTVSPropertyOp18
 70
     1
102
RTVSPropertyOp19
 70
     1
102
RTVSPropertyOp20
 70
     1
102
RTVSPropertyOp21
 70
     1
102
RTVSPropertyOp22
 70
     1
102
RTVSPropertyOp23
 70
     1
102
RTVSPropertyOp24
 70
     1
102
RTVSPropertyOp25
 70
     1
102
RTVSPropertyOp26
 70
     1
102
RTVSPropertyOp27
 70
     1
  0
XRECORD
  5
19BB
102
{ACAD_REACTORS
330
19BA
102
}
330
19BA
100
AcDbXrecord
280
     1
102
RTVSPropertyOp0
 70
     1
102
RTVSPropertyOp1
 70
     1
102
RTVSPropertyOp2
 70
     1
102
RTVSPropertyOp3
 70
     1
102
RTVSPropertyOp4
 70
     1
102
RTVSPropertyOp5
 70
     1
102
RTVSPropertyOp6
 70
     1
102
RTVSPropertyOp7
 70
     1
102
RTVSPropertyOp8
 70
     1
102
RTVSPropertyOp9
 70
     1
102
RTVSPropertyOp10
 70
     1
102
RTVSPropertyOp11
 70
     1
102
RTVSPropertyOp12
 70
     1
102
RTVSPropertyOp13
 70
     1
102
RTVSPropertyOp14
 70
     1
102
RTVSPropertyOp15
 70
     1
102
RTVSPropertyOp16
 70
     1
102
RTVSPropertyOp17
 70
     1
102
RTVSPropertyOp18
 70
     1
102
RTVSPropertyOp19
 70
     1
102
RTVSPropertyOp20
 70
     1
102
RTVSPropertyOp21
 70
     1
102
RTVSPropertyOp22
 70
     1
102
RTVSPropertyOp23
 70
     1
102
RTVSPropertyOp24
 70
     1
102
RTVSPropertyOp25
 70
     1
102
RTVSPropertyOp26
 70
     1
102
RTVSPropertyOp27
 70
     1
  0
XRECORD
  5
19BD
102
{ACAD_REACTORS
330
19BC
102
}
330
19BC
100
AcDbXrecord
280
     1
102
RTVSPropertyOp0
 70
     1
102
RTVSPropertyOp1
 70
     1
102
RTVSPropertyOp2
 70
     1
102
RTVSPropertyOp3
 70
     1
102
RTVSPropertyOp4
 70
     1
102
RTVSPropertyOp5
 70
     1
102
RTVSPropertyOp6
 70
     1
102
RTVSPropertyOp7
 70
     1
102
RTVSPropertyOp8
 70
     1
102
RTVSPropertyOp9
 70
     1
102
RTVSPropertyOp10
 70
     1
102
RTVSPropertyOp11
 70
     1
102
RTVSPropertyOp12
 70
     1
102
RTVSPropertyOp13
 70
     1
102
RTVSPropertyOp14
 70
     1
102
RTVSPropertyOp15
 70
     1
102
RTVSPropertyOp16
 70
     1
102
RTVSPropertyOp17
 70
     1
102
RTVSPropertyOp18
 70
     1
102
RTVSPropertyOp19
 70
     1
102
RTVSPropertyOp20
 70
     1
102
RTVSPropertyOp21
 70
     1
102
RTVSPropertyOp22
 70
     1
102
RTVSPropertyOp23
 70
     1
102
RTVSPropertyOp24
 70
     1
102
RTVSPropertyOp25
 70
     1
102
RTVSPropertyOp26
 70
     1
102
RTVSPropertyOp27
 70
     1
  0
XRECORD
  5
19BF
102
{ACAD_REACTORS
330
19BE
102
}
330
19BE
100
AcDbXrecord
280
     1
102
RTVSPropertyOp0
 70
     1
102
RTVSPropertyOp1
 70
     1
102
RTVSPropertyOp2
 70
     1
102
RTVSPropertyOp3
 70
     1
102
RTVSPropertyOp4
 70
     1
102
RTVSPropertyOp5
 70
     1
102
RTVSPropertyOp6
 70
     1
102
RTVSPropertyOp7
 70
     1
102
RTVSPropertyOp8
 70
     1
102
RTVSPropertyOp9
 70
     1
102
RTVSPropertyOp10
 70
     1
102
RTVSPropertyOp11
 70
     1
102
RTVSPropertyOp12
 70
     1
102
RTVSPropertyOp13
 70
     1
102
RTVSPropertyOp14
 70
     1
102
RTVSPropertyOp15
 70
     1
102
RTVSPropertyOp16
 70
     1
102
RTVSPropertyOp17
 70
     1
102
RTVSPropertyOp18
 70
     1
102
RTVSPropertyOp19
 70
     1
102
RTVSPropertyOp20
 70
     1
102
RTVSPropertyOp21
 70
     1
102
RTVSPropertyOp22
 70
     1
102
RTVSPropertyOp23
 70
     1
102
RTVSPropertyOp24
 70
     1
102
RTVSPropertyOp25
 70
     1
102
RTVSPropertyOp26
 70
     1
102
RTVSPropertyOp27
 70
     1
  0
XRECORD
  5
19D9
102
{ACAD_REACTORS
330
19D8
102
}
330
19D8
100
AcDbXrecord
280
     1
102
RTVSPropertyOp0
 70
     0
102
RTVSPropertyOp1
 70
     0
102
RTVSPropertyOp2
 70
     0
102
RTVSPropertyOp3
 70
     0
102
RTVSPropertyOp4
 70
     0
102
RTVSPropertyOp5
 70
     0
102
RTVSPropertyOp6
 70
     0
102
RTVSPropertyOp7
 70
     0
102
RTVSPropertyOp8
 70
     0
102
RTVSPropertyOp9
 70
     0
102
RTVSPropertyOp10
 70
     0
102
RTVSPropertyOp11
 70
     0
102
RTVSPropertyOp12
 70
     0
102
RTVSPropertyOp13
 70
     0
102
RTVSPropertyOp14
 70
     2
102
RTVSPropertyOp15
 70
     0
102
RTVSPropertyOp16
 70
     0
102
RTVSPropertyOp17
 70
     0
102
RTVSPropertyOp18
 70
     0
102
RTVSPropertyOp19
 70
     0
102
RTVSPropertyOp20
 70
     0
102
RTVSPropertyOp21
 70
     0
102
RTVSPropertyOp22
 70
     0
102
RTVSPropertyOp23
 70
     0
102
RTVSPropertyOp24
 70
     0
102
RTVSPropertyOp25
 70
     0
102
RTVSPropertyOp26
 70
     0
102
RTVSPropertyOp27
 70
     0
  0
XRECORD
  5
19D3
102
{ACAD_REACTORS
330
19D2
102
}
330
19D2
100
AcDbXrecord
280
     1
102
RTVSPropertyOp0
 70
     1
102
RTVSPropertyOp1
 70
     1
102
RTVSPropertyOp2
 70
     1
102
RTVSPropertyOp3
 70
     1
102
RTVSPropertyOp4
 70
     1
102
RTVSPropertyOp5
 70
     1
102
RTVSPropertyOp6
 70
     1
102
RTVSPropertyOp7
 70
     1
102
RTVSPropertyOp8
 70
     1
102
RTVSPropertyOp9
 70
     1
102
RTVSPropertyOp10
 70
     1
102
RTVSPropertyOp11
 70
     1
102
RTVSPropertyOp12
 70
     1
102
RTVSPropertyOp13
 70
     1
102
RTVSPropertyOp14
 70
     1
102
RTVSPropertyOp15
 70
     1
102
RTVSPropertyOp16
 70
     1
102
RTVSPropertyOp17
 70
     1
102
RTVSPropertyOp18
 70
     1
102
RTVSPropertyOp19
 70
     1
102
RTVSPropertyOp20
 70
     1
102
RTVSPropertyOp21
 70
     1
102
RTVSPropertyOp22
 70
     1
102
RTVSPropertyOp23
 70
     1
102
RTVSPropertyOp24
 70
     1
102
RTVSPropertyOp25
 70
     1
102
RTVSPropertyOp26
 70
     1
102
RTVSPropertyOp27
 70
     1
  0
XRECORD
  5
19DB
102
{ACAD_REACTORS
330
19DA
102
}
330
19DA
100
AcDbXrecord
280
     1
102
RTVSPropertyOp0
 70
     0
102
RTVSPropertyOp1
 70
     0
102
RTVSPropertyOp2
 70
     0
102
RTVSPropertyOp3
 70
     0
102
RTVSPropertyOp4
 70
     0
102
RTVSPropertyOp5
 70
     0
102
RTVSPropertyOp6
 70
     0
102
RTVSPropertyOp7
 70
     0
102
RTVSPropertyOp8
 70
     0
102
RTVSPropertyOp9
 70
     0
102
RTVSPropertyOp10
 70
     0
102
RTVSPropertyOp11
 70
     0
102
RTVSPropertyOp12
 70
     0
102
RTVSPropertyOp13
 70
     0
102
RTVSPropertyOp14
 70
     2
102
RTVSPropertyOp15
 70
     0
102
RTVSPropertyOp16
 70
     0
102
RTVSPropertyOp17
 70
     0
102
RTVSPropertyOp18
 70
     0
102
RTVSPropertyOp19
 70
     0
102
RTVSPropertyOp20
 70
     0
102
RTVSPropertyOp21
 70
     0
102
RTVSPropertyOp22
 70
     0
102
RTVSPropertyOp23
 70
     0
102
RTVSPropertyOp24
 70
     0
102
RTVSPropertyOp25
 70
     0
102
RTVSPropertyOp26
 70
     0
102
RTVSPropertyOp27
 70
     0
  0
XRECORD
  5
19CB
102
{ACAD_REACTORS
330
19CA
102
}
330
19CA
100
AcDbXrecord
280
     1
102
RTVSPropertyOp0
 70
     1
102
RTVSPropertyOp1
 70
     1
102
RTVSPropertyOp2
 70
     1
102
RTVSPropertyOp3
 70
     1
102
RTVSPropertyOp4
 70
     1
102
RTVSPropertyOp5
 70
     1
102
RTVSPropertyOp6
 70
     1
102
RTVSPropertyOp7
 70
     1
102
RTVSPropertyOp8
 70
     1
102
RTVSPropertyOp9
 70
     1
102
RTVSPropertyOp10
 70
     1
102
RTVSPropertyOp11
 70
     1
102
RTVSPropertyOp12
 70
     1
102
RTVSPropertyOp13
 70
     1
102
RTVSPropertyOp14
 70
     1
102
RTVSPropertyOp15
 70
     1
102
RTVSPropertyOp16
 70
     1
102
RTVSPropertyOp17
 70
     1
102
RTVSPropertyOp18
 70
     1
102
RTVSPropertyOp19
 70
     1
102
RTVSPropertyOp20
 70
     1
102
RTVSPropertyOp21
 70
     1
102
RTVSPropertyOp22
 70
     1
102
RTVSPropertyOp23
 70
     1
102
RTVSPropertyOp24
 70
     1
102
RTVSPropertyOp25
 70
     1
102
RTVSPropertyOp26
 70
     1
102
RTVSPropertyOp27
 70
     1
  0
XRECORD
  5
19D1
102
{ACAD_REACTORS
330
19D0
102
}
330
19D0
100
AcDbXrecord
280
     1
102
RTVSPropertyOp0
 70
     1
102
RTVSPropertyOp1
 70
     1
102
RTVSPropertyOp2
 70
     1
102
RTVSPropertyOp3
 70
     1
102
RTVSPropertyOp4
 70
     1
102
RTVSPropertyOp5
 70
     1
102
RTVSPropertyOp6
 70
     1
102
RTVSPropertyOp7
 70
     1
102
RTVSPropertyOp8
 70
     1
102
RTVSPropertyOp9
 70
     1
102
RTVSPropertyOp10
 70
     1
102
RTVSPropertyOp11
 70
     1
102
RTVSPropertyOp12
 70
     1
102
RTVSPropertyOp13
 70
     1
102
RTVSPropertyOp14
 70
     1
102
RTVSPropertyOp15
 70
     1
102
RTVSPropertyOp16
 70
     1
102
RTVSPropertyOp17
 70
     1
102
RTVSPropertyOp18
 70
     1
102
RTVSPropertyOp19
 70
     1
102
RTVSPropertyOp20
 70
     1
102
RTVSPropertyOp21
 70
     1
102
RTVSPropertyOp22
 70
     1
102
RTVSPropertyOp23
 70
     1
102
RTVSPropertyOp24
 70
     1
102
RTVSPropertyOp25
 70
     1
102
RTVSPropertyOp26
 70
     1
102
RTVSPropertyOp27
 70
     1
  0
DICTIONARY
  5
1977
102
{ACAD_REACTORS
330
1976
102
}
330
1976
100
AcDbDictionary
280
     1
281
     1
  3
PH_GRPMEMBERS
360
1978
  0
PH_GROUP
  5
1979
102
{ACAD_REACTORS
330
1976
102
}
330
1976
  0
PH_GROUP
  5
1978
102
{ACAD_REACTORS
330
1977
102
}
330
1977
  0
ENDSEC
  0
EOF
