  0
SECTION
  2
HEADER
  9
$ACADVER
  1
AC1015
  9
$ACADMAINTVER
 70
    20
  9
$DWGCODEPAGE
  3
ANSI_1252
  9
$INSBASE
 10
0.0
 20
0.0
 30
0.0
  9
$EXTMIN
 10
0.9805307641864828
 20
0.9879462492978063
 30
-0.0015258207003583
  9
$EXTMAX
 10
419.019471191591
 20
296.0120551337162
 30
0.0000000349246037
  9
$LIMMIN
 10
0.0
 20
0.0
  9
$LIMMAX
 10
420.0
 20
297.0
  9
$ORTHOMODE
 70
     1
  9
$REGENMODE
 70
     1
  9
$FILLMODE
 70
     1
  9
$QTEXTMODE
 70
     0
  9
$MIRRTEXT
 70
     1
  9
$LTSCALE
 40
1.0
  9
$ATTMODE
 70
     1
  9
$TEXTSIZE
 40
2.5
  9
$TRACEWID
 40
1.0
  9
$TEXTSTYLE
  7
STANDARD
  9
$CLAYER
  8
0
  9
$CELTYPE
  6
ACAD_ISO05W100
  9
$CECOLOR
 62
   256
  9
$CELTSCALE
 40
1.0
  9
$DISPSILH
 70
     0
  9
$DIMSCALE
 40
1.0
  9
$DIMASZ
 40
2.5
  9
$DIMEXO
 40
0.625
  9
$DIMDLI
 40
3.75
  9
$DIMRND
 40
0.0
  9
$DIMDLE
 40
0.0
  9
$DIMEXE
 40
1.25
  9
$DIMTP
 40
0.0
  9
$DIMTM
 40
0.0
  9
$DIMTXT
 40
2.5
  9
$DIMCEN
 40
2.5
  9
$DIMTSZ
 40
0.0
  9
$DIMTOL
 70
     0
  9
$DIMLIM
 70
     0
  9
$DIMTIH
 70
     0
  9
$DIMTOH
 70
     0
  9
$DIMSE1
 70
     0
  9
$DIMSE2
 70
     0
  9
$DIMTAD
 70
     1
  9
$DIMZIN
 70
     0
  9
$DIMBLK
  1

  9
$DIMASO
 70
     1
  9
$DIMSHO
 70
     1
  9
$DIMPOST
  1

  9
$DIMAPOST
  1

  9
$DIMALT
 70
     0
  9
$DIMALTD
 70
     4
  9
$DIMALTF
 40
0.0394
  9
$DIMLFAC
 40
1.0
  9
$DIMTOFL
 70
     1
  9
$DIMTVP
 40
0.0
  9
$DIMTIX
 70
     0
  9
$DIMSOXD
 70
     0
  9
$DIMSAH
 70
     0
  9
$DIMBLK1
  1

  9
$DIMBLK2
  1

  9
$DIMSTYLE
  2
STANDARD
  9
$DIMCLRD
 70
     0
  9
$DIMCLRE
 70
     0
  9
$DIMCLRT
 70
     0
  9
$DIMTFAC
 40
1.0
  9
$DIMGAP
 40
0.625
  9
$DIMJUST
 70
     0
  9
$DIMSD1
 70
     0
  9
$DIMSD2
 70
     0
  9
$DIMTOLJ
 70
     1
  9
$DIMTZIN
 70
     0
  9
$DIMALTZ
 70
     0
  9
$DIMALTTZ
 70
     0
  9
$DIMUPT
 70
     0
  9
$DIMDEC
 70
     4
  9
$DIMTDEC
 70
     4
  9
$DIMALTU
 70
     8
  9
$DIMALTTD
 70
     4
  9
$DIMTXSTY
  7
STANDARD
  9
$DIMAUNIT
 70
     0
  9
$DIMADEC
 70
     0
  9
$DIMALTRND
 40
0.0
  9
$DIMAZIN
 70
     0
  9
$DIMDSEP
 70
    46
  9
$DIMATFIT
 70
     3
  9
$DIMFRAC
 70
     0
  9
$DIMLDRBLK
  1

  9
$DIMLUNIT
 70
     6
  9
$DIMLWD
 70
    -2
  9
$DIMLWE
 70
    -2
  9
$DIMTMOVE
 70
     0
  9
$LUNITS
 70
     2
  9
$LUPREC
 70
     4
  9
$SKETCHINC
 40
1.0
  9
$FILLETRAD
 40
0.0
  9
$AUNITS
 70
     0
  9
$AUPREC
 70
     0
  9
$MENU
  1
.
  9
$ELEVATION
 40
0.0
  9
$PELEVATION
 40
0.0
  9
$THICKNESS
 40
0.0
  9
$LIMCHECK
 70
     0
  9
$CHAMFERA
 40
10.0
  9
$CHAMFERB
 40
10.0
  9
$CHAMFERC
 40
20.0
  9
$CHAMFERD
 40
0.0
  9
$SKPOLY
 70
     0
  9
$TDCREATE
 40
2451306.661037743
  9
$TDUCREATE
 40
2451306.577704410
  9
$TDUPDATE
 40
2456784.316813866
  9
$TDUUPDATE
 40
2456784.233480532
  9
$TDINDWG
 40
0.0504652431
  9
$TDUSRTIMER
 40
0.0504652431
  9
$USRTIMER
 70
     1
  9
$ANGBASE
 50
0.0
  9
$ANGDIR
 70
     0
  9
$PDMODE
 70
    35
  9
$PDSIZE
 40
-2.0
  9
$PLINEWID
 40
0.0
  9
$SPLFRAME
 70
     0
  9
$SPLINETYPE
 70
     6
  9
$SPLINESEGS
 70
     8
  9
$HANDSEED
  5
920
  9
$SURFTAB1
 70
     6
  9
$SURFTAB2
 70
     6
  9
$SURFTYPE
 70
     6
  9
$SURFU
 70
     6
  9
$SURFV
 70
     6
  9
$UCSBASE
  2

  9
$UCSNAME
  2

  9
$UCSORG
 10
0.0
 20
0.0
 30
0.0
  9
$UCSXDIR
 10
1.0
 20
0.0
 30
0.0
  9
$UCSYDIR
 10
0.0
 20
1.0
 30
0.0
  9
$UCSORTHOREF
  2

  9
$UCSORTHOVIEW
 70
     0
  9
$UCSORGTOP
 10
0.0
 20
0.0
 30
0.0
  9
$UCSORGBOTTOM
 10
0.0
 20
0.0
 30
0.0
  9
$UCSORGLEFT
 10
0.0
 20
0.0
 30
0.0
  9
$UCSORGRIGHT
 10
0.0
 20
0.0
 30
0.0
  9
$UCSORGFRONT
 10
0.0
 20
0.0
 30
0.0
  9
$UCSORGBACK
 10
0.0
 20
0.0
 30
0.0
  9
$PUCSBASE
  2

  9
$PUCSNAME
  2

  9
$PUCSORG
 10
0.0
 20
0.0
 30
0.0
  9
$PUCSXDIR
 10
1.0
 20
0.0
 30
0.0
  9
$PUCSYDIR
 10
0.0
 20
1.0
 30
0.0
  9
$PUCSORTHOREF
  2

  9
$PUCSORTHOVIEW
 70
     0
  9
$PUCSORGTOP
 10
0.0
 20
0.0
 30
0.0
  9
$PUCSORGBOTTOM
 10
0.0
 20
0.0
 30
0.0
  9
$PUCSORGLEFT
 10
0.0
 20
0.0
 30
0.0
  9
$PUCSORGRIGHT
 10
0.0
 20
0.0
 30
0.0
  9
$PUCSORGFRONT
 10
0.0
 20
0.0
 30
0.0
  9
$PUCSORGBACK
 10
0.0
 20
0.0
 30
0.0
  9
$USERI1
 70
     0
  9
$USERI2
 70
     0
  9
$USERI3
 70
     0
  9
$USERI4
 70
     0
  9
$USERI5
 70
     0
  9
$USERR1
 40
0.0
  9
$USERR2
 40
0.0
  9
$USERR3
 40
0.0
  9
$USERR4
 40
0.0
  9
$USERR5
 40
0.0
  9
$WORLDVIEW
 70
     1
  9
$SHADEDGE
 70
     3
  9
$SHADEDIF
 70
    70
  9
$TILEMODE
 70
     1
  9
$MAXACTVP
 70
    48
  9
$PINSBASE
 10
0.0
 20
0.0
 30
0.0
  9
$PLIMCHECK
 70
     0
  9
$PEXTMIN
 10
1.000000000000000E+20
 20
1.000000000000000E+20
 30
1.000000000000000E+20
  9
$PEXTMAX
 10
-1.000000000000000E+20
 20
-1.000000000000000E+20
 30
-1.000000000000000E+20
  9
$PLIMMIN
 10
0.0
 20
0.0
  9
$PLIMMAX
 10
420.0
 20
297.0
  9
$UNITMODE
 70
     0
  9
$VISRETAIN
 70
     1
  9
$PLINEGEN
 70
     0
  9
$PSLTSCALE
 70
     1
  9
$TREEDEPTH
 70
  3020
  9
$CMLSTYLE
  2
STANDARD
  9
$CMLJUST
 70
     0
  9
$CMLSCALE
 40
20.0
  9
$PROXYGRAPHICS
 70
     1
  9
$MEASUREMENT
 70
     1
  9
$CELWEIGHT
370
    -1
  9
$ENDCAPS
280
     0
  9
$JOINSTYLE
280
     0
  9
$LWDISPLAY
290
     0
  9
$INSUNITS
 70
     0
  9
$HYPERLINKBASE
  1

  9
$STYLESHEET
  1
HP_Farbe_Dünn.ctb
  9
$XEDIT
290
     1
  9
$CEPSNTYPE
380
     0
  9
$PSTYLEMODE
290
     1
  9
$FINGERPRINTGUID
  2
{74F6631A-3000-4339-AD62-96EBA61F8633}
  9
$VERSIONGUID
  2
{8BDFF952-2A30-4475-A846-8934610B87D7}
  9
$EXTNAMES
290
     1
  9
$PSVPSCALE
 40
0.0
  9
$OLESTARTUP
290
     0
  0
ENDSEC
  0
SECTION
  2
CLASSES
  0
CLASS
  1
PH_VARS
  2
PhoenixVars
  3
PHOENIX7010
 90
        0
280
     0
281
     0
  0
CLASS
  1
PH_GROUP
  2
PhGroup
  3
PHOENIX7010
 90
        0
280
     0
281
     0
  0
CLASS
  1
ACDBDICTIONARYWDFLT
  2
AcDbDictionaryWithDefault
  3
ObjectDBX Classes
 90
        0
280
     0
281
     0
  0
CLASS
  1
MATERIAL
  2
AcDbMaterial
  3
ObjectDBX Classes
 90
     1153
280
     0
281
     0
  0
CLASS
  1
VISUALSTYLE
  2
AcDbVisualStyle
  3
ObjectDBX Classes
 90
     4095
280
     0
281
     0
  0
CLASS
  1
TABLESTYLE
  2
AcDbTableStyle
  3
ObjectDBX Classes
 90
     4095
280
     0
281
     0
  0
CLASS
  1
SCALE
  2
AcDbScale
  3
ObjectDBX Classes
 90
     1153
280
     0
281
     0
  0
CLASS
  1
MLEADERSTYLE
  2
AcDbMLeaderStyle
  3
ACDB_MLEADERSTYLE_CLASS
 90
     4095
280
     0
281
     0
  0
CLASS
  1
CELLSTYLEMAP
  2
AcDbCellStyleMap
  3
ObjectDBX Classes
 90
     1152
280
     0
281
     0
  0
CLASS
  1
DICTIONARYVAR
  2
AcDbDictionaryVar
  3
ObjectDBX Classes
 90
        0
280
     0
281
     0
  0
CLASS
  1
AEC_REFEDIT_STATUS_TRACKER
  2
AecDbRefEditStatusTracker
  3
AecArchBase60|Product Desc: Autodesk Architectural Desktop 2007 |Company: Autodesk,Inc. |WEB Address: www.autodesk.com
 90
    32897
280
     0
281
     0
  0
CLASS
  1
NPOCOLLECTION
  2
AcDbImpNonPersistentObjectsCollection
  3
ObjectDBX Classes
 90
    33921
280
     0
281
     0
  0
CLASS
  1
PDFDEFINITION
  2
AcDbPdfDefinition
  3
ObjectDBX Classes
 90
     1153
280
     0
281
     0
  0
CLASS
  1
PDFUNDERLAY
  2
AcDbPdfReference
  3
ObjectDBX Classes
 90
     1153
280
     0
281
     1
  0
CLASS
  1
ACDBPLACEHOLDER
  2
AcDbPlaceHolder
  3
ObjectDBX Classes
 90
        0
280
     0
281
     0
  0
CLASS
  1
LAYOUT
  2
AcDbLayout
  3
ObjectDBX Classes
 90
        0
280
     0
281
     0
  0
ENDSEC
  0
SECTION
  2
TABLES
  0
TABLE
  2
VPORT
  5
8
102
{ACAD_XDICTIONARY
360
600
102
}
330
0
100
AcDbSymbolTable
 70
     1
  0
VPORT
  5
3AB
330
8
100
AcDbSymbolTableRecord
100
AcDbViewportTableRecord
  2
*ACTIVE
 70
     0
 10
0.0
 20
0.0
 11
1.0
 21
1.0
 12
210.0000009778888
 22
148.500000691507
 13
0.0
 23
0.0
 14
10.0
 24
10.0
 15
10.0
 25
10.0
 16
0.0
 26
0.0
 36
1.0
 17
0.0
 27
0.0
 37
0.0
 40
297.0728874183379
 41
1.746234067207415
 42
50.0
 43
0.0
 44
0.0
 50
0.0
 51
0.0
 71
     0
 72
   100
 73
     1
 74
     0
 75
     0
 76
     0
 77
     0
 78
     0
281
     0
 65
     1
110
0.0
120
0.0
130
0.0
111
1.0
121
0.0
131
0.0
112
0.0
122
1.0
132
0.0
 79
     0
146
0.0
  0
ENDTAB
  0
TABLE
  2
LTYPE
  5
5
330
0
100
AcDbSymbolTable
 70
     4
  0
LTYPE
  5
12
330
5
100
AcDbSymbolTableRecord
100
AcDbLinetypeTableRecord
  2
BYBLOCK
 70
     0
  3

 72
    65
 73
     0
 40
0.0
  0
LTYPE
  5
13
330
5
100
AcDbSymbolTableRecord
100
AcDbLinetypeTableRecord
  2
BYLAYER
 70
     0
  3

 72
    65
 73
     0
 40
0.0
  0
LTYPE
  5
14
330
5
100
AcDbSymbolTableRecord
100
AcDbLinetypeTableRecord
  2
CONTINUOUS
 70
     0
  3
Solid line
 72
    65
 73
     0
 40
0.0
  0
LTYPE
  5
318
330
5
100
AcDbSymbolTableRecord
100
AcDbLinetypeTableRecord
  2
ACAD_ISO04W100
 70
     0
  3
____ . ____ . ____ . ____ . ____ . ____ . ____ 
 72
    65
 73
     4
 40
30.5
 49
24.0
 74
     0
 49
-3.0
 74
     0
 49
0.5
 74
     0
 49
-3.0
 74
     0
  0
LTYPE
  5
5B0
330
5
100
AcDbSymbolTableRecord
100
AcDbLinetypeTableRecord
  2
ACAD_ISO05W100
 70
     0
  3
ISO Lang gestrichelt doppelpunktiert ____ .. __
 72
    65
 73
     6
 40
33.0
 49
24.0
 74
     0
 49
-3.0
 74
     0
 49
0.0
 74
     0
 49
-3.0
 74
     0
 49
0.0
 74
     0
 49
-3.0
 74
     0
  0
ENDTAB
  0
TABLE
  2
LAYER
  5
2
102
{ACAD_XDICTIONARY
360
4DC
102
}
330
0
100
AcDbSymbolTable
 70
     7
  0
LAYER
  5
E
102
{ACAD_XDICTIONARY
360
3F9
102
}
330
2
100
AcDbSymbolTableRecord
100
AcDbLayerTableRecord
  2
0
 70
     0
 62
     7
  6
CONTINUOUS
370
    -3
390
3AE
  0
LAYER
  5
21
102
{ACAD_XDICTIONARY
360
3FB
102
}
330
2
100
AcDbSymbolTableRecord
100
AcDbLayerTableRecord
  2
BZA45776
 70
     0
 62
     7
  6
CONTINUOUS
370
    -3
390
3AE
  0
LAYER
  5
83
102
{ACAD_XDICTIONARY
360
3FD
102
}
330
2
100
AcDbSymbolTableRecord
100
AcDbLayerTableRecord
  2
31
 70
     0
 62
     7
  6
CONTINUOUS
370
    -3
390
3AE
  0
LAYER
  5
157
102
{ACAD_XDICTIONARY
360
3FF
102
}
330
2
100
AcDbSymbolTableRecord
100
AcDbLayerTableRecord
  2
RAHMEN
 70
     0
 62
     7
  6
CONTINUOUS
370
    -3
390
3AE
  0
LAYER
  5
1D3
102
{ACAD_XDICTIONARY
360
401
102
}
330
2
100
AcDbSymbolTableRecord
100
AcDbLayerTableRecord
  2
2KOPF
 70
     0
 62
     7
  6
CONTINUOUS
370
    -3
390
3AE
  0
LAYER
  5
27A
102
{ACAD_XDICTIONARY
360
403
102
}
330
2
100
AcDbSymbolTableRecord
100
AcDbLayerTableRecord
  2
PH_HILFSELEMENTE
 70
     0
 62
    -7
  6
CONTINUOUS
370
    -3
390
3AE
  0
LAYER
  5
319
330
2
100
AcDbSymbolTableRecord
100
AcDbLayerTableRecord
  2
DEFPOINTS
 70
     0
 62
     7
  6
CONTINUOUS
290
     0
370
    -3
390
3AE
  0
ENDTAB
  0
TABLE
  2
STYLE
  5
3
330
0
100
AcDbSymbolTable
 70
     1
  0
STYLE
  5
F
330
3
100
AcDbSymbolTableRecord
100
AcDbTextStyleTableRecord
  2
STANDARD
 70
     0
 40
0.0
 41
1.0
 50
0.0
 71
     0
 42
2.5
  3
isocp.shx
  4

  0
ENDTAB
  0
TABLE
  2
VIEW
  5
6
330
0
100
AcDbSymbolTable
 70
     0
  0
ENDTAB
  0
TABLE
  2
UCS
  5
7
330
0
100
AcDbSymbolTable
 70
     0
  0
ENDTAB
  0
TABLE
  2
APPID
  5
9
330
0
100
AcDbSymbolTable
 70
     6
  0
APPID
  5
10
330
9
100
AcDbSymbolTableRecord
100
AcDbRegAppTableRecord
  2
ACAD
 70
     0
  0
APPID
  5
25C
330
9
100
AcDbSymbolTableRecord
100
AcDbRegAppTableRecord
  2
PHOENIX7010
 70
     0
  0
APPID
  5
4DB
330
9
100
AcDbSymbolTableRecord
100
AcDbRegAppTableRecord
  2
ACAD_PSEXT
 70
     0
  0
APPID
  5
52B
330
9
100
AcDbSymbolTableRecord
100
AcDbRegAppTableRecord
  2
ACAD_EXEMPT_FROM_CAD_STANDARDS
 70
     0
  0
APPID
  5
5AF
330
9
100
AcDbSymbolTableRecord
100
AcDbRegAppTableRecord
  2
AdeskUnderlayLayerOverrideData
 70
     0
  0
APPID
  5
62C
330
9
100
AcDbSymbolTableRecord
100
AcDbRegAppTableRecord
  2
ACAD_MLEADERVER
 70
     0
  0
ENDTAB
  0
TABLE
  2
DIMSTYLE
  5
A
330
0
100
AcDbSymbolTable
 70
     4
100
AcDbDimStyleTable
 71
     1
340
1D
  0
DIMSTYLE
105
1D
330
A
100
AcDbSymbolTableRecord
100
AcDbDimStyleTableRecord
  2
STANDARD
 70
     0
340
F
  0
DIMSTYLE
105
263
330
A
100
AcDbSymbolTableRecord
100
AcDbDimStyleTableRecord
  2
PHOENIX
 70
     0
  4
"
 41
3.72
 42
0.0
 43
7.0
 44
1.5
 73
     0
 74
     0
 77
     1
 78
     8
140
3.5
141
0.0
143
0.0393700787401575
146
0.6666666666666666
147
2.0
172
     1
173
     1
176
     1
177
     1
178
     5
271
     2
272
     2
284
     8
288
     1
289
     0
340
F
341
25D
343
25D
344
25D
  0
DIMSTYLE
105
264
330
A
100
AcDbSymbolTableRecord
100
AcDbDimStyleTableRecord
  2
PHOENIX$4
 70
     0
  4
"
 41
3.72
 42
0.0
 43
7.0
 44
1.5
 73
     0
 74
     0
 77
     1
 78
     8
140
3.5
141
0.0
143
0.0393700787401575
146
0.6666666666666666
147
2.0
173
     1
176
     1
177
     1
178
     5
271
     2
272
     2
281
     1
284
     8
288
     1
289
     0
340
F
341
25D
343
25D
344
25D
  0
DIMSTYLE
105
442
330
A
100
AcDbSymbolTableRecord
100
AcDbDimStyleTableRecord
  2
ISO-25
 70
     0
 41
2.5
 42
0.625
 43
3.75
 44
1.25
 73
     0
 74
     0
 77
     1
 78
     8
140
2.5
141
2.5
143
0.03937007874016
147
0.625
171
     3
172
     1
271
     2
272
     2
274
     3
278
    44
283
     0
284
     8
340
F
  0
ENDTAB
  0
TABLE
  2
BLOCK_RECORD
  5
1
330
0
100
AcDbSymbolTable
 70
     2
  0
BLOCK_RECORD
  5
18
330
1
100
AcDbSymbolTableRecord
100
AcDbBlockTableRecord
  2
*MODEL_SPACE
340
3F5
  0
BLOCK_RECORD
  5
15
330
1
100
AcDbSymbolTableRecord
100
AcDbBlockTableRecord
  2
*PAPER_SPACE
340
3F6
  0
BLOCK_RECORD
  5
25D
330
1
100
AcDbSymbolTableRecord
100
AcDbBlockTableRecord
  2
_OPEN15
340
0
  0
BLOCK_RECORD
  5
27B
330
1
100
AcDbSymbolTableRecord
100
AcDbBlockTableRecord
  2
PH_GRPBLK
340
0
102
{BLKREFS
331
450
331
4E5
331
4E8
331
520
331
647
102
}
  0
ENDTAB
  0
ENDSEC
  0
SECTION
  2
BLOCKS
  0
BLOCK
  5
19
330
18
100
AcDbEntity
  8
0
100
AcDbBlockBegin
  2
*MODEL_SPACE
 70
     0
 10
0.0
 20
0.0
 30
0.0
  3
*MODEL_SPACE
  1

  0
ENDBLK
  5
1A
330
18
100
AcDbEntity
  8
0
100
AcDbBlockEnd
  0
BLOCK
  5
16
330
15
100
AcDbEntity
 67
     1
  8
0
100
AcDbBlockBegin
  2
*PAPER_SPACE
 70
     0
 10
0.0
 20
0.0
 30
0.0
  3
*PAPER_SPACE
  1

  0
ENDBLK
  5
17
330
15
100
AcDbEntity
 67
     1
  8
0
100
AcDbBlockEnd
  0
BLOCK
  5
261
330
25D
100
AcDbEntity
  8
0
100
AcDbBlockBegin
  2
_OPEN15
 70
     0
 10
1.0
 20
0.0
 30
0.0
  3
_OPEN15
  1

  0
LINE
  5
25E
330
25D
100
AcDbEntity
  8
0
  6
ByBlock
 62
     0
100
AcDbLine
 10
0.0
 20
0.0
 30
0.0
 11
1.0
 21
0.0
 31
0.0
  0
LINE
  5
25F
330
25D
100
AcDbEntity
  8
0
  6
ByBlock
 62
     0
100
AcDbLine
 10
1.0
 20
0.0
 30
0.0
 11
0.0
 21
0.1316524975873958
 31
0.0
  0
LINE
  5
260
330
25D
100
AcDbEntity
  8
0
  6
ByBlock
 62
     0
100
AcDbLine
 10
1.0
 20
0.0
 30
0.0
 11
0.0
 21
-0.1316524975873958
 31
0.0
  0
ENDBLK
  5
262
330
25D
100
AcDbEntity
  8
0
100
AcDbBlockEnd
  0
BLOCK
  5
27D
330
27B
100
AcDbEntity
  8
0
 62
     7
100
AcDbBlockBegin
  2
PH_GRPBLK
 70
     0
 10
0.0
 20
0.0
 30
0.0
  3
PH_GRPBLK
  1

  0
POINT
  5
27C
330
27B
100
AcDbEntity
  8
DEFPOINTS
  6
Continuous
 62
     0
100
AcDbPoint
 10
0.0
 20
0.0
 30
0.0
  0
ENDBLK
  5
27E
330
27B
100
AcDbEntity
  8
0
 62
     7
100
AcDbBlockEnd
  0
ENDSEC
  0
SECTION
  2
ENTITIES
  0
LINE
  5
22
330
18
100
AcDbEntity
  8
BZA45776
  6
Continuous
 62
     1
100
AcDbLine
 10
74.68264384691202
 20
151.7459666564182
 30
0.0
 11
74.68264384691202
 21
131.2530925109104
 31
0.0
1001
PHOENIX7010
1002
{
1070
    41
1040
0.5
1002
}
  0
TEXT
  5
23
330
18
100
AcDbEntity
  8
BZA45776
 62
     5
100
AcDbText
 10
89.33590376854702
 20
162.0027720763401
 30
0.0
 40
3.5
  1
 9  
 72
     1
 11
92.66701884691201
 21
162.0027720763401
 31
0.0
100
AcDbText
1001
PHOENIX7010
1002
{
1070
    41
1040
0.5
1002
}
  0
TEXT
  5
24
330
18
100
AcDbEntity
  8
BZA45776
 62
     5
100
AcDbText
 10
66.12337871019327
 20
134.2055003478244
 30
0.0
 40
3.5
  1
 3 
 72
     1
 11
68.74837871019327
 21
134.2055003478244
 31
0.0
100
AcDbText
1001
PHOENIX7010
1002
{
1070
    41
1040
0.5
1002
}
  0
TEXT
  5
25
330
18
100
AcDbEntity
  8
BZA45776
 62
     5
100
AcDbText
 10
76.90984721605264
 20
134.2706248595432
 30
0.0
 40
3.5
  1
 2 
100
AcDbText
1001
PHOENIX7010
1002
{
1070
    41
1040
0.5
1002
}
  0
TEXT
  5
26
330
18
100
AcDbEntity
  8
BZA45776
 62
     5
100
AcDbText
 10
92.40310283128701
 20
134.2340953185276
 30
0.0
 40
3.5
  1
1.2
100
AcDbText
1001
PHOENIX7010
1002
{
1070
    41
1040
0.5
1002
}
  0
TEXT
  5
27
330
18
100
AcDbEntity
  8
BZA45776
 62
     5
100
AcDbText
 10
81.44239726488077
 20
124.3249461486057
 30
0.0
 40
3.5
  1
5.2 
 72
     1
 11
85.11739726488077
 21
124.3249461486057
 31
0.0
100
AcDbText
1001
PHOENIX7010
1002
{
1070
    41
1040
0.5
1002
}
  0
TEXT
  5
28
330
18
100
AcDbEntity
  8
BZA45776
 62
     5
100
AcDbText
 10
97.28408427659951
 20
124.3122203185275
 30
0.0
 40
3.5
  1
2.2
100
AcDbText
1001
PHOENIX7010
1002
{
1070
    41
1040
0.5
1002
}
  0
TEXT
  5
29
330
18
100
AcDbEntity
  8
BZA45776
 62
     5
100
AcDbText
 10
96.32824931566203
 20
114.2894694640354
 30
0.0
 40
3.5
  1
12.8
 72
     1
 11
100.178249315662
 21
114.2894694640354
 31
0.0
100
AcDbText
1001
PHOENIX7010
1002
{
1070
    41
1040
0.5
1002
}
  0
LINE
  5
2A
330
18
100
AcDbEntity
  8
BZA45776
 62
     1
100
AcDbLine
 10
118.0097617668339
 20
164.0530345275119
 30
0.0
 11
196.682643846912
 21
164.0530345275119
 31
0.0
1001
PHOENIX7010
1002
{
1070
    41
1040
0.5
1002
}
  0
LINE
  5
2B
330
18
100
AcDbEntity
  8
BZA45776
 62
     1
100
AcDbLine
 10
125.6825217765995
 20
169.1323497130588
 30
0.0
 11
125.6825217765995
 21
147.1992595030979
 31
0.0
1001
PHOENIX7010
1002
{
1070
    41
1040
0.5
1002
}
  0
LINE
  5
2C
330
18
100
AcDbEntity
  8
BZA45776
 62
     1
100
AcDbLine
 10
185.6825217765995
 20
169.1323497130588
 30
0.0
 11
185.6825217765995
 21
147.1992595030979
 31
0.0
1001
PHOENIX7010
1002
{
1070
    41
1040
0.5
1002
}
  0
TEXT
  5
2D
330
18
100
AcDbEntity
  8
BZA45776
 62
     5
100
AcDbText
 10
125.3419496863873
 20
104.2823817565158
 30
0.0
 40
3.5
  1
33.5
 72
     1
 11
129.6144370598026
 21
104.2823817565158
 31
0.0
100
AcDbText
1001
PHOENIX7010
1002
{
1070
    41
1040
0.5
1002
}
  0
TEXT
  5
2E
330
18
100
AcDbEntity
  8
BZA45776
 62
     5
100
AcDbText
 10
133.0467795890995
 20
134.3402354552463
 30
0.0
 40
3.5
  1
M 4
100
AcDbText
1001
PHOENIX7010
1002
{
1070
    41
1040
0.5
1002
}
  0
TEXT
  5
2F
330
18
100
AcDbEntity
  8
BZA45776
 62
     5
100
AcDbText
 10
174.1807822746464
 20
134.3137156798557
 30
0.0
 40
3.5
  1
M 4
100
AcDbText
1001
PHOENIX7010
1002
{
1070
    41
1040
0.5
1002
}
  0
TEXT
  5
30
330
18
100
AcDbEntity
  8
BZA45776
 62
     5
100
AcDbText
 10
152.1369285148807
 20
124.3635814025119
 30
0.0
 40
3.5
  1
 15 
 72
     1
 11
155.6369285148807
 21
124.3635814025119
 31
0.0
100
AcDbText
1001
PHOENIX7010
1002
{
1070
    41
1040
0.5
1002
}
  0
CIRCLE
  5
31
330
18
100
AcDbEntity
  8
BZA45776
  6
Continuous
 62
     1
100
AcDbCircle
 10
54.68264384691202
 20
149.2530314757541
 30
0.0
 40
0.281287282705307
1001
PHOENIX7010
1002
{
1070
    41
1040
0.5
1002
}
  0
CIRCLE
  5
32
330
18
100
AcDbEntity
  8
BZA45776
  6
Continuous
 62
     1
100
AcDbCircle
 10
54.68264384691202
 20
149.2530314757541
 30
0.0
 40
0.5205878019332886
1001
PHOENIX7010
1002
{
1070
    41
1040
0.5
1002
}
  0
LINE
  5
34
330
18
100
AcDbEntity
  8
BZA45776
  6
Continuous
 62
     1
100
AcDbLine
 10
64.68264384691202
 20
170.0544383361057
 30
0.0
 11
64.68264384691202
 21
155.8530375792697
 31
0.0
1001
PHOENIX7010
1002
{
1070
    41
1040
0.5
1002
}
  0
LINE
  5
35
330
18
100
AcDbEntity
  8
BZA45776
  6
Continuous
 62
     1
100
AcDbLine
 10
82.21255107347451
 20
170.0544383361057
 30
0.0
 11
62.68264384691201
 21
170.0544383361057
 31
0.0
1001
PHOENIX7010
1002
{
1070
    41
1040
0.5
1002
}
  0
LINE
  5
36
330
18
100
AcDbEntity
  8
BZA45776
  6
Continuous
 62
     1
100
AcDbLine
 10
75.88271708909951
 20
155.8530375792697
 30
0.0
 11
62.68264384691201
 21
155.8530375792697
 31
0.0
1001
PHOENIX7010
1002
{
1070
    41
1040
0.5
1002
}
  0
LINE
  5
37
330
18
100
AcDbEntity
  8
BZA45776
  6
Continuous
 62
     1
100
AcDbLine
 10
64.68264384691202
 20
170.0544383361057
 30
0.0
 11
64.22579570238077
 21
166.5843760802463
 31
0.0
1001
PHOENIX7010
1002
{
1070
    41
1040
0.5
1002
}
  0
LINE
  5
38
330
18
100
AcDbEntity
  8
BZA45776
  6
Continuous
 62
     1
100
AcDbLine
 10
64.68264384691202
 20
170.0544383361057
 30
0.0
 11
65.13949199144327
 21
166.5843760802463
 31
0.0
1001
PHOENIX7010
1002
{
1070
    41
1040
0.5
1002
}
  0
LINE
  5
39
330
18
100
AcDbEntity
  8
BZA45776
  6
Continuous
 62
     1
100
AcDbLine
 10
64.68264384691202
 20
155.8530375792697
 30
0.0
 11
64.22579570238077
 21
159.3230998351291
 31
0.0
1001
PHOENIX7010
1002
{
1070
    41
1040
0.5
1002
}
  0
LINE
  5
3A
330
18
100
AcDbEntity
  8
BZA45776
  6
Continuous
 62
     1
100
AcDbLine
 10
64.68264384691202
 20
155.8530375792697
 30
0.0
 11
65.13949199144327
 21
159.3230998351291
 31
0.0
1001
PHOENIX7010
1002
{
1070
    41
1040
0.5
1002
}
  0
TEXT
  5
3B
330
18
100
AcDbEntity
  8
BZA45776
 62
     5
100
AcDbText
 10
63.68264384691201
 20
158.5786540343479
 30
0.0
 40
3.5
  1
 3.6 
 50
90.0
 72
     1
 11
63.68264384691201
 21
162.9536540343479
 31
0.0
100
AcDbText
1001
PHOENIX7010
1002
{
1070
    41
1040
0.5
1002
}
  0
LINE
  5
3D
330
18
100
AcDbEntity
  8
BZA45776
  6
Continuous
 62
     1
100
AcDbLine
 10
54.68264384691202
 20
173.4530589415744
 30
0.0
 11
54.68264384691202
 21
152.4530589415744
 31
0.0
1001
PHOENIX7010
1002
{
1070
    41
1040
0.5
1002
}
  0
LINE
  5
3E
330
18
100
AcDbEntity
  8
BZA45776
  6
Continuous
 62
     1
100
AcDbLine
 10
82.68252177659951
 20
173.4530589415744
 30
0.0
 11
52.68264384691201
 21
173.4530589415744
 31
0.0
1001
PHOENIX7010
1002
{
1070
    41
1040
0.5
1002
}
  0
LINE
  5
3F
330
18
100
AcDbEntity
  8
BZA45776
  6
Continuous
 62
     1
100
AcDbLine
 10
82.68264384691201
 20
152.4530589415744
 30
0.0
 11
52.68264384691201
 21
152.4530589415744
 31
0.0
1001
PHOENIX7010
1002
{
1070
    41
1040
0.5
1002
}
  0
LINE
  5
40
330
18
100
AcDbEntity
  8
BZA45776
  6
Continuous
 62
     1
100
AcDbLine
 10
54.68264384691202
 20
173.4530589415744
 30
0.0
 11
54.22579570238077
 21
169.9829966857151
 31
0.0
1001
PHOENIX7010
1002
{
1070
    41
1040
0.5
1002
}
  0
LINE
  5
41
330
18
100
AcDbEntity
  8
BZA45776
  6
Continuous
 62
     1
100
AcDbLine
 10
54.68264384691202
 20
173.4530589415744
 30
0.0
 11
55.13949199144327
 21
169.9829966857151
 31
0.0
1001
PHOENIX7010
1002
{
1070
    41
1040
0.5
1002
}
  0
LINE
  5
42
330
18
100
AcDbEntity
  8
BZA45776
  6
Continuous
 62
     1
100
AcDbLine
 10
54.68264384691202
 20
152.4530589415744
 30
0.0
 11
54.22579570238077
 21
155.9231211974338
 31
0.0
1001
PHOENIX7010
1002
{
1070
    41
1040
0.5
1002
}
  0
LINE
  5
43
330
18
100
AcDbEntity
  8
BZA45776
  6
Continuous
 62
     1
100
AcDbLine
 10
54.68264384691202
 20
152.4530589415744
 30
0.0
 11
55.13949199144327
 21
155.9231211974338
 31
0.0
1001
PHOENIX7010
1002
{
1070
    41
1040
0.5
1002
}
  0
TEXT
  5
44
330
18
100
AcDbEntity
  8
BZA45776
 62
     5
100
AcDbText
 10
53.68264384691201
 20
158.577952130051
 30
0.0
 40
3.5
  1
 5.3 
 50
90.0
 72
     1
 11
53.68264384691201
 21
162.952952130051
 31
0.0
100
AcDbText
1001
PHOENIX7010
1002
{
1070
    41
1040
0.5
1002
}
  0
LINE
  5
46
330
18
100
AcDbEntity
  8
BZA45776
  6
Continuous
 62
     1
100
AcDbLine
 10
54.68264384691202
 20
183.2530467345432
 30
0.0
 11
54.68264384691202
 21
173.4530589415744
 31
0.0
1001
PHOENIX7010
1002
{
1070
    41
1040
0.5
1002
}
  0
LINE
  5
47
330
18
100
AcDbEntity
  8
BZA45776
  6
Continuous
 62
     1
100
AcDbLine
 10
79.88271708909952
 20
183.2530467345432
 30
0.0
 11
52.68264384691201
 21
183.2530467345432
 31
0.0
1001
PHOENIX7010
1002
{
1070
    41
1040
0.5
1002
}
  0
LINE
  5
48
330
18
100
AcDbEntity
  8
BZA45776
  6
Continuous
 62
     1
100
AcDbLine
 10
54.68264384691202
 20
183.2530467345432
 30
0.0
 11
54.22579570238077
 21
179.7829844786838
 31
0.0
1001
PHOENIX7010
1002
{
1070
    41
1040
0.5
1002
}
  0
LINE
  5
49
330
18
100
AcDbEntity
  8
BZA45776
  6
Continuous
 62
     1
100
AcDbLine
 10
54.68264384691202
 20
183.2530467345432
 30
0.0
 11
55.13949199144327
 21
179.7829844786838
 31
0.0
1001
PHOENIX7010
1002
{
1070
    41
1040
0.5
1002
}
  0
LINE
  5
4A
330
18
100
AcDbEntity
  8
BZA45776
  6
Continuous
 62
     1
100
AcDbLine
 10
54.68264384691202
 20
173.4530589415744
 30
0.0
 11
54.22579570238077
 21
176.9231211974338
 31
0.0
1001
PHOENIX7010
1002
{
1070
    41
1040
0.5
1002
}
  0
LINE
  5
4B
330
18
100
AcDbEntity
  8
BZA45776
  6
Continuous
 62
     1
100
AcDbLine
 10
54.68264384691202
 20
173.4530589415744
 30
0.0
 11
55.13949199144327
 21
176.9231211974338
 31
0.0
1001
PHOENIX7010
1002
{
1070
    41
1040
0.5
1002
}
  0
TEXT
  5
4C
330
18
100
AcDbEntity
  8
BZA45776
 62
     5
100
AcDbText
 10
53.68264384691201
 20
173.9779612853244
 30
0.0
 40
3.5
  1
 2.5 
 50
90.0
 72
     1
 11
53.68264384691201
 21
178.3529612853244
 31
0.0
100
AcDbText
1001
PHOENIX7010
1002
{
1070
    41
1040
0.5
1002
}
  0
LINE
  5
4E
330
18
100
AcDbEntity
  8
BZA45776
  6
Continuous
 62
     1
100
AcDbLine
 10
44.68264384691202
 20
183.2530467345432
 30
0.0
 11
44.68264384691202
 21
143.2531077696994
 31
0.0
1001
PHOENIX7010
1002
{
1070
    41
1040
0.5
1002
}
  0
LINE
  5
4F
330
18
100
AcDbEntity
  8
BZA45776
  6
Continuous
 62
     1
100
AcDbLine
 10
54.68264384691202
 20
183.2530467345432
 30
0.0
 11
42.68264384691201
 21
183.2530467345432
 31
0.0
1001
PHOENIX7010
1002
{
1070
    41
1040
0.5
1002
}
  0
LINE
  5
50
330
18
100
AcDbEntity
  8
BZA45776
  6
Continuous
 62
     1
100
AcDbLine
 10
75.88259501878702
 20
143.2531077696994
 30
0.0
 11
42.68264384691201
 21
143.2531077696994
 31
0.0
1001
PHOENIX7010
1002
{
1070
    41
1040
0.5
1002
}
  0
LINE
  5
51
330
18
100
AcDbEntity
  8
BZA45776
  6
Continuous
 62
     1
100
AcDbLine
 10
44.68264384691202
 20
183.2530467345432
 30
0.0
 11
44.22579570238077
 21
179.7829844786838
 31
0.0
1001
PHOENIX7010
1002
{
1070
    41
1040
0.5
1002
}
  0
LINE
  5
52
330
18
100
AcDbEntity
  8
BZA45776
  6
Continuous
 62
     1
100
AcDbLine
 10
44.68264384691202
 20
183.2530467345432
 30
0.0
 11
45.13949199144327
 21
179.7829844786838
 31
0.0
1001
PHOENIX7010
1002
{
1070
    41
1040
0.5
1002
}
  0
LINE
  5
53
330
18
100
AcDbEntity
  8
BZA45776
  6
Continuous
 62
     1
100
AcDbLine
 10
44.68264384691202
 20
143.2531077696994
 30
0.0
 11
44.22579570238077
 21
146.7231700255588
 31
0.0
1001
PHOENIX7010
1002
{
1070
    41
1040
0.5
1002
}
  0
LINE
  5
54
330
18
100
AcDbEntity
  8
BZA45776
  6
Continuous
 62
     1
100
AcDbLine
 10
44.68264384691202
 20
143.2531077696994
 30
0.0
 11
45.13949199144327
 21
146.7231700255588
 31
0.0
1001
PHOENIX7010
1002
{
1070
    41
1040
0.5
1002
}
  0
TEXT
  5
55
330
18
100
AcDbEntity
  8
BZA45776
 62
     5
100
AcDbText
 10
43.68262858812295
 20
159.7529704405979
 30
0.0
 40
3.5
  1
 10 
 50
90.0
 72
     1
 11
43.68262858812295
 21
163.2529704405979
 31
0.0
100
AcDbText
1001
PHOENIX7010
1002
{
1070
    41
1040
0.5
1002
}
  0
LINE
  5
57
330
18
100
AcDbEntity
  8
BZA45776
  6
Continuous
 62
     1
100
AcDbLine
 10
82.68264384691201
 20
152.4530589415744
 30
0.0
 11
82.68264384691201
 21
131.2531077696994
 31
0.0
1001
PHOENIX7010
1002
{
1070
    41
1040
0.5
1002
}
  0
LINE
  5
58
330
18
100
AcDbEntity
  8
BZA45776
  6
Continuous
 62
     1
100
AcDbLine
 10
87.48257060472452
 20
152.4530589415744
 30
0.0
 11
87.48257060472452
 21
131.2531077696994
 31
0.0
1001
PHOENIX7010
1002
{
1070
    41
1040
0.5
1002
}
  0
LINE
  5
59
330
18
100
AcDbEntity
  8
BZA45776
  6
Continuous
 62
     1
100
AcDbLine
 10
82.68264384691201
 20
133.2531077696994
 30
0.0
 11
79.21258159105263
 21
132.7962596251682
 31
0.0
1001
PHOENIX7010
1002
{
1070
    41
1040
0.5
1002
}
  0
LINE
  5
5A
330
18
100
AcDbEntity
  8
BZA45776
  6
Continuous
 62
     1
100
AcDbLine
 10
82.68264384691201
 20
133.2531077696994
 30
0.0
 11
79.21258159105263
 21
133.7099559142307
 31
0.0
1001
PHOENIX7010
1002
{
1070
    41
1040
0.5
1002
}
  0
LINE
  5
5B
330
18
100
AcDbEntity
  8
BZA45776
  6
Continuous
 62
     1
100
AcDbLine
 10
87.48257060472452
 20
133.2531077696994
 30
0.0
 11
90.95263286058388
 21
132.7962596251682
 31
0.0
1001
PHOENIX7010
1002
{
1070
    41
1040
0.5
1002
}
  0
LINE
  5
5C
330
18
100
AcDbEntity
  8
BZA45776
  6
Continuous
 62
     1
100
AcDbLine
 10
87.48257060472452
 20
133.2531077696994
 30
0.0
 11
90.95263286058388
 21
133.7099559142307
 31
0.0
1001
PHOENIX7010
1002
{
1070
    41
1040
0.5
1002
}
  0
LINE
  5
5D
330
18
100
AcDbEntity
  8
BZA45776
  6
Continuous
 62
     1
100
AcDbLine
 10
82.68264384691201
 20
133.2531077696994
 30
0.0
 11
97.62929912034952
 21
133.2531077696994
 31
0.0
1001
PHOENIX7010
1002
{
1070
    41
1040
0.5
1002
}
  0
LINE
  5
5F
330
18
100
AcDbEntity
  8
BZA45776
  6
Continuous
 62
     1
100
AcDbLine
 10
74.68264384691202
 20
133.2531230284885
 30
0.0
 11
78.15270610277138
 21
132.7962748839572
 31
0.0
1001
PHOENIX7010
1002
{
1070
    41
1040
0.5
1002
}
  0
LINE
  5
60
330
18
100
AcDbEntity
  8
BZA45776
  6
Continuous
 62
     1
100
AcDbLine
 10
74.68264384691202
 20
133.2531230284885
 30
0.0
 11
82.68264384691201
 21
133.2531230284885
 31
0.0
1001
PHOENIX7010
1002
{
1070
    41
1040
0.5
1002
}
  0
LINE
  5
61
330
18
100
AcDbEntity
  8
BZA45776
  6
Continuous
 62
     1
100
AcDbLine
 10
74.68264384691202
 20
133.2531230284885
 30
0.0
 11
78.15270610277138
 21
133.7099711730197
 31
0.0
1001
PHOENIX7010
1002
{
1070
    41
1040
0.5
1002
}
  0
LINE
  5
63
330
18
100
AcDbEntity
  8
BZA45776
  6
Continuous
 62
     1
100
AcDbLine
 10
74.68267436449014
 20
123.2531077696994
 30
0.0
 11
95.48272319261513
 21
123.2531077696994
 31
0.0
1001
PHOENIX7010
1002
{
1070
    41
1040
0.5
1002
}
  0
LINE
  5
64
330
18
100
AcDbEntity
  8
BZA45776
  6
Continuous
 62
     1
100
AcDbLine
 10
74.68267436449014
 20
133.2531077696994
 30
0.0
 11
74.68267436449014
 21
121.2531077696994
 31
0.0
1001
PHOENIX7010
1002
{
1070
    41
1040
0.5
1002
}
  0
LINE
  5
65
330
18
100
AcDbEntity
  8
BZA45776
  6
Continuous
 62
     1
100
AcDbLine
 10
74.68267436449014
 20
123.2531077696994
 30
0.0
 11
78.15273662034951
 21
122.7962596251682
 31
0.0
1001
PHOENIX7010
1002
{
1070
    41
1040
0.5
1002
}
  0
LINE
  5
66
330
18
100
AcDbEntity
  8
BZA45776
  6
Continuous
 62
     1
100
AcDbLine
 10
74.68267436449014
 20
123.2531077696994
 30
0.0
 11
78.15273662034951
 21
123.7099559142307
 31
0.0
1001
PHOENIX7010
1002
{
1070
    41
1040
0.5
1002
}
  0
LINE
  5
67
330
18
100
AcDbEntity
  8
BZA45776
  6
Continuous
 62
     1
100
AcDbLine
 10
95.48272319261513
 20
123.2531077696994
 30
0.0
 11
92.01269145433389
 21
122.7962596251682
 31
0.0
1001
PHOENIX7010
1002
{
1070
    41
1040
0.5
1002
}
  0
LINE
  5
68
330
18
100
AcDbEntity
  8
BZA45776
  6
Continuous
 62
     1
100
AcDbLine
 10
95.48272319261513
 20
123.2531077696994
 30
0.0
 11
92.01269145433389
 21
123.7099559142307
 31
0.0
1001
PHOENIX7010
1002
{
1070
    41
1040
0.5
1002
}
  0
LINE
  5
69
330
18
100
AcDbEntity
  8
BZA45776
  6
Continuous
 62
     1
100
AcDbLine
 10
95.48272319261513
 20
152.4530589415744
 30
0.0
 11
95.48272319261513
 21
139.2999064757541
 31
0.0
1001
PHOENIX7010
1002
{
1070
    41
1040
0.5
1002
}
  0
LINE
  5
6A
330
18
100
AcDbEntity
  8
BZA45776
  6
Continuous
 62
     1
100
AcDbLine
 10
95.48272319261513
 20
130.9983012511447
 30
0.0
 11
95.48272319261513
 21
121.2530925109104
 31
0.0
1001
PHOENIX7010
1002
{
1070
    41
1040
0.5
1002
}
  0
LINE
  5
6D
330
18
100
AcDbEntity
  8
BZA45776
  6
Continuous
 62
     1
100
AcDbLine
 10
95.48266215745888
 20
123.2531077696994
 30
0.0
 11
92.01259990159952
 21
123.7099559142307
 31
0.0
1001
PHOENIX7010
1002
{
1070
    41
1040
0.5
1002
}
  0
LINE
  5
6E
330
18
100
AcDbEntity
  8
BZA45776
  6
Continuous
 62
     1
100
AcDbLine
 10
95.48266215745888
 20
123.2531077696994
 30
0.0
 11
92.01259990159952
 21
122.7962596251682
 31
0.0
1001
PHOENIX7010
1002
{
1070
    41
1040
0.5
1002
}
  0
LINE
  5
6F
330
18
100
AcDbEntity
  8
BZA45776
  6
Continuous
 62
     1
100
AcDbLine
 10
88.48266215745889
 20
123.2531077696994
 30
0.0
 11
110.8256187004276
 21
123.2531077696994
 31
0.0
1001
PHOENIX7010
1002
{
1070
    41
1040
0.5
1002
}
  0
LINE
  5
70
330
18
100
AcDbEntity
  8
BZA45776
  6
Continuous
 62
     1
100
AcDbLine
 10
104.2826194328495
 20
152.4530589415744
 30
0.0
 11
104.2826194328495
 21
121.2531077696994
 31
0.0
1001
PHOENIX7010
1002
{
1070
    41
1040
0.5
1002
}
  0
LINE
  5
71
330
18
100
AcDbEntity
  8
BZA45776
  6
Continuous
 62
     1
100
AcDbLine
 10
104.2826194328495
 20
123.2531077696994
 30
0.0
 11
107.7526816887089
 21
123.7099559142307
 31
0.0
1001
PHOENIX7010
1002
{
1070
    41
1040
0.5
1002
}
  0
LINE
  5
72
330
18
100
AcDbEntity
  8
BZA45776
  6
Continuous
 62
     1
100
AcDbLine
 10
104.2826194328495
 20
123.2531077696994
 30
0.0
 11
107.7526816887089
 21
122.7962596251682
 31
0.0
1001
PHOENIX7010
1002
{
1070
    41
1040
0.5
1002
}
  0
LINE
  5
74
330
18
100
AcDbEntity
  8
BZA45776
  6
Continuous
 62
     1
100
AcDbLine
 10
74.68267436449014
 20
113.2531077696994
 30
0.0
 11
125.6825522941776
 21
113.2531077696994
 31
0.0
1001
PHOENIX7010
1002
{
1070
    41
1040
0.5
1002
}
  0
LINE
  5
75
330
18
100
AcDbEntity
  8
BZA45776
  6
Continuous
 62
     1
100
AcDbLine
 10
74.68267436449014
 20
123.2531077696994
 30
0.0
 11
74.68267436449014
 21
111.2531077696994
 31
0.0
1001
PHOENIX7010
1002
{
1070
    41
1040
0.5
1002
}
  0
LINE
  5
76
330
18
100
AcDbEntity
  8
BZA45776
  6
Continuous
 62
     1
100
AcDbLine
 10
74.68267436449014
 20
113.2531077696994
 30
0.0
 11
78.15273662034951
 21
112.7962596251682
 31
0.0
1001
PHOENIX7010
1002
{
1070
    41
1040
0.5
1002
}
  0
LINE
  5
77
330
18
100
AcDbEntity
  8
BZA45776
  6
Continuous
 62
     1
100
AcDbLine
 10
74.68267436449014
 20
113.2531077696994
 30
0.0
 11
78.15273662034951
 21
113.7099559142307
 31
0.0
1001
PHOENIX7010
1002
{
1070
    41
1040
0.5
1002
}
  0
LINE
  5
78
330
18
100
AcDbEntity
  8
BZA45776
  6
Continuous
 62
     1
100
AcDbLine
 10
125.6825522941776
 20
147.1992442443088
 30
0.0
 11
125.6825522941776
 21
111.2531077696994
 31
0.0
1001
PHOENIX7010
1002
{
1070
    41
1040
0.5
1002
}
  0
LINE
  5
79
330
18
100
AcDbEntity
  8
BZA45776
  6
Continuous
 62
     1
100
AcDbLine
 10
125.6825522941776
 20
113.2531077696994
 30
0.0
 11
122.2125205558964
 21
112.7962596251682
 31
0.0
1001
PHOENIX7010
1002
{
1070
    41
1040
0.5
1002
}
  0
LINE
  5
7A
330
18
100
AcDbEntity
  8
BZA45776
  6
Continuous
 62
     1
100
AcDbLine
 10
125.6825522941776
 20
113.2531077696994
 30
0.0
 11
122.2125205558964
 21
113.7099559142307
 31
0.0
1001
PHOENIX7010
1002
{
1070
    41
1040
0.5
1002
}
  0
LINE
  5
7C
330
18
100
AcDbEntity
  8
BZA45776
  6
Continuous
 62
     1
100
AcDbLine
 10
62.68276591722451
 20
133.2531230284885
 30
0.0
 11
74.68264384691202
 21
133.2531230284885
 31
0.0
1001
PHOENIX7010
1002
{
1070
    41
1040
0.5
1002
}
  0
LINE
  5
7D
330
18
100
AcDbEntity
  8
BZA45776
  6
Continuous
 62
     1
100
AcDbLine
 10
62.68276591722451
 20
144.0530955626682
 30
0.0
 11
62.68276591722451
 21
131.2531230284885
 31
0.0
1001
PHOENIX7010
1002
{
1070
    41
1040
0.5
1002
}
  0
LINE
  5
7E
330
18
100
AcDbEntity
  8
BZA45776
  6
Continuous
 62
     1
100
AcDbLine
 10
62.68276591722451
 20
133.2531230284885
 30
0.0
 11
66.15282817308389
 21
132.7962748839572
 31
0.0
1001
PHOENIX7010
1002
{
1070
    41
1040
0.5
1002
}
  0
LINE
  5
7F
330
18
100
AcDbEntity
  8
BZA45776
  6
Continuous
 62
     1
100
AcDbLine
 10
62.68276591722451
 20
133.2531230284885
 30
0.0
 11
66.15282817308389
 21
133.7099711730197
 31
0.0
1001
PHOENIX7010
1002
{
1070
    41
1040
0.5
1002
}
  0
LINE
  5
80
330
18
100
AcDbEntity
  8
BZA45776
  6
Continuous
 62
     1
100
AcDbLine
 10
74.68264384691202
 20
133.2531230284885
 30
0.0
 11
71.21258159105264
 21
132.7962748839572
 31
0.0
1001
PHOENIX7010
1002
{
1070
    41
1040
0.5
1002
}
  0
LINE
  5
81
330
18
100
AcDbEntity
  8
BZA45776
  6
Continuous
 62
     1
100
AcDbLine
 10
74.68264384691202
 20
133.2531230284885
 30
0.0
 11
71.21258159105264
 21
133.7099711730197
 31
0.0
1001
PHOENIX7010
1002
{
1070
    41
1040
0.5
1002
}
  0
ARC
  5
84
330
18
100
AcDbEntity
  8
31
  6
Continuous
 62
     7
100
AcDbCircle
 10
75.88271708909951
 20
155.054270489426
 30
0.0
 40
0.8000199794769287
100
AcDbArc
 50
89.99872589111328
 51
166.3984680175776
1001
PHOENIX7010
1002
{
1070
    41
1040
0.5
1002
}
  0
ARC
  5
85
330
18
100
AcDbEntity
  8
31
  6
Continuous
 62
     7
100
AcDbCircle
 10
74.32754130784951
 20
155.4305217101291
 30
0.0
 40
0.8000000119209289
100
AcDbArc
 50
315.0003051757814
 51
346.3999938964839
1001
PHOENIX7010
1002
{
1070
    41
1040
0.5
1002
}
  0
ARC
  5
86
330
18
100
AcDbEntity
  8
31
  6
Continuous
 62
     7
100
AcDbCircle
 10
74.68264384691202
 20
149.6529338195041
 30
0.0
 40
0.4000000059604645
100
AcDbArc
 50
270.0
 51
0.0
1001
PHOENIX7010
1002
{
1070
    41
1040
0.5
1002
}
  0
ARC
  5
87
330
18
100
AcDbEntity
  8
31
  6
Continuous
 62
     7
100
AcDbCircle
 10
74.28261943284951
 20
180.9843242003635
 30
0.0
 40
0.8000040054321289
100
AcDbArc
 50
314.9996337890623
 51
359.9996337890621
1001
PHOENIX7010
1002
{
1070
    41
1040
0.5
1002
}
  0
ARC
  5
88
330
18
100
AcDbEntity
  8
31
  6
Continuous
 62
     7
100
AcDbCircle
 10
74.28261943284951
 20
172.3215586974338
 30
0.0
 40
0.8000000119209289
100
AcDbArc
 50
0.0005088969482564
 51
45.00050889694852
1001
PHOENIX7010
1002
{
1070
    41
1040
0.5
1002
}
  0
ARC
  5
89
330
18
100
AcDbEntity
  8
31
  6
Continuous
 62
     7
100
AcDbCircle
 10
74.28261943284951
 20
151.0543010070041
 30
0.0
 40
0.8000000119209289
100
AcDbArc
 50
0.0
 51
59.99998474121085
1001
PHOENIX7010
1002
{
1070
    41
1040
0.5
1002
}
  0
ARC
  5
8A
330
18
100
AcDbEntity
  8
31
  6
Continuous
 62
     7
100
AcDbCircle
 10
79.88271708909952
 20
182.4529368712619
 30
0.0
 40
0.8000000119209289
100
AcDbArc
 50
90.00000762939448
 51
180.0
1001
PHOENIX7010
1002
{
1070
    41
1040
0.5
1002
}
  0
ARC
  5
8B
330
18
100
AcDbEntity
  8
31
  6
Continuous
 62
     7
100
AcDbCircle
 10
78.28261943284951
 20
181.2529399230197
 30
0.0
 40
0.8000000119209289
100
AcDbArc
 50
270.0
 51
0.0
1001
PHOENIX7010
1002
{
1070
    41
1040
0.5
1002
}
  0
ARC
  5
8C
330
18
100
AcDbEntity
  8
31
  6
Continuous
 62
     7
100
AcDbCircle
 10
107.4825706047245
 20
166.8529307677463
 30
0.0
 40
3.200000047683715
100
AcDbArc
 50
0.0
 51
90.00000762939448
1001
PHOENIX7010
1002
{
1070
    41
1040
0.5
1002
}
  0
ARC
  5
8D
330
18
100
AcDbEntity
  8
31
  6
Continuous
 62
     7
100
AcDbCircle
 10
107.4825706047245
 20
159.0529429747776
 30
0.0
 40
3.200000047683715
100
AcDbArc
 50
270.0
 51
0.0
1001
PHOENIX7010
1002
{
1070
    41
1040
0.5
1002
}
  0
ARC
  5
8E
330
18
100
AcDbEntity
  8
31
  6
Continuous
 62
     7
100
AcDbCircle
 10
78.75124736253702
 20
172.0529429747776
 30
0.0
 40
0.799996018409729
100
AcDbArc
 50
44.99968719482401
 51
90.00000762939448
1001
PHOENIX7010
1002
{
1070
    41
1040
0.5
1002
}
  0
ARC
  5
8F
330
18
100
AcDbEntity
  8
31
  6
Continuous
 62
     7
100
AcDbCircle
 10
82.21255107347451
 20
170.8543498351291
 30
0.0
 40
0.8000440001487731
100
AcDbArc
 50
225.0010986328124
 51
270.0011291503904
1001
PHOENIX7010
1002
{
1070
    41
1040
0.5
1002
}
  0
ARC
  5
90
330
18
100
AcDbEntity
  8
31
  6
Continuous
 62
     7
100
AcDbCircle
 10
104.8827170890995
 20
180.4529368712619
 30
0.0
 40
0.8000000119209289
100
AcDbArc
 50
270.0
 51
0.0
1001
PHOENIX7010
1002
{
1070
    41
1040
0.5
1002
}
  0
ARC
  5
91
330
18
100
AcDbEntity
  8
31
  6
Continuous
 62
     7
100
AcDbCircle
 10
102.4825706047245
 20
180.452952130051
 30
0.0
 40
0.8000040054321289
100
AcDbArc
 50
194.4776153564455
 51
270.0
1001
PHOENIX7010
1002
{
1070
    41
1040
0.5
1002
}
  0
ARC
  5
92
330
18
100
AcDbEntity
  8
31
  6
Continuous
 62
     7
100
AcDbCircle
 10
100.9334983390995
 20
180.0529277159885
 30
0.0
 40
0.8000040054321289
100
AcDbArc
 50
14.47762393951412
 51
90.00000858306886
1001
PHOENIX7010
1002
{
1070
    41
1040
0.5
1002
}
  0
ARC
  5
93
330
18
100
AcDbEntity
  8
31
  6
Continuous
 62
     7
100
AcDbCircle
 10
89.63186259691202
 20
180.0529277159885
 30
0.0
 40
0.8000040054321289
100
AcDbArc
 50
90.00000762939448
 51
165.5223693847659
1001
PHOENIX7010
1002
{
1070
    41
1040
0.5
1002
}
  0
ARC
  5
94
330
18
100
AcDbEntity
  8
31
  6
Continuous
 62
     7
100
AcDbCircle
 10
88.08266826097451
 20
180.452952130051
 30
0.0
 40
0.8000040054321289
100
AcDbArc
 50
270.0
 51
345.5223693847659
1001
PHOENIX7010
1002
{
1070
    41
1040
0.5
1002
}
  0
ARC
  5
95
330
18
100
AcDbEntity
  8
31
  6
Continuous
 62
     7
100
AcDbCircle
 10
85.68264384691202
 20
180.4529368712619
 30
0.0
 40
0.8000000119209289
100
AcDbArc
 50
180.0
 51
270.0
1001
PHOENIX7010
1002
{
1070
    41
1040
0.5
1002
}
  0
ARC
  5
96
330
18
100
AcDbEntity
  8
31
  6
Continuous
 62
     7
100
AcDbCircle
 10
77.88271708909952
 20
181.2529399230197
 30
0.0
 40
0.8000000119209289
100
AcDbArc
 50
180.0
 51
270.0
1001
PHOENIX7010
1002
{
1070
    41
1040
0.5
1002
}
  0
ARC
  5
97
330
18
100
AcDbEntity
  8
31
  6
Continuous
 62
     7
100
AcDbCircle
 10
76.28261943284951
 20
181.6529338195041
 30
0.0
 40
0.8000000119209289
100
AcDbArc
 50
0.0
 51
90.00000762939448
1001
PHOENIX7010
1002
{
1070
    41
1040
0.5
1002
}
  0
ARC
  5
98
330
18
100
AcDbEntity
  8
31
  6
Continuous
 62
     7
100
AcDbCircle
 10
75.88271708909951
 20
181.6529338195041
 30
0.0
 40
0.8000000119209289
100
AcDbArc
 50
90.00000762939448
 51
180.0
1001
PHOENIX7010
1002
{
1070
    41
1040
0.5
1002
}
  0
ARC
  5
99
330
18
100
AcDbEntity
  8
31
  6
Continuous
 62
     7
100
AcDbCircle
 10
75.88271708909951
 20
171.6527507140354
 30
0.0
 40
0.8000000119209289
100
AcDbArc
 50
180.0
 51
270.0
1001
PHOENIX7010
1002
{
1070
    41
1040
0.5
1002
}
  0
ARC
  5
9A
330
18
100
AcDbEntity
  8
31
  6
Continuous
 62
     7
100
AcDbCircle
 10
76.28261943284951
 20
171.6528727843479
 30
0.0
 40
0.8001080155372619
100
AcDbArc
 50
269.9991149902343
 51
359.9991455078126
1001
PHOENIX7010
1002
{
1070
    41
1040
0.5
1002
}
  0
ARC
  5
9B
330
18
100
AcDbEntity
  8
31
  6
Continuous
 62
     7
100
AcDbCircle
 10
77.88259501878702
 20
172.0529582335666
 30
0.0
 40
0.7999799847602845
100
AcDbArc
 50
90.00144195556639
 51
180.0014190673825
1001
PHOENIX7010
1002
{
1070
    41
1040
0.5
1002
}
  0
LINE
  5
9C
330
18
100
AcDbEntity
  8
31
  6
Continuous
 62
     7
100
AcDbLine
 10
105.682643846912
 20
183.2530314757541
 30
0.0
 11
109.8827170890995
 21
183.2530314757541
 31
0.0
1001
PHOENIX7010
1002
{
1070
    41
1040
0.5
1002
}
  0
LINE
  5
9D
330
18
100
AcDbEntity
  8
31
  6
Continuous
 62
     7
100
AcDbLine
 10
107.4825706047245
 20
170.0530192687229
 30
0.0
 11
104.2826194328495
 21
170.0530192687229
 31
0.0
1001
PHOENIX7010
1002
{
1070
    41
1040
0.5
1002
}
  0
LINE
  5
9E
330
18
100
AcDbEntity
  8
31
  6
Continuous
 62
     7
100
AcDbLine
 10
74.68264384691202
 20
151.7472026183322
 30
0.0
 11
74.68264384691202
 21
154.6543834044651
 31
0.0
1001
PHOENIX7010
1002
{
1070
    41
1040
0.5
1002
}
  0
LINE
  5
9F
330
18
100
AcDbEntity
  8
31
  6
Continuous
 62
     7
100
AcDbLine
 10
74.68264384691202
 20
154.6543986632541
 30
0.0
 11
74.89321513597452
 21
154.8649394347385
 31
0.0
1001
PHOENIX7010
1002
{
1070
    41
1040
0.5
1002
}
  0
LINE
  5
A0
330
18
100
AcDbEntity
  8
31
  6
Continuous
 62
     7
100
AcDbLine
 10
75.08266826097451
 20
149.6530253722385
 30
0.0
 11
75.08266826097451
 21
151.0543925597385
 31
0.0
1001
PHOENIX7010
1002
{
1070
    41
1040
0.5
1002
}
  0
LINE
  5
A1
330
18
100
AcDbEntity
  8
31
  6
Continuous
 62
     7
100
AcDbLine
 10
75.08266826097451
 20
180.9844004943088
 30
0.0
 11
75.08266826097451
 21
181.6530253722385
 31
0.0
1001
PHOENIX7010
1002
{
1070
    41
1040
0.5
1002
}
  0
LINE
  5
A2
330
18
100
AcDbEntity
  8
31
  6
Continuous
 62
     7
100
AcDbLine
 10
74.68264384691202
 20
180.2530314757541
 30
0.0
 11
74.84829326097451
 21
180.4187114073947
 31
0.0
1001
PHOENIX7010
1002
{
1070
    41
1040
0.5
1002
}
  0
LINE
  5
A3
330
18
100
AcDbEntity
  8
31
  6
Continuous
 62
     7
100
AcDbLine
 10
74.68264384691202
 20
173.0530345275119
 30
0.0
 11
74.68264384691202
 21
180.2530314757541
 31
0.0
1001
PHOENIX7010
1002
{
1070
    41
1040
0.5
1002
}
  0
LINE
  5
A4
330
18
100
AcDbEntity
  8
31
  6
Continuous
 62
     7
100
AcDbLine
 10
74.84829326097451
 20
172.8873393370822
 30
0.0
 11
74.68252177659952
 21
173.0530345275119
 31
0.0
1001
PHOENIX7010
1002
{
1070
    41
1040
0.5
1002
}
  0
LINE
  5
A5
330
18
100
AcDbEntity
  8
31
  6
Continuous
 62
     7
100
AcDbLine
 10
75.08266826097451
 20
171.6528422667698
 30
0.0
 11
75.08266826097451
 21
172.3216655089572
 31
0.0
1001
PHOENIX7010
1002
{
1070
    41
1040
0.5
1002
}
  0
LINE
  5
A6
330
18
100
AcDbEntity
  8
31
  6
Continuous
 62
     7
100
AcDbLine
 10
79.08266826097452
 20
181.2530314757541
 30
0.0
 11
79.08266826097452
 21
182.4530284239963
 31
0.0
1001
PHOENIX7010
1002
{
1070
    41
1040
0.5
1002
}
  0
LINE
  5
A7
330
18
100
AcDbEntity
  8
31
  6
Continuous
 62
     7
100
AcDbLine
 10
104.2826194328495
 20
152.4530436827854
 30
0.0
 11
104.2826194328495
 21
155.8530223204807
 31
0.0
1001
PHOENIX7010
1002
{
1070
    41
1040
0.5
1002
}
  0
LINE
  5
A8
330
18
100
AcDbEntity
  8
31
  6
Continuous
 62
     7
100
AcDbLine
 10
95.48257060472451
 20
155.8530375792697
 30
0.0
 11
95.48257060472451
 21
152.4530589415744
 31
0.0
1001
PHOENIX7010
1002
{
1070
    41
1040
0.5
1002
}
  0
LINE
  5
A9
330
18
100
AcDbEntity
  8
31
  6
Continuous
 62
     7
100
AcDbLine
 10
81.64687724534951
 20
170.2887065245823
 30
0.0
 11
79.31679912034951
 21
172.618723614426
 31
0.0
1001
PHOENIX7010
1002
{
1070
    41
1040
0.5
1002
}
  0
LINE
  5
AA
330
18
100
AcDbEntity
  8
31
  6
Continuous
 62
     7
100
AcDbLine
 10
95.48257060472451
 20
173.4530436827854
 30
0.0
 11
95.48257060472451
 21
170.0530192687229
 31
0.0
1001
PHOENIX7010
1002
{
1070
    41
1040
0.5
1002
}
  0
LINE
  5
AB
330
18
100
AcDbEntity
  8
31
  6
Continuous
 62
     7
100
AcDbLine
 10
104.2826194328495
 20
170.0530192687229
 30
0.0
 11
104.2826194328495
 21
173.4530436827854
 31
0.0
1001
PHOENIX7010
1002
{
1070
    41
1040
0.5
1002
}
  0
LINE
  5
AC
330
18
100
AcDbEntity
  8
31
  6
Continuous
 62
     7
100
AcDbLine
 10
105.682643846912
 20
180.4530284239963
 30
0.0
 11
105.682643846912
 21
183.2530314757541
 31
0.0
1001
PHOENIX7010
1002
{
1070
    41
1040
0.5
1002
}
  0
LINE
  5
AD
330
18
100
AcDbEntity
  8
31
  6
Continuous
 62
     7
100
AcDbLine
 10
102.4825706047245
 20
179.6530253722385
 30
0.0
 11
104.882595018787
 21
179.6530253722385
 31
0.0
1001
PHOENIX7010
1002
{
1070
    41
1040
0.5
1002
}
  0
LINE
  5
AE
330
18
100
AcDbEntity
  8
31
  6
Continuous
 62
     7
100
AcDbLine
 10
89.63186259691202
 20
180.8530375792697
 30
0.0
 11
100.9334983390995
 21
180.8530375792697
 31
0.0
1001
PHOENIX7010
1002
{
1070
    41
1040
0.5
1002
}
  0
LINE
  5
AF
330
18
100
AcDbEntity
  8
31
  6
Continuous
 62
     7
100
AcDbLine
 10
85.68264384691202
 20
179.6530253722385
 30
0.0
 11
88.08266826097451
 21
179.6530253722385
 31
0.0
1001
PHOENIX7010
1002
{
1070
    41
1040
0.5
1002
}
  0
LINE
  5
B0
330
18
100
AcDbEntity
  8
31
  6
Continuous
 62
     7
100
AcDbLine
 10
84.88271708909952
 20
183.2530314757541
 30
0.0
 11
84.88271708909952
 21
180.4530284239963
 31
0.0
1001
PHOENIX7010
1002
{
1070
    41
1040
0.5
1002
}
  0
LINE
  5
B1
330
18
100
AcDbEntity
  8
31
  6
Continuous
 62
     7
100
AcDbLine
 10
79.88271708909952
 20
183.2530314757541
 30
0.0
 11
84.88271708909952
 21
183.2530314757541
 31
0.0
1001
PHOENIX7010
1002
{
1070
    41
1040
0.5
1002
}
  0
LINE
  5
B2
330
18
100
AcDbEntity
  8
31
  6
Continuous
 62
     7
100
AcDbLine
 10
77.88271708909952
 20
180.4530284239963
 30
0.0
 11
78.28261943284951
 21
180.4530284239963
 31
0.0
1001
PHOENIX7010
1002
{
1070
    41
1040
0.5
1002
}
  0
LINE
  5
B3
330
18
100
AcDbEntity
  8
31
  6
Continuous
 62
     7
100
AcDbLine
 10
77.08266826097451
 20
181.6530253722385
 30
0.0
 11
77.08266826097451
 21
181.2530314757541
 31
0.0
1001
PHOENIX7010
1002
{
1070
    41
1040
0.5
1002
}
  0
LINE
  5
B4
330
18
100
AcDbEntity
  8
31
  6
Continuous
 62
     7
100
AcDbLine
 10
75.88271708909951
 20
182.4530284239963
 30
0.0
 11
76.28261943284951
 21
182.4530284239963
 31
0.0
1001
PHOENIX7010
1002
{
1070
    41
1040
0.5
1002
}
  0
LINE
  5
B5
330
18
100
AcDbEntity
  8
31
  6
Continuous
 62
     7
100
AcDbLine
 10
76.28249736253701
 20
170.852854473801
 30
0.0
 11
75.88271708909951
 21
170.852854473801
 31
0.0
1001
PHOENIX7010
1002
{
1070
    41
1040
0.5
1002
}
  0
LINE
  5
B6
330
18
100
AcDbEntity
  8
31
  6
Continuous
 62
     7
100
AcDbLine
 10
77.08266826097451
 20
172.0530345275119
 30
0.0
 11
77.08266826097451
 21
171.6529338195041
 31
0.0
1001
PHOENIX7010
1002
{
1070
    41
1040
0.5
1002
}
  0
LINE
  5
B7
330
18
100
AcDbEntity
  8
31
  6
Continuous
 62
     7
100
AcDbLine
 10
78.75124736253702
 20
172.8530375792697
 30
0.0
 11
77.88259501878702
 21
172.8530375792697
 31
0.0
1001
PHOENIX7010
1002
{
1070
    41
1040
0.5
1002
}
  0
LINE
  5
B8
330
18
100
AcDbEntity
  8
31
  6
Continuous
 62
     7
100
AcDbLine
 10
82.68264384691201
 20
170.0543925597385
 30
0.0
 11
82.21267314378701
 21
170.0543925597385
 31
0.0
1001
PHOENIX7010
1002
{
1070
    41
1040
0.5
1002
}
  0
LINE
  5
B9
330
18
100
AcDbEntity
  8
31
  6
Continuous
 62
     7
100
AcDbLine
 10
82.68264384691201
 20
173.4530436827854
 30
0.0
 11
82.68264384691201
 21
170.0543925597385
 31
0.0
1001
PHOENIX7010
1002
{
1070
    41
1040
0.5
1002
}
  0
LINE
  5
BA
330
18
100
AcDbEntity
  8
31
  6
Continuous
 62
     7
100
AcDbLine
 10
87.48257060472452
 20
173.4530436827854
 30
0.0
 11
82.68252177659951
 21
173.4530436827854
 31
0.0
1001
PHOENIX7010
1002
{
1070
    41
1040
0.5
1002
}
  0
LINE
  5
BB
330
18
100
AcDbEntity
  8
31
  6
Continuous
 62
     7
100
AcDbLine
 10
87.48257060472452
 20
170.0530192687229
 30
0.0
 11
87.48257060472452
 21
173.4530436827854
 31
0.0
1001
PHOENIX7010
1002
{
1070
    41
1040
0.5
1002
}
  0
LINE
  5
BC
330
18
100
AcDbEntity
  8
31
  6
Continuous
 62
     7
100
AcDbLine
 10
95.48257060472451
 20
170.0530192687229
 30
0.0
 11
87.48257060472452
 21
170.0530192687229
 31
0.0
1001
PHOENIX7010
1002
{
1070
    41
1040
0.5
1002
}
  0
LINE
  5
BD
330
18
100
AcDbEntity
  8
31
  6
Continuous
 62
     7
100
AcDbLine
 10
104.2826194328495
 20
173.4530436827854
 30
0.0
 11
95.48257060472451
 21
173.4530436827854
 31
0.0
1001
PHOENIX7010
1002
{
1070
    41
1040
0.5
1002
}
  0
LINE
  5
BE
330
18
100
AcDbEntity
  8
31
  6
Continuous
 62
     7
100
AcDbLine
 10
104.2826194328495
 20
155.8530375792697
 30
0.0
 11
107.4825706047245
 21
155.8530375792697
 31
0.0
1001
PHOENIX7010
1002
{
1070
    41
1040
0.5
1002
}
  0
LINE
  5
BF
330
18
100
AcDbEntity
  8
31
  6
Continuous
 62
     7
100
AcDbLine
 10
95.48257060472451
 20
152.4530436827854
 30
0.0
 11
104.2826194328495
 21
152.4530436827854
 31
0.0
1001
PHOENIX7010
1002
{
1070
    41
1040
0.5
1002
}
  0
LINE
  5
C0
330
18
100
AcDbEntity
  8
31
  6
Continuous
 62
     7
100
AcDbLine
 10
87.48257060472452
 20
155.8530375792697
 30
0.0
 11
95.48257060472451
 21
155.8530375792697
 31
0.0
1001
PHOENIX7010
1002
{
1070
    41
1040
0.5
1002
}
  0
LINE
  5
C1
330
18
100
AcDbEntity
  8
31
  6
Continuous
 62
     7
100
AcDbLine
 10
87.48257060472452
 20
152.4530436827854
 30
0.0
 11
87.48257060472452
 21
155.8530223204807
 31
0.0
1001
PHOENIX7010
1002
{
1070
    41
1040
0.5
1002
}
  0
LINE
  5
C2
330
18
100
AcDbEntity
  8
31
  6
Continuous
 62
     7
100
AcDbLine
 10
82.68264384691201
 20
152.4530436827854
 30
0.0
 11
87.48257060472452
 21
152.4530436827854
 31
0.0
1001
PHOENIX7010
1002
{
1070
    41
1040
0.5
1002
}
  0
LINE
  5
C3
330
18
100
AcDbEntity
  8
31
  6
Continuous
 62
     7
100
AcDbLine
 10
82.68264384691201
 20
155.8543803527072
 30
0.0
 11
82.68264384691201
 21
152.4530436827854
 31
0.0
1001
PHOENIX7010
1002
{
1070
    41
1040
0.5
1002
}
  0
LINE
  5
C4
330
18
100
AcDbEntity
  8
31
  6
Continuous
 62
     7
100
AcDbLine
 10
75.88271708909951
 20
155.8543803527072
 30
0.0
 11
82.68276591722452
 21
155.8543803527072
 31
0.0
1001
PHOENIX7010
1002
{
1070
    41
1040
0.5
1002
}
  0
ARC
  5
C5
330
18
100
AcDbEntity
  8
31
  6
Continuous
 62
     7
100
AcDbCircle
 10
63.48257060472452
 20
148.4529216124729
 30
0.0
 40
0.8000000119209289
100
AcDbArc
 50
90.00000762939448
 51
180.0
1001
PHOENIX7010
1002
{
1070
    41
1040
0.5
1002
}
  0
ARC
  5
C6
330
18
100
AcDbEntity
  8
31
  6
Continuous
 62
     7
100
AcDbCircle
 10
63.48257060472452
 20
144.0529429747775
 30
0.0
 40
0.8000000119209289
100
AcDbArc
 50
180.0
 51
270.0
1001
PHOENIX7010
1002
{
1070
    41
1040
0.5
1002
}
  0
LINE
  5
C7
330
18
100
AcDbEntity
  8
31
  6
Continuous
 62
     7
100
AcDbLine
 10
74.68264384691202
 20
149.2530314757541
 30
0.0
 11
63.48257060472452
 21
149.2530314757541
 31
0.0
1001
PHOENIX7010
1002
{
1070
    41
1040
0.5
1002
}
  0
LINE
  5
C8
330
18
100
AcDbEntity
  8
31
  6
Continuous
 62
     7
100
AcDbLine
 10
63.48257060472452
 20
143.2530467345432
 30
0.0
 11
74.68252177659952
 21
143.2530467345432
 31
0.0
1001
PHOENIX7010
1002
{
1070
    41
1040
0.5
1002
}
  0
LINE
  5
C9
330
18
100
AcDbEntity
  8
31
  6
Continuous
 62
     7
100
AcDbLine
 10
62.68264384691201
 20
148.4530131652072
 30
0.0
 11
62.68264384691201
 21
144.0529887511447
 31
0.0
1001
PHOENIX7010
1002
{
1070
    41
1040
0.5
1002
}
  0
LINE
  5
CA
330
18
100
AcDbEntity
  8
31
  6
Continuous
 62
     7
100
AcDbLine
 10
112.0824241203495
 20
143.2530467345432
 30
0.0
 11
74.68252177659952
 21
143.2530467345432
 31
0.0
1001
PHOENIX7010
1002
{
1070
    41
1040
0.5
1002
}
  0
LINE
  5
CB
330
18
100
AcDbEntity
  8
31
  6
Continuous
 62
     7
100
AcDbLine
 10
116.2826194328495
 20
177.6530253722385
 30
0.0
 11
116.2826194328495
 21
183.2530314757541
 31
0.0
1001
PHOENIX7010
1002
{
1070
    41
1040
0.5
1002
}
  0
LINE
  5
CC
330
18
100
AcDbEntity
  8
31
  6
Continuous
 62
     7
100
AcDbLine
 10
116.2826194328495
 20
183.2530314757541
 30
0.0
 11
131.8827170890995
 21
183.2530314757541
 31
0.0
1001
PHOENIX7010
1002
{
1070
    41
1040
0.5
1002
}
  0
ARC
  5
CD
330
18
100
AcDbEntity
  8
31
  6
Continuous
 62
     7
100
AcDbCircle
 10
123.3827170890995
 20
172.0529429747776
 30
0.0
 40
2.000015974044799
100
AcDbArc
 50
90.00000762939448
 51
142.6998138427734
1001
PHOENIX7010
1002
{
1070
    41
1040
0.5
1002
}
  0
ARC
  5
CE
330
18
100
AcDbEntity
  8
31
  6
Continuous
 62
     7
100
AcDbCircle
 10
127.9825706047245
 20
172.0529734923557
 30
0.0
 40
1.9999760389328
100
AcDbArc
 50
37.2996101379398
 51
90.00000762939448
1001
PHOENIX7010
1002
{
1070
    41
1040
0.5
1002
}
  0
ARC
  5
CF
330
18
100
AcDbEntity
  8
31
  6
Continuous
 62
     7
100
AcDbCircle
 10
193.3087424797245
 20
180.0529429747776
 30
0.0
 40
0.8000159859657287
100
AcDbArc
 50
89.99929046630859
 51
149.999298095703
1001
PHOENIX7010
1002
{
1070
    41
1040
0.5
1002
}
  0
ARC
  5
D0
330
18
100
AcDbEntity
  8
31
  6
Continuous
 62
     7
100
AcDbCircle
 10
178.057155565662
 20
180.0529887511448
 30
0.0
 40
0.7999680042266846
100
AcDbArc
 50
29.99605560302713
 51
89.99849700927741
1001
PHOENIX7010
1002
{
1070
    41
1040
0.5
1002
}
  0
ARC
  5
D1
330
18
100
AcDbEntity
  8
31
  6
Continuous
 62
     7
100
AcDbCircle
 10
133.3080100578495
 20
148.0529429747775
 30
0.0
 40
0.8000000119209289
100
AcDbArc
 50
209.9977416992182
 51
270.0
1001
PHOENIX7010
1002
{
1070
    41
1040
0.5
1002
}
  0
ARC
  5
D2
330
18
100
AcDbEntity
  8
31
  6
Continuous
 62
     7
100
AcDbCircle
 10
118.749294237537
 20
149.2529246642307
 30
0.0
 40
0.7999839782714844
100
AcDbArc
 50
270.000732421875
 51
330.0007324218752
1001
PHOENIX7010
1002
{
1070
    41
1040
0.5
1002
}
  0
ARC
  5
D3
330
18
100
AcDbEntity
  8
31
  6
Continuous
 62
     7
100
AcDbCircle
 10
135.882595018787
 20
148.0529429747775
 30
0.0
 40
0.8000000119209289
100
AcDbArc
 50
270.0
 51
0.0
1001
PHOENIX7010
1002
{
1070
    41
1040
0.5
1002
}
  0
ARC
  5
D4
330
18
100
AcDbEntity
  8
31
  6
Continuous
 62
     7
100
AcDbCircle
 10
139.882595018787
 20
171.6529490782932
 30
0.0
 40
3.200000047683715
100
AcDbArc
 50
90.00000762939448
 51
180.0
1001
PHOENIX7010
1002
{
1070
    41
1040
0.5
1002
}
  0
ARC
  5
D5
330
18
100
AcDbEntity
  8
31
  6
Continuous
 62
     7
100
AcDbCircle
 10
171.4825706047245
 20
171.6529490782932
 30
0.0
 40
3.200000047683715
100
AcDbArc
 50
0.0
 51
90.00000762939448
1001
PHOENIX7010
1002
{
1070
    41
1040
0.5
1002
}
  0
ARC
  5
D6
330
18
100
AcDbEntity
  8
31
  6
Continuous
 62
     7
100
AcDbCircle
 10
177.8827170890995
 20
150.4529368712619
 30
0.0
 40
3.200000047683715
100
AcDbArc
 50
180.0
 51
270.0
1001
PHOENIX7010
1002
{
1070
    41
1040
0.5
1002
}
  0
ARC
  5
D7
330
18
100
AcDbEntity
  8
31
  6
Continuous
 62
     7
100
AcDbCircle
 10
193.4825706047245
 20
150.4529368712619
 30
0.0
 40
3.200000047683715
100
AcDbArc
 50
270.0
 51
0.0
1001
PHOENIX7010
1002
{
1070
    41
1040
0.5
1002
}
  0
ARC
  5
D8
330
18
100
AcDbEntity
  8
31
  6
Continuous
 62
     7
100
AcDbCircle
 10
195.8827170890995
 20
180.0529734923557
 30
0.0
 40
0.8000000119209289
100
AcDbArc
 50
0.0
 51
90.00000762939448
1001
PHOENIX7010
1002
{
1070
    41
1040
0.5
1002
}
  0
ARC
  5
D9
330
18
100
AcDbEntity
  8
31
  6
Continuous
 62
     7
100
AcDbCircle
 10
185.6825217765995
 20
164.0529734923557
 30
0.0
 40
4.999884128570556
100
AcDbArc
 50
137.7302246093751
 51
222.2697601318358
1001
PHOENIX7010
1002
{
1070
    41
1040
0.5
1002
}
  0
ARC
  5
DA
330
18
100
AcDbEntity
  8
31
  6
Continuous
 62
     7
100
AcDbCircle
 10
185.6825217765995
 20
164.0529734923557
 30
0.0
 40
5.000115871429443
100
AcDbArc
 50
317.7325439453125
 51
42.26741027832003
1001
PHOENIX7010
1002
{
1070
    41
1040
0.5
1002
}
  0
ARC
  5
DB
330
18
100
AcDbEntity
  8
31
  6
Continuous
 62
     7
100
AcDbCircle
 10
125.682643846912
 20
164.0529429747776
 30
0.0
 40
4.999884128570556
100
AcDbArc
 50
317.7301635742182
 51
42.26982116699226
1001
PHOENIX7010
1002
{
1070
    41
1040
0.5
1002
}
  0
ARC
  5
DC
330
18
100
AcDbEntity
  8
31
  6
Continuous
 62
     7
100
AcDbCircle
 10
125.682643846912
 20
164.0529429747776
 30
0.0
 40
5.000112056732177
100
AcDbArc
 50
137.7326354980472
 51
222.2673645019528
1001
PHOENIX7010
1002
{
1070
    41
1040
0.5
1002
}
  0
LINE
  5
DD
330
18
100
AcDbEntity
  8
31
  6
Continuous
 62
     7
100
AcDbLine
 10
131.8827170890995
 20
183.2530314757541
 30
0.0
 11
131.8827170890995
 21
180.8530375792697
 31
0.0
1001
PHOENIX7010
1002
{
1070
    41
1040
0.5
1002
}
  0
LINE
  5
DE
330
18
100
AcDbEntity
  8
31
  6
Continuous
 62
     7
100
AcDbLine
 10
135.882595018787
 20
147.2530467345432
 30
0.0
 11
133.3080100578495
 21
147.2530467345432
 31
0.0
1001
PHOENIX7010
1002
{
1070
    41
1040
0.5
1002
}
  0
LINE
  5
DF
330
18
100
AcDbEntity
  8
31
  6
Continuous
 62
     7
100
AcDbLine
 10
147.6825217765995
 20
174.8530375792697
 30
0.0
 11
139.8824729484745
 21
174.8530375792697
 31
0.0
1001
PHOENIX7010
1002
{
1070
    41
1040
0.5
1002
}
  0
LINE
  5
E0
330
18
100
AcDbEntity
  8
31
  6
Continuous
 62
     7
100
AcDbLine
 10
131.8827170890995
 20
180.8530375792697
 30
0.0
 11
147.682643846912
 21
180.8530375792697
 31
0.0
1001
PHOENIX7010
1002
{
1070
    41
1040
0.5
1002
}
  0
LINE
  5
E1
330
18
100
AcDbEntity
  8
31
  6
Continuous
 62
     7
100
AcDbLine
 10
121.9825706047245
 20
153.2530314757541
 30
0.0
 11
119.442165331287
 21
148.8530375792698
 31
0.0
1001
PHOENIX7010
1002
{
1070
    41
1040
0.5
1002
}
  0
LINE
  5
E2
330
18
100
AcDbEntity
  8
31
  6
Continuous
 62
     7
100
AcDbLine
 10
132.6151389640995
 20
147.6530711486057
 30
0.0
 11
129.3824729484745
 21
153.2526652648166
 31
0.0
1001
PHOENIX7010
1002
{
1070
    41
1040
0.5
1002
}
  0
LINE
  5
E3
330
18
100
AcDbEntity
  8
31
  6
Continuous
 62
     7
100
AcDbLine
 10
136.6825217765995
 20
171.6530253722385
 30
0.0
 11
136.6825217765995
 21
148.0530345275119
 31
0.0
1001
PHOENIX7010
1002
{
1070
    41
1040
0.5
1002
}
  0
LINE
  5
E4
330
18
100
AcDbEntity
  8
31
  6
Continuous
 62
     7
100
AcDbLine
 10
174.682643846912
 20
150.4530131652072
 30
0.0
 11
174.682643846912
 21
171.6530101134494
 31
0.0
1001
PHOENIX7010
1002
{
1070
    41
1040
0.5
1002
}
  0
LINE
  5
E5
330
18
100
AcDbEntity
  8
31
  6
Continuous
 62
     7
100
AcDbLine
 10
193.4825706047245
 20
147.2530467345432
 30
0.0
 11
177.882595018787
 21
147.2530467345432
 31
0.0
1001
PHOENIX7010
1002
{
1070
    41
1040
0.5
1002
}
  0
LINE
  5
E6
330
18
100
AcDbEntity
  8
31
  6
Continuous
 62
     7
100
AcDbLine
 10
196.682643846912
 20
180.0530345275119
 30
0.0
 11
196.682643846912
 21
150.4530131652072
 31
0.0
1001
PHOENIX7010
1002
{
1070
    41
1040
0.5
1002
}
  0
LINE
  5
E7
330
18
100
AcDbEntity
  8
31
  6
Continuous
 62
     7
100
AcDbLine
 10
193.3087424797245
 20
180.8530375792697
 30
0.0
 11
195.8827170890995
 21
180.8530375792697
 31
0.0
1001
PHOENIX7010
1002
{
1070
    41
1040
0.5
1002
}
  0
LINE
  5
E8
330
18
100
AcDbEntity
  8
31
  6
Continuous
 62
     7
100
AcDbLine
 10
189.3827170890995
 20
174.8530375792697
 30
0.0
 11
192.6158713859745
 21
180.4530284239963
 31
0.0
1001
PHOENIX7010
1002
{
1070
    41
1040
0.5
1002
}
  0
LINE
  5
E9
330
18
100
AcDbEntity
  8
31
  6
Continuous
 62
     7
100
AcDbLine
 10
178.7499045890995
 20
180.4529979064182
 30
0.0
 11
181.982692675037
 21
174.8530680968479
 31
0.0
1001
PHOENIX7010
1002
{
1070
    41
1040
0.5
1002
}
  0
LINE
  5
EA
330
18
100
AcDbEntity
  8
31
  6
Continuous
 62
     7
100
AcDbLine
 10
121.9825706047245
 20
154.762766583176
 30
0.0
 11
121.9825706047245
 21
153.2530314757541
 31
0.0
1001
PHOENIX7010
1002
{
1070
    41
1040
0.5
1002
}
  0
LINE
  5
EB
330
18
100
AcDbEntity
  8
31
  6
Continuous
 62
     7
100
AcDbLine
 10
127.9825706047245
 20
174.0530345275119
 30
0.0
 11
123.382595018787
 21
174.0530345275119
 31
0.0
1001
PHOENIX7010
1002
{
1070
    41
1040
0.5
1002
}
  0
LINE
  5
EC
330
18
100
AcDbEntity
  8
31
  6
Continuous
 62
     7
100
AcDbLine
 10
129.3824729484745
 20
153.2526347472385
 30
0.0
 11
129.3824729484745
 21
154.7626292540744
 31
0.0
1001
PHOENIX7010
1002
{
1070
    41
1040
0.5
1002
}
  0
LINE
  5
ED
330
18
100
AcDbEntity
  8
31
  6
Continuous
 62
     7
100
AcDbLine
 10
189.3827170890995
 20
173.3432872130588
 30
0.0
 11
189.3827170890995
 21
174.8530375792697
 31
0.0
1001
PHOENIX7010
1002
{
1070
    41
1040
0.5
1002
}
  0
LINE
  5
EE
330
18
100
AcDbEntity
  8
31
  6
Continuous
 62
     7
100
AcDbLine
 10
181.9828147453495
 20
174.8530680968479
 30
0.0
 11
181.9828147453495
 21
173.3434092833713
 31
0.0
1001
PHOENIX7010
1002
{
1070
    41
1040
0.5
1002
}
  0
LINE
  5
EF
330
18
100
AcDbEntity
  8
31
  6
Continuous
 62
     7
100
AcDbLine
 10
181.9828147453495
 20
167.4160563780979
 30
0.0
 11
181.9828147453495
 21
169.275217755051
 31
0.0
1001
PHOENIX7010
1002
{
1070
    41
1040
0.5
1002
}
  0
LINE
  5
F0
330
18
100
AcDbEntity
  8
31
  6
Continuous
 62
     7
100
AcDbLine
 10
181.9828147453495
 20
158.8308512999729
 30
0.0
 11
181.9828147453495
 21
160.6899974181369
 31
0.0
1001
PHOENIX7010
1002
{
1070
    41
1040
0.5
1002
}
  0
LINE
  5
F1
330
18
100
AcDbEntity
  8
31
  6
Continuous
 62
     7
100
AcDbLine
 10
189.3827170890995
 20
160.6899821593479
 30
0.0
 11
189.3827170890995
 21
158.8310649230197
 31
0.0
1001
PHOENIX7010
1002
{
1070
    41
1040
0.5
1002
}
  0
LINE
  5
F2
330
18
100
AcDbEntity
  8
31
  6
Continuous
 62
     7
100
AcDbLine
 10
189.3827170890995
 20
169.2749888732151
 30
0.0
 11
189.3827170890995
 21
167.4160716368869
 31
0.0
1001
PHOENIX7010
1002
{
1070
    41
1040
0.5
1002
}
  0
LINE
  5
F3
330
18
100
AcDbEntity
  8
31
  6
Continuous
 62
     7
100
AcDbLine
 10
188.582790331287
 20
155.2530314757541
 30
0.0
 11
182.782741503162
 21
155.2530314757541
 31
0.0
1001
PHOENIX7010
1002
{
1070
    41
1040
0.5
1002
}
  0
LINE
  5
F4
330
18
100
AcDbEntity
  8
31
  6
Continuous
 62
     7
100
AcDbLine
 10
181.9828147453495
 20
156.0530192687229
 30
0.0
 11
181.9828147453495
 21
158.8308360411838
 31
0.0
1001
PHOENIX7010
1002
{
1070
    41
1040
0.5
1002
}
  0
LINE
  5
F5
330
18
100
AcDbEntity
  8
31
  6
Continuous
 62
     7
100
AcDbLine
 10
181.9828147453495
 20
169.275217755051
 30
0.0
 11
181.9828147453495
 21
173.3434092833713
 31
0.0
1001
PHOENIX7010
1002
{
1070
    41
1040
0.5
1002
}
  0
LINE
  5
F6
330
18
100
AcDbEntity
  8
31
  6
Continuous
 62
     7
100
AcDbLine
 10
189.3827170890995
 20
158.8310649230197
 30
0.0
 11
189.3827170890995
 21
156.0530192687229
 31
0.0
1001
PHOENIX7010
1002
{
1070
    41
1040
0.5
1002
}
  0
LINE
  5
F7
330
18
100
AcDbEntity
  8
31
  6
Continuous
 62
     7
100
AcDbLine
 10
189.3827170890995
 20
173.3432872130588
 30
0.0
 11
189.3827170890995
 21
169.2749888732151
 31
0.0
1001
PHOENIX7010
1002
{
1070
    41
1040
0.5
1002
}
  0
LINE
  5
F8
330
18
100
AcDbEntity
  8
31
  6
Continuous
 62
     7
100
AcDbLine
 10
129.3824729484745
 20
160.6899821593479
 30
0.0
 11
129.3824729484745
 21
158.8308512999729
 31
0.0
1001
PHOENIX7010
1002
{
1070
    41
1040
0.5
1002
}
  0
LINE
  5
F9
330
18
100
AcDbEntity
  8
31
  6
Continuous
 62
     7
100
AcDbLine
 10
129.3824729484745
 20
169.275217755051
 30
0.0
 11
129.3824729484745
 21
167.4160716368869
 31
0.0
1001
PHOENIX7010
1002
{
1070
    41
1040
0.5
1002
}
  0
LINE
  5
FA
330
18
100
AcDbEntity
  8
31
  6
Continuous
 62
     7
100
AcDbLine
 10
121.9825706047245
 20
167.4160563780979
 30
0.0
 11
121.9825706047245
 21
169.2749888732151
 31
0.0
1001
PHOENIX7010
1002
{
1070
    41
1040
0.5
1002
}
  0
LINE
  5
FB
330
18
100
AcDbEntity
  8
31
  6
Continuous
 62
     7
100
AcDbLine
 10
121.9825706047245
 20
158.8310649230197
 30
0.0
 11
121.9825706047245
 21
160.6899974181369
 31
0.0
1001
PHOENIX7010
1002
{
1070
    41
1040
0.5
1002
}
  0
LINE
  5
FC
330
18
100
AcDbEntity
  8
31
  6
Continuous
 62
     7
100
AcDbLine
 10
129.3824729484745
 20
158.8308512999729
 30
0.0
 11
129.3824729484745
 21
154.7626445128635
 31
0.0
1001
PHOENIX7010
1002
{
1070
    41
1040
0.5
1002
}
  0
LINE
  5
FD
330
18
100
AcDbEntity
  8
31
  6
Continuous
 62
     7
100
AcDbLine
 10
129.3824729484745
 20
170.624582989426
 30
0.0
 11
129.3824729484745
 21
169.275217755051
 31
0.0
1001
PHOENIX7010
1002
{
1070
    41
1040
0.5
1002
}
  0
LINE
  5
FE
330
18
100
AcDbEntity
  8
31
  6
Continuous
 62
     7
100
AcDbLine
 10
121.9825706047245
 20
169.2749888732151
 30
0.0
 11
121.9825706047245
 21
170.6248881652072
 31
0.0
1001
PHOENIX7010
1002
{
1070
    41
1040
0.5
1002
}
  0
LINE
  5
FF
330
18
100
AcDbEntity
  8
31
  6
Continuous
 62
     7
100
AcDbLine
 10
121.9825706047245
 20
154.762766583176
 30
0.0
 11
121.9825706047245
 21
158.8310649230197
 31
0.0
1001
PHOENIX7010
1002
{
1070
    41
1040
0.5
1002
}
  0
LINE
  5
100
330
18
100
AcDbEntity
  8
31
  6
Continuous
 62
     7
100
AcDbLine
 10
163.6825217765995
 20
180.8530375792697
 30
0.0
 11
147.6825217765995
 21
180.8530375792697
 31
0.0
1001
PHOENIX7010
1002
{
1070
    41
1040
0.5
1002
}
  0
LINE
  5
101
330
18
100
AcDbEntity
  8
31
  6
Continuous
 62
     7
100
AcDbLine
 10
147.6825217765995
 20
174.8530375792697
 30
0.0
 11
163.6825217765995
 21
174.8530375792697
 31
0.0
1001
PHOENIX7010
1002
{
1070
    41
1040
0.5
1002
}
  0
LINE
  5
102
330
18
100
AcDbEntity
  8
31
  6
Continuous
 62
     7
100
AcDbLine
 10
163.6825217765995
 20
180.8530375792697
 30
0.0
 11
178.0570334953495
 21
180.8530375792697
 31
0.0
1001
PHOENIX7010
1002
{
1070
    41
1040
0.5
1002
}
  0
LINE
  5
103
330
18
100
AcDbEntity
  8
31
  6
Continuous
 62
     7
100
AcDbLine
 10
171.4825706047245
 20
174.8530375792697
 30
0.0
 11
163.6825217765995
 21
174.8530375792697
 31
0.0
1001
PHOENIX7010
1002
{
1070
    41
1040
0.5
1002
}
  0
ARC
  5
104
330
18
100
AcDbEntity
  8
31
  6
Continuous
 62
     7
100
AcDbCircle
 10
110.682643846912
 20
177.6529490782932
 30
0.0
 40
0.8000000119209289
100
AcDbArc
 50
180.0
 51
270.0
1001
PHOENIX7010
1002
{
1070
    41
1040
0.5
1002
}
  0
LINE
  5
105
330
18
100
AcDbEntity
  8
31
  6
Continuous
 62
     7
100
AcDbLine
 10
110.682643846912
 20
176.8530375792698
 30
0.0
 11
115.4825706047245
 21
176.8530375792698
 31
0.0
1001
PHOENIX7010
1002
{
1070
    41
1040
0.5
1002
}
  0
LINE
  5
106
330
18
100
AcDbEntity
  8
31
  6
Continuous
 62
     7
100
AcDbLine
 10
109.8827170890995
 20
183.2530314757541
 30
0.0
 11
109.8827170890995
 21
177.6530253722385
 31
0.0
1001
PHOENIX7010
1002
{
1070
    41
1040
0.5
1002
}
  0
LINE
  5
107
330
18
100
AcDbEntity
  8
31
  6
Continuous
 62
     7
100
AcDbLine
 10
110.682643846912
 20
159.0530345275119
 30
0.0
 11
110.682643846912
 21
166.8530223204807
 31
0.0
1001
PHOENIX7010
1002
{
1070
    41
1040
0.5
1002
}
  0
ARC
  5
108
330
18
100
AcDbEntity
  8
31
  6
Continuous
 62
     7
100
AcDbCircle
 10
115.4825706047245
 20
177.6529490782932
 30
0.0
 40
0.8000000119209289
100
AcDbArc
 50
270.0
 51
0.0
1001
PHOENIX7010
1002
{
1070
    41
1040
0.5
1002
}
  0
ARC
  5
109
330
18
100
AcDbEntity
  8
31
  6
Continuous
 62
     7
100
AcDbCircle
 10
112.0824241203495
 20
144.0529429747775
 30
0.0
 40
0.8000000119209289
100
AcDbArc
 50
270.0
 51
0.0
1001
PHOENIX7010
1002
{
1070
    41
1040
0.5
1002
}
  0
LINE
  5
10A
330
18
100
AcDbEntity
  8
31
  6
Continuous
 62
     7
100
AcDbLine
 10
118.749294237537
 20
148.4530131652072
 30
0.0
 11
112.8824729484745
 21
148.4530131652072
 31
0.0
1001
PHOENIX7010
1002
{
1070
    41
1040
0.5
1002
}
  0
LINE
  5
10B
330
18
100
AcDbEntity
  8
31
  6
Continuous
 62
     7
100
AcDbLine
 10
112.8824729484745
 20
148.4530131652072
 30
0.0
 11
112.8824729484745
 21
144.0529887511447
 31
0.0
1001
PHOENIX7010
1002
{
1070
    41
1040
0.5
1002
}
  0
LINE
  5
10D
330
18
100
AcDbEntity
  8
BZA45776
  6
Continuous
 62
     1
100
AcDbLine
 10
62.68276591722451
 20
133.2531077696994
 30
0.0
 11
62.68276591722451
 21
101.2530925109104
 31
0.0
1001
PHOENIX7010
1002
{
1070
    41
1040
0.5
1002
}
  0
LINE
  5
10E
330
18
100
AcDbEntity
  8
BZA45776
  6
Continuous
 62
     1
100
AcDbLine
 10
62.68276591722451
 20
103.2530925109104
 30
0.0
 11
196.6825828117557
 21
103.2530925109104
 31
0.0
1001
PHOENIX7010
1002
{
1070
    41
1040
0.5
1002
}
  0
LINE
  5
10F
330
18
100
AcDbEntity
  8
BZA45776
  6
Continuous
 62
     1
100
AcDbLine
 10
62.68276591722451
 20
103.2530925109104
 30
0.0
 11
66.15282817308389
 21
102.7962443663791
 31
0.0
1001
PHOENIX7010
1002
{
1070
    41
1040
0.5
1002
}
  0
LINE
  5
110
330
18
100
AcDbEntity
  8
BZA45776
  6
Continuous
 62
     1
100
AcDbLine
 10
62.68276591722451
 20
103.2530925109104
 30
0.0
 11
66.15282817308389
 21
103.7099406554416
 31
0.0
1001
PHOENIX7010
1002
{
1070
    41
1040
0.5
1002
}
  0
LINE
  5
111
330
18
100
AcDbEntity
  8
BZA45776
  6
Continuous
 62
     1
100
AcDbLine
 10
196.6825828117557
 20
103.2530925109104
 30
0.0
 11
193.2125205558964
 21
102.7962443663791
 31
0.0
1001
PHOENIX7010
1002
{
1070
    41
1040
0.5
1002
}
  0
LINE
  5
112
330
18
100
AcDbEntity
  8
BZA45776
  6
Continuous
 62
     1
100
AcDbLine
 10
196.6825828117557
 20
103.2530925109104
 30
0.0
 11
193.2125205558964
 21
103.7099406554416
 31
0.0
1001
PHOENIX7010
1002
{
1070
    41
1040
0.5
1002
}
  0
LINE
  5
113
330
18
100
AcDbEntity
  8
BZA45776
  6
Continuous
 62
     1
100
AcDbLine
 10
196.6825828117557
 20
150.4530131652072
 30
0.0
 11
196.6825828117557
 21
101.2530925109104
 31
0.0
1001
PHOENIX7010
1002
{
1070
    41
1040
0.5
1002
}
  0
LINE
  5
115
330
18
100
AcDbEntity
  8
BZA45776
  6
Continuous
 62
     1
100
AcDbLine
 10
74.68264384691202
 20
160.9975077941135
 30
0.0
 11
110.682643846912
 21
160.9975077941135
 31
0.0
1001
PHOENIX7010
1002
{
1070
    41
1040
0.5
1002
}
  0
LINE
  5
116
330
18
100
AcDbEntity
  8
BZA45776
  6
Continuous
 62
     1
100
AcDbLine
 10
74.68264384691202
 20
160.9975077941135
 30
0.0
 11
78.15270610277138
 21
160.5406596495822
 31
0.0
1001
PHOENIX7010
1002
{
1070
    41
1040
0.5
1002
}
  0
LINE
  5
117
330
18
100
AcDbEntity
  8
BZA45776
  6
Continuous
 62
     1
100
AcDbLine
 10
74.68264384691202
 20
160.9975077941135
 30
0.0
 11
78.15270610277138
 21
161.4543559386447
 31
0.0
1001
PHOENIX7010
1002
{
1070
    41
1040
0.5
1002
}
  0
LINE
  5
118
330
18
100
AcDbEntity
  8
BZA45776
  6
Continuous
 62
     1
100
AcDbLine
 10
110.682643846912
 20
160.9975077941135
 30
0.0
 11
107.2125815910526
 21
160.5406596495822
 31
0.0
1001
PHOENIX7010
1002
{
1070
    41
1040
0.5
1002
}
  0
LINE
  5
119
330
18
100
AcDbEntity
  8
BZA45776
  6
Continuous
 62
     1
100
AcDbLine
 10
110.682643846912
 20
160.9975077941135
 30
0.0
 11
107.2125815910526
 21
161.4543559386447
 31
0.0
1001
PHOENIX7010
1002
{
1070
    41
1040
0.5
1002
}
  0
LINE
  5
11A
330
18
100
AcDbEntity
  8
BZA45776
  6
Continuous
 62
     1
100
AcDbLine
 10
74.68264384691202
 20
155.4676921202854
 30
0.0
 11
74.68264384691202
 21
162.9975077941135
 31
0.0
1001
PHOENIX7010
1002
{
1070
    41
1040
0.5
1002
}
  0
LINE
  5
11B
330
18
100
AcDbEntity
  8
BZA45776
  6
Continuous
 62
     1
100
AcDbLine
 10
110.682643846912
 20
162.8530528380588
 30
0.0
 11
110.682643846912
 21
158.9975077941135
 31
0.0
1001
PHOENIX7010
1002
{
1070
    41
1040
0.5
1002
}
  0
LINE
  5
11D
330
18
100
AcDbEntity
  8
BZA45776
  6
Continuous
 62
     1
100
AcDbLine
 10
206.6826743644901
 20
180.8530528380588
 30
0.0
 11
206.6826743644901
 21
164.0530345275119
 31
0.0
1001
PHOENIX7010
1002
{
1070
    41
1040
0.5
1002
}
  0
LINE
  5
11E
330
18
100
AcDbEntity
  8
BZA45776
  6
Continuous
 62
     1
100
AcDbLine
 10
196.6826743644901
 20
180.8530528380588
 30
0.0
 11
208.6826743644901
 21
180.8530528380588
 31
0.0
1001
PHOENIX7010
1002
{
1070
    41
1040
0.5
1002
}
  0
LINE
  5
11F
330
18
100
AcDbEntity
  8
BZA45776
  6
Continuous
 62
     1
100
AcDbLine
 10
206.6826743644901
 20
180.8530528380588
 30
0.0
 11
206.2258262199589
 21
177.3829905821994
 31
0.0
1001
PHOENIX7010
1002
{
1070
    41
1040
0.5
1002
}
  0
LINE
  5
120
330
18
100
AcDbEntity
  8
BZA45776
  6
Continuous
 62
     1
100
AcDbLine
 10
206.6826743644901
 20
180.8530528380588
 30
0.0
 11
207.1395225090214
 21
177.3829905821994
 31
0.0
1001
PHOENIX7010
1002
{
1070
    41
1040
0.5
1002
}
  0
LINE
  5
121
330
18
100
AcDbEntity
  8
BZA45776
  6
Continuous
 62
     1
100
AcDbLine
 10
206.6826743644901
 20
164.0530345275119
 30
0.0
 11
206.2258262199589
 21
167.5230967833713
 31
0.0
1001
PHOENIX7010
1002
{
1070
    41
1040
0.5
1002
}
  0
LINE
  5
122
330
18
100
AcDbEntity
  8
BZA45776
  6
Continuous
 62
     1
100
AcDbLine
 10
206.6826743644901
 20
164.0530345275119
 30
0.0
 11
207.1395225090214
 21
167.5230967833713
 31
0.0
1001
PHOENIX7010
1002
{
1070
    41
1040
0.5
1002
}
  0
TEXT
  5
123
330
18
100
AcDbEntity
  8
BZA45776
 62
     5
100
AcDbText
 10
205.6827048820683
 20
169.1978793011724
 30
0.0
 40
3.5
  1
4.2
 50
90.0
 72
     1
 11
205.6827048820683
 21
172.4529826476291
 31
0.0
100
AcDbText
1001
PHOENIX7010
1002
{
1070
    41
1040
0.5
1002
}
  0
LINE
  5
124
330
18
100
AcDbEntity
  8
BZA45776
  6
Continuous
 62
     1
100
AcDbLine
 10
196.682643846912
 20
164.0530345275119
 30
0.0
 11
208.6826743644901
 21
164.0530345275119
 31
0.0
1001
PHOENIX7010
1002
{
1070
    41
1040
0.5
1002
}
  0
LINE
  5
126
330
18
100
AcDbEntity
  8
BZA45776
  6
Continuous
 62
     1
100
AcDbLine
 10
216.6826743644902
 20
180.8530528380588
 30
0.0
 11
216.6826743644902
 21
147.2530467345432
 31
0.0
1001
PHOENIX7010
1002
{
1070
    41
1040
0.5
1002
}
  0
LINE
  5
127
330
18
100
AcDbEntity
  8
BZA45776
  6
Continuous
 62
     1
100
AcDbLine
 10
206.6826743644901
 20
180.8530528380588
 30
0.0
 11
218.6826743644902
 21
180.8530528380588
 31
0.0
1001
PHOENIX7010
1002
{
1070
    41
1040
0.5
1002
}
  0
LINE
  5
128
330
18
100
AcDbEntity
  8
BZA45776
  6
Continuous
 62
     1
100
AcDbLine
 10
216.6826743644902
 20
180.8530528380588
 30
0.0
 11
216.2258262199589
 21
177.3829905821994
 31
0.0
1001
PHOENIX7010
1002
{
1070
    41
1040
0.5
1002
}
  0
LINE
  5
129
330
18
100
AcDbEntity
  8
BZA45776
  6
Continuous
 62
     1
100
AcDbLine
 10
216.6826743644902
 20
180.8530528380588
 30
0.0
 11
217.1395225090214
 21
177.3829905821994
 31
0.0
1001
PHOENIX7010
1002
{
1070
    41
1040
0.5
1002
}
  0
LINE
  5
12A
330
18
100
AcDbEntity
  8
BZA45776
  6
Continuous
 62
     1
100
AcDbLine
 10
216.6826743644902
 20
147.2530467345432
 30
0.0
 11
216.2258262199589
 21
150.7231089904025
 31
0.0
1001
PHOENIX7010
1002
{
1070
    41
1040
0.5
1002
}
  0
LINE
  5
12B
330
18
100
AcDbEntity
  8
BZA45776
  6
Continuous
 62
     1
100
AcDbLine
 10
216.6826743644902
 20
147.2530467345432
 30
0.0
 11
217.1395225090214
 21
150.7231089904025
 31
0.0
1001
PHOENIX7010
1002
{
1070
    41
1040
0.5
1002
}
  0
TEXT
  5
12C
330
18
100
AcDbEntity
  8
BZA45776
 62
     5
100
AcDbText
 10
215.6827048820683
 20
159.5029887511447
 30
0.0
 40
3.5
  1
 8.4 
 50
90.0
 72
     1
 11
215.6827048820683
 21
164.0529887511448
 31
0.0
100
AcDbText
1001
PHOENIX7010
1002
{
1070
    41
1040
0.5
1002
}
  0
LINE
  5
12D
330
18
100
AcDbEntity
  8
BZA45776
  6
Continuous
 62
     1
100
AcDbLine
 10
193.4825706047245
 20
147.2530314757541
 30
0.0
 11
218.6826743644902
 21
147.2530467345432
 31
0.0
1001
PHOENIX7010
1002
{
1070
    41
1040
0.5
1002
}
  0
TEXT
  5
12F
330
18
100
AcDbEntity
  8
BZA45776
 62
     5
100
AcDbText
 10
215.6521873039433
 20
186.5247905089572
 30
0.0
 40
3.5
  1
0.6
 50
90.0
100
AcDbText
1001
PHOENIX7010
1002
{
1070
    41
1040
0.5
1002
}
  0
LINE
  5
131
330
18
100
AcDbEntity
  8
BZA45776
  6
Continuous
 62
     1
100
AcDbLine
 10
131.882595018787
 20
183.2530467345432
 30
0.0
 11
158.9304008049198
 21
183.2530467345432
 31
0.0
1001
PHOENIX7010
1002
{
1070
    41
1040
0.5
1002
}
  0
LINE
  5
132
330
18
100
AcDbEntity
  8
BZA45776
  6
Continuous
 62
     1
100
AcDbLine
 10
216.6826743644902
 20
183.2530467345432
 30
0.0
 11
216.2258262199589
 21
186.7231089904026
 31
0.0
1001
PHOENIX7010
1002
{
1070
    41
1040
0.5
1002
}
  0
LINE
  5
133
330
18
100
AcDbEntity
  8
BZA45776
  6
Continuous
 62
     1
100
AcDbLine
 10
216.6826743644902
 20
183.2530467345432
 30
0.0
 11
217.1395225090214
 21
186.7231089904026
 31
0.0
1001
PHOENIX7010
1002
{
1070
    41
1040
0.5
1002
}
  0
LINE
  5
134
330
18
100
AcDbEntity
  8
BZA45776
  6
Continuous
 62
     1
100
AcDbLine
 10
216.6826743644902
 20
180.8530528380588
 30
0.0
 11
216.2258262199589
 21
177.3829905821994
 31
0.0
1001
PHOENIX7010
1002
{
1070
    41
1040
0.5
1002
}
  0
LINE
  5
135
330
18
100
AcDbEntity
  8
BZA45776
  6
Continuous
 62
     1
100
AcDbLine
 10
216.6826743644902
 20
180.8530528380588
 30
0.0
 11
217.1395225090214
 21
177.3829905821994
 31
0.0
1001
PHOENIX7010
1002
{
1070
    41
1040
0.5
1002
}
  0
LINE
  5
136
330
18
100
AcDbEntity
  8
BZA45776
  6
Continuous
 62
     1
100
AcDbLine
 10
216.6826743644902
 20
192.7546183898166
 30
0.0
 11
216.6826743644902
 21
166.3530528380588
 31
0.0
1001
PHOENIX7010
1002
{
1070
    41
1040
0.5
1002
}
  0
LINE
  5
137
330
18
100
AcDbEntity
  8
BZA45776
  6
Continuous
 62
     1
100
AcDbLine
 10
166.7084159416386
 20
183.2530467345432
 30
0.0
 11
218.6826743644902
 21
183.2530467345432
 31
0.0
1001
PHOENIX7010
1002
{
1070
    41
1040
0.5
1002
}
  0
LINE
  5
139
330
18
100
AcDbEntity
  8
BZA45776
  6
Continuous
 62
     1
100
AcDbLine
 10
125.6825217765995
 20
164.0530345275119
 30
0.0
 11
130.5485496086307
 21
133.2531077696994
 31
0.0
1001
PHOENIX7010
1002
{
1070
    41
1040
0.5
1002
}
  0
LINE
  5
13A
330
18
100
AcDbEntity
  8
BZA45776
  6
Continuous
 62
     1
100
AcDbLine
 10
130.5485496086307
 20
133.2531077696994
 30
0.0
 11
139.6878623527714
 21
133.2531077696994
 31
0.0
1001
PHOENIX7010
1002
{
1070
    41
1040
0.5
1002
}
  0
LINE
  5
13C
330
18
100
AcDbEntity
  8
BZA45776
  6
Continuous
 62
     1
100
AcDbLine
 10
125.6825522941776
 20
123.2531077696994
 30
0.0
 11
185.6825217765995
 21
123.2531077696994
 31
0.0
1001
PHOENIX7010
1002
{
1070
    41
1040
0.5
1002
}
  0
LINE
  5
13D
330
18
100
AcDbEntity
  8
BZA45776
  6
Continuous
 62
     1
100
AcDbLine
 10
185.6825217765995
 20
147.2530619933323
 30
0.0
 11
185.6825217765995
 21
121.2531077696994
 31
0.0
1001
PHOENIX7010
1002
{
1070
    41
1040
0.5
1002
}
  0
LINE
  5
13E
330
18
100
AcDbEntity
  8
BZA45776
  6
Continuous
 62
     1
100
AcDbLine
 10
125.6825522941776
 20
123.2531077696994
 30
0.0
 11
129.152614550037
 21
122.7962596251682
 31
0.0
1001
PHOENIX7010
1002
{
1070
    41
1040
0.5
1002
}
  0
LINE
  5
13F
330
18
100
AcDbEntity
  8
BZA45776
  6
Continuous
 62
     1
100
AcDbLine
 10
125.6825522941776
 20
123.2531077696994
 30
0.0
 11
129.152614550037
 21
123.7099559142307
 31
0.0
1001
PHOENIX7010
1002
{
1070
    41
1040
0.5
1002
}
  0
LINE
  5
140
330
18
100
AcDbEntity
  8
BZA45776
  6
Continuous
 62
     1
100
AcDbLine
 10
185.6825217765995
 20
123.2531077696994
 30
0.0
 11
182.2124595207401
 21
122.7962596251682
 31
0.0
1001
PHOENIX7010
1002
{
1070
    41
1040
0.5
1002
}
  0
LINE
  5
141
330
18
100
AcDbEntity
  8
BZA45776
  6
Continuous
 62
     1
100
AcDbLine
 10
185.6825217765995
 20
123.2531077696994
 30
0.0
 11
182.2124595207401
 21
123.7099559142307
 31
0.0
1001
PHOENIX7010
1002
{
1070
    41
1040
0.5
1002
}
  0
LINE
  5
144
330
18
100
AcDbEntity
  8
BZA45776
  6
Continuous
 62
     1
100
AcDbLine
 10
185.6825217765995
 20
164.0530345275119
 30
0.0
 11
180.8164939445682
 21
133.2531077696994
 31
0.0
1001
PHOENIX7010
1002
{
1070
    41
1040
0.5
1002
}
  0
LINE
  5
145
330
18
100
AcDbEntity
  8
BZA45776
  6
Continuous
 62
     1
100
AcDbLine
 10
180.8164939445682
 20
133.2531077696994
 30
0.0
 11
171.6771812004276
 21
133.2531077696994
 31
0.0
1001
PHOENIX7010
1002
{
1070
    41
1040
0.5
1002
}
  0
LINE
  5
147
330
18
100
AcDbEntity
  8
BZA45776
  6
Continuous
 62
     1
100
AcDbLine
 10
164.682643846912
 20
174.8530375792697
 30
0.0
 11
164.2257957023807
 21
171.3829753234104
 31
0.0
1001
PHOENIX7010
1002
{
1070
    41
1040
0.5
1002
}
  0
LINE
  5
148
330
18
100
AcDbEntity
  8
BZA45776
  6
Continuous
 62
     1
100
AcDbLine
 10
164.682643846912
 20
174.8530375792697
 30
0.0
 11
165.1394919914432
 21
171.3829753234104
 31
0.0
1001
PHOENIX7010
1002
{
1070
    41
1040
0.5
1002
}
  0
LINE
  5
149
330
18
100
AcDbEntity
  8
BZA45776
  6
Continuous
 62
     1
100
AcDbLine
 10
164.682643846912
 20
180.8530375792697
 30
0.0
 11
164.2257957023807
 21
184.3230998351291
 31
0.0
1001
PHOENIX7010
1002
{
1070
    41
1040
0.5
1002
}
  0
LINE
  5
14A
330
18
100
AcDbEntity
  8
BZA45776
  6
Continuous
 62
     1
100
AcDbLine
 10
164.682643846912
 20
180.8530375792697
 30
0.0
 11
165.1394919914432
 21
184.3230998351291
 31
0.0
1001
PHOENIX7010
1002
{
1070
    41
1040
0.5
1002
}
  0
TEXT
  5
14B
330
18
100
AcDbEntity
  8
BZA45776
 62
     5
100
AcDbText
 10
163.682643846912
 20
185.8530375792697
 30
0.0
 40
3.5
  1
1.5
 50
90.0
100
AcDbText
1001
PHOENIX7010
1002
{
1070
    41
1040
0.5
1002
}
  0
LINE
  5
14C
330
18
100
AcDbEntity
  8
BZA45776
  6
Continuous
 62
     1
100
AcDbLine
 10
164.682643846912
 20
167.8530375792697
 30
0.0
 11
164.682643846912
 21
192.2975108458713
 31
0.0
1001
PHOENIX7010
1002
{
1070
    41
1040
0.5
1002
}
  0
TEXT
  5
14E
330
18
100
AcDbEntity
  8
BZA45776
 62
     5
100
AcDbText
 10
53.68264384691201
 20
144.0530345275119
 30
0.0
 40
3.5
  1
1.5
 50
90.0
100
AcDbText
1001
PHOENIX7010
1002
{
1070
    41
1040
0.5
1002
}
  0
LINE
  5
150
102
{ACAD_REACTORS
330
155
102
}
330
18
100
AcDbEntity
  8
BZA45776
  6
Continuous
 62
     1
100
AcDbLine
 10
63.48257060472452
 20
143.2530467345432
 30
0.0
 11
52.68264384691201
 21
143.2530467345432
 31
0.0
1001
PHOENIX7010
1002
{
1070
    41
1040
0.5
1002
}
  0
LINE
  5
151
102
{ACAD_REACTORS
330
155
102
}
330
18
100
AcDbEntity
  8
BZA45776
  6
Continuous
 62
     1
100
AcDbLine
 10
63.48257060472452
 20
149.2530314757541
 30
0.0
 11
52.68264384691201
 21
149.2530314757541
 31
0.0
1001
PHOENIX7010
1002
{
1070
    41
1040
0.5
1002
}
  0
LINE
  5
152
102
{ACAD_REACTORS
330
155
102
}
330
18
100
AcDbEntity
  8
BZA45776
  6
Continuous
 62
     1
100
AcDbLine
 10
54.68264384691202
 20
143.2530467345432
 30
0.0
 11
54.22580142442666
 21
139.7829844786838
 31
0.0
1001
PHOENIX7010
1002
{
1070
    41
1040
0.5
1002
}
  0
LINE
  5
153
102
{ACAD_REACTORS
330
155
102
}
330
18
100
AcDbEntity
  8
BZA45776
  6
Continuous
 62
     1
100
AcDbLine
 10
54.68264384691202
 20
143.2530467345432
 30
0.0
 11
55.13948626939736
 21
139.7829844786838
 31
0.0
1001
PHOENIX7010
1002
{
1070
    41
1040
0.5
1002
}
  0
LINE
  5
154
102
{ACAD_REACTORS
330
155
102
}
330
18
100
AcDbEntity
  8
BZA45776
  6
Continuous
 62
     1
100
AcDbLine
 10
54.68264384691202
 20
136.2530467345432
 30
0.0
 11
54.68264384691202
 21
149.2530314757541
 31
0.0
1001
PHOENIX7010
1002
{
1070
    41
1040
0.5
1002
}
  0
LINE
  5
1FE
330
18
100
AcDbEntity
  8
31
  6
Continuous
 62
     7
100
AcDbLine
 10
129.5736350578495
 20
173.2650096251682
 30
0.0
 11
129.642604784412
 21
173.1684977843479
 31
0.0
1001
PHOENIX7010
1002
{
1070
    41
1040
0.5
1002
}
  0
ARC
  5
1FF
330
18
100
AcDbEntity
  8
31
  6
Continuous
 62
     7
100
AcDbCircle
 10
127.955837206287
 20
172.0354258849338
 30
0.0
 40
2.031974077224731
100
AcDbArc
 50
30.56111717224156
 51
33.88908386230491
1001
PHOENIX7010
1002
{
1070
    41
1040
0.5
1002
}
  0
ARC
  5
200
330
18
100
AcDbEntity
  8
31
  6
Continuous
 62
     7
100
AcDbCircle
 10
127.9828147453495
 20
172.0559031798557
 30
0.0
 40
1.998364448547363
100
AcDbArc
 50
27.06844329833943
 51
30.44795799255366
1001
PHOENIX7010
1002
{
1070
    41
1040
0.5
1002
}
  0
ARC
  5
201
330
18
100
AcDbEntity
  8
31
  6
Continuous
 62
     7
100
AcDbCircle
 10
127.9833030265995
 20
172.0536448790744
 30
0.0
 40
1.998970627784729
100
AcDbArc
 50
23.75639915466335
 51
27.13246726989734
1001
PHOENIX7010
1002
{
1070
    41
1040
0.5
1002
}
  0
ARC
  5
202
330
18
100
AcDbEntity
  8
31
  6
Continuous
 62
     7
100
AcDbCircle
 10
127.9696311515995
 20
172.0498912169651
 30
0.0
 40
2.012876510620117
100
AcDbArc
 50
20.34840965270956
 51
23.69860076904299
1001
PHOENIX7010
1002
{
1070
    41
1040
0.5
1002
}
  0
ARC
  5
203
330
18
100
AcDbEntity
  8
31
  6
Continuous
 62
     7
100
AcDbCircle
 10
127.9659690422245
 20
172.0465648009494
 30
0.0
 40
2.01759648323059
100
AcDbArc
 50
17.05766868591309
 51
20.39961624145501
1001
PHOENIX7010
1002
{
1070
    41
1040
0.5
1002
}
  0
ARC
  5
204
330
18
100
AcDbEntity
  8
31
  6
Continuous
 62
     7
100
AcDbCircle
 10
127.9615745109745
 20
172.0485484435276
 30
0.0
 40
2.02115249633789
100
AcDbArc
 50
13.6295967102049
 51
16.96788597106903
1001
PHOENIX7010
1002
{
1070
    41
1040
0.5
1002
}
  0
ARC
  5
205
330
18
100
AcDbEntity
  8
31
  6
Continuous
 62
     7
100
AcDbCircle
 10
127.9608420890995
 20
172.0465037657932
 30
0.0
 40
2.022424221038818
100
AcDbArc
 50
10.33977127075217
 51
13.68080615997299
1001
PHOENIX7010
1002
{
1070
    41
1040
0.5
1002
}
  0
ARC
  5
206
330
18
100
AcDbEntity
  8
31
  6
Continuous
 62
     7
100
AcDbCircle
 10
127.9637717765995
 20
172.0508677794651
 30
0.0
 40
2.018727779388427
100
AcDbArc
 50
6.87831592559779
 51
10.23241233825668
1001
PHOENIX7010
1002
{
1070
    41
1040
0.5
1002
}
  0
ARC
  5
207
330
18
100
AcDbEntity
  8
31
  6
Continuous
 62
     7
100
AcDbCircle
 10
127.9603538078495
 20
172.0472361876682
 30
0.0
 40
2.022534847259521
100
AcDbArc
 50
3.61311960220354
 51
6.969717502593947
1001
PHOENIX7010
1002
{
1070
    41
1040
0.5
1002
}
  0
ARC
  5
208
330
18
100
AcDbEntity
  8
31
  6
Continuous
 62
     7
100
AcDbCircle
 10
127.9522971672245
 20
172.0517222716526
 30
0.0
 40
2.030195713043212
100
AcDbArc
 50
0.1170860603450863
 51
3.472310431301524
1001
PHOENIX7010
1002
{
1070
    41
1040
0.5
1002
}
  0
ARC
  5
209
330
18
100
AcDbEntity
  8
31
  6
Continuous
 62
     7
100
AcDbCircle
 10
127.9667014640995
 20
172.0517527892307
 30
0.0
 40
2.015899181365966
100
AcDbArc
 50
356.7210693359376
 51
0.1172997951505082
1001
PHOENIX7010
1002
{
1070
    41
1040
0.5
1002
}
  0
ARC
  5
20A
330
18
100
AcDbEntity
  8
31
  6
Continuous
 62
     7
100
AcDbCircle
 10
128.0055198234745
 20
172.0540721251682
 30
0.0
 40
1.977244853973388
100
AcDbArc
 50
353.1035461425782
 51
356.5891418457028
1001
PHOENIX7010
1002
{
1070
    41
1040
0.5
1002
}
  0
ARC
  5
20B
330
18
100
AcDbEntity
  8
31
  6
Continuous
 62
     7
100
AcDbCircle
 10
127.9554709953495
 20
172.0529734923557
 30
0.0
 40
2.026753902435302
100
AcDbArc
 50
349.8908996582033
 51
353.3038635253909
1001
PHOENIX7010
1002
{
1070
    41
1040
0.5
1002
}
  0
ARC
  5
20C
330
18
100
AcDbEntity
  8
31
  6
Continuous
 62
     7
100
AcDbCircle
 10
127.830348925037
 20
172.0784556700901
 30
0.0
 40
2.15448260307312
100
AcDbArc
 50
346.5863647460941
 51
349.8087158203123
1001
PHOENIX7010
1002
{
1070
    41
1040
0.5
1002
}
  0
ARC
  5
20D
330
18
100
AcDbEntity
  8
31
  6
Continuous
 62
     7
100
AcDbCircle
 10
127.988307909412
 20
172.0586497618869
 30
0.0
 40
1.99633252620697
100
AcDbArc
 50
342.5362854003905
 51
346.0869750976558
1001
PHOENIX7010
1002
{
1070
    41
1040
0.5
1002
}
  0
ARC
  5
20E
330
18
100
AcDbEntity
  8
31
  6
Continuous
 62
     7
100
AcDbCircle
 10
128.265163378162
 20
171.9759471251682
 30
0.0
 40
1.707405924797058
100
AcDbArc
 50
338.1366577148438
 51
342.3959960937497
1001
PHOENIX7010
1002
{
1070
    41
1040
0.5
1002
}
  0
ARC
  5
20F
330
18
100
AcDbEntity
  8
31
  6
Continuous
 62
     7
100
AcDbCircle
 10
127.874294237537
 20
172.0699412657932
 30
0.0
 40
2.105944633483886
100
AcDbArc
 50
336.465087890625
 51
339.7236328125002
1001
PHOENIX7010
1002
{
1070
    41
1040
0.5
1002
}
  0
LINE
  5
210
330
18
100
AcDbEntity
  8
31
  6
Continuous
 62
     7
100
AcDbLine
 10
129.8050803703495
 20
171.2290904357151
 30
0.0
 11
129.7611350578495
 21
171.1299083068088
 31
0.0
1001
PHOENIX7010
1002
{
1070
    41
1040
0.5
1002
}
  0
ARC
  5
211
330
18
100
AcDbEntity
  8
31
  6
Continuous
 62
     7
100
AcDbCircle
 10
128.2372092765995
 20
171.9640452696994
 30
0.0
 40
1.737273931503295
100
AcDbArc
 50
326.7412109375004
 51
331.3024902343745
1001
PHOENIX7010
1002
{
1070
    41
1040
0.5
1002
}
  0
ARC
  5
212
330
18
100
AcDbEntity
  8
31
  6
Continuous
 62
     7
100
AcDbCircle
 10
128.3946799797245
 20
171.8516490294651
 30
0.0
 40
1.544091820716857
100
AcDbArc
 50
319.101379394531
 51
327.0261230468752
1001
PHOENIX7010
1002
{
1070
    41
1040
0.5
1002
}
  0
ARC
  5
213
330
18
100
AcDbEntity
  8
31
  6
Continuous
 62
     7
100
AcDbCircle
 10
126.2660178703495
 20
173.3899791075901
 30
0.0
 40
4.166546821594238
100
AcDbArc
 50
318.4150390625002
 51
322.2773132324219
1001
PHOENIX7010
1002
{
1070
    41
1040
0.5
1002
}
  0
LINE
  5
215
330
18
100
AcDbEntity
  8
31
  6
Continuous
 62
     7
100
AcDbLine
 10
121.9825706047245
 20
170.6248881652072
 30
0.0
 11
121.9039573234745
 21
170.7065074279026
 31
0.0
1001
PHOENIX7010
1002
{
1070
    41
1040
0.5
1002
}
  0
ARC
  5
216
330
18
100
AcDbEntity
  8
31
  6
Continuous
 62
     7
100
AcDbCircle
 10
123.3983420890995
 20
172.06722520134
 30
0.0
 40
2.02111792564392
100
AcDbArc
 50
219.1194305419925
 51
222.3211212158204
1001
PHOENIX7010
1002
{
1070
    41
1040
0.5
1002
}
  0
ARC
  5
217
330
18
100
AcDbEntity
  8
31
  6
Continuous
 62
     7
100
AcDbCircle
 10
123.389430956287
 20
172.055750591965
 30
0.0
 40
2.00696063041687
100
AcDbArc
 50
215.7990570068363
 51
219.0259704589844
1001
PHOENIX7010
1002
{
1070
    41
1040
0.5
1002
}
  0
ARC
  5
218
330
18
100
AcDbEntity
  8
31
  6
Continuous
 62
     7
100
AcDbCircle
 10
123.3934592765995
 20
172.0610606505588
 30
0.0
 40
2.013412475585937
100
AcDbArc
 50
212.6334075927737
 51
215.8532409667969
1001
PHOENIX7010
1002
{
1070
    41
1040
0.5
1002
}
  0
ARC
  5
219
330
18
100
AcDbEntity
  8
31
  6
Continuous
 62
     7
100
AcDbCircle
 10
123.399684862537
 20
172.0627391173557
 30
0.0
 40
2.019517421722412
100
AcDbArc
 50
209.3657073974611
 51
212.5795440673829
1001
PHOENIX7010
1002
{
1070
    41
1040
0.5
1002
}
  0
ARC
  5
21A
330
18
100
AcDbEntity
  8
31
  6
Continuous
 62
     7
100
AcDbCircle
 10
123.4002952140995
 20
172.0638987853244
 30
0.0
 40
2.020562887191772
100
AcDbArc
 50
206.1705017089842
 51
209.38688659668
1001
PHOENIX7010
1002
{
1070
    41
1040
0.5
1002
}
  0
ARC
  5
21B
330
18
100
AcDbEntity
  8
31
  6
Continuous
 62
     7
100
AcDbCircle
 10
123.4027366203495
 20
172.0623118712619
 30
0.0
 40
2.022163391113281
100
AcDbArc
 50
202.8766784667972
 51
206.0980987548826
1001
PHOENIX7010
1002
{
1070
    41
1040
0.5
1002
}
  0
ARC
  5
21C
330
18
100
AcDbEntity
  8
31
  6
Continuous
 62
     7
100
AcDbCircle
 10
123.401882128162
 20
172.0627391173557
 30
0.0
 40
2.021499156951904
100
AcDbArc
 50
199.6659698486325
 51
202.8978881835934
1001
PHOENIX7010
1002
{
1070
    41
1040
0.5
1002
}
  0
ARC
  5
21D
330
18
100
AcDbEntity
  8
31
  6
Continuous
 62
     7
100
AcDbCircle
 10
123.3956565422245
 20
172.0573985411838
 30
0.0
 40
2.013846158981323
100
AcDbArc
 50
196.3245391845706
 51
199.5812377929685
1001
PHOENIX7010
1002
{
1070
    41
1040
0.5
1002
}
  0
ARC
  5
21E
330
18
100
AcDbEntity
  8
31
  6
Continuous
 62
     7
100
AcDbCircle
 10
123.3995627922245
 20
172.0591075255588
 30
0.0
 40
2.018094778060913
100
AcDbArc
 50
193.0775299072264
 51
196.3401794433589
1001
PHOENIX7010
1002
{
1070
    41
1040
0.5
1002
}
  0
ARC
  5
21F
330
18
100
AcDbEntity
  8
31
  6
Continuous
 62
     7
100
AcDbCircle
 10
123.4110374015995
 20
172.05892442009
 30
0.0
 40
2.029187202453613
100
AcDbArc
 50
189.737838745117
 51
192.9993591308596
1001
PHOENIX7010
1002
{
1070
    41
1040
0.5
1002
}
  0
ARC
  5
220
330
18
100
AcDbEntity
  8
31
  6
Continuous
 62
     7
100
AcDbCircle
 10
123.3937034172245
 20
172.0538890196994
 30
0.0
 40
2.011206626892089
100
AcDbArc
 50
186.3669433593745
 51
189.6809234619137
1001
PHOENIX7010
1002
{
1070
    41
1040
0.5
1002
}
  0
ARC
  5
221
330
18
100
AcDbEntity
  8
31
  6
Continuous
 62
     7
100
AcDbCircle
 10
123.346462206287
 20
172.0454966857151
 30
0.0
 40
1.963377594947814
100
AcDbArc
 50
182.8494873046871
 51
186.2757263183594
1001
PHOENIX7010
1002
{
1070
    41
1040
0.5
1002
}
  0
ARC
  5
222
330
18
100
AcDbEntity
  8
31
  6
Continuous
 62
     7
100
AcDbCircle
 10
123.4156760734745
 20
172.0573069884494
 30
0.0
 40
2.033104419708251
100
AcDbArc
 50
179.762420654297
 51
183.0853271484374
1001
PHOENIX7010
1002
{
1070
    41
1040
0.5
1002
}
  0
ARC
  5
223
330
18
100
AcDbEntity
  8
31
  6
Continuous
 62
     7
100
AcDbCircle
 10
123.5919456047245
 20
172.0531260802463
 30
0.0
 40
2.209430932998657
100
AcDbArc
 50
176.6033325195309
 51
179.6723785400393
1001
PHOENIX7010
1002
{
1070
    41
1040
0.5
1002
}
  0
ARC
  5
224
330
18
100
AcDbEntity
  8
31
  6
Continuous
 62
     7
100
AcDbCircle
 10
123.3832053703495
 20
172.0440928771213
 30
0.0
 40
2.001621007919311
100
AcDbArc
 50
172.5044555664063
 51
175.9914550781245
1001
PHOENIX7010
1002
{
1070
    41
1040
0.5
1002
}
  0
ARC
  5
225
330
18
100
AcDbEntity
  8
31
  6
Continuous
 62
     7
100
AcDbCircle
 10
123.0560569328495
 20
172.0807750060276
 30
0.0
 40
1.672463059425354
100
AcDbArc
 50
167.9391326904292
 51
172.2878112792966
1001
PHOENIX7010
1002
{
1070
    41
1040
0.5
1002
}
  0
ARC
  5
226
330
18
100
AcDbEntity
  8
31
  6
Continuous
 62
     7
100
AcDbCircle
 10
123.567165331287
 20
172.0450694396213
 30
0.0
 40
2.180999040603637
100
AcDbArc
 50
166.6501464843748
 51
169.8287048339845
1001
PHOENIX7010
1002
{
1070
    41
1040
0.5
1002
}
  0
LINE
  5
227
330
18
100
AcDbEntity
  8
31
  6
Continuous
 62
     7
100
AcDbLine
 10
121.445095018787
 20
172.5487468077854
 30
0.0
 11
121.4710959953495
 21
172.6566874816135
 31
0.0
1001
PHOENIX7010
1002
{
1070
    41
1040
0.5
1002
}
  0
ARC
  5
228
330
18
100
AcDbEntity
  8
31
  6
Continuous
 62
     7
100
AcDbCircle
 10
123.0980491203495
 20
172.0970408751682
 30
0.0
 40
1.720423936843872
100
AcDbArc
 50
156.1416473388666
 51
161.018859863281
1001
PHOENIX7010
1002
{
1070
    41
1040
0.5
1002
}
  0
ARC
  5
229
330
18
100
AcDbEntity
  8
31
  6
Continuous
 62
     7
100
AcDbCircle
 10
122.9137229484745
 20
172.1890513732151
 30
0.0
 40
1.514790415763854
100
AcDbArc
 50
147.7049102783198
 51
156.5071716308597
1001
PHOENIX7010
1002
{
1070
    41
1040
0.5
1002
}
  0
ARC
  5
22A
330
18
100
AcDbEntity
  8
31
  6
Continuous
 62
     7
100
AcDbCircle
 10
125.4352073234745
 20
170.9187877013401
 30
0.0
 40
4.333418846130371
100
AcDbArc
 50
147.2205963134766
 51
151.3213958740235
1001
PHOENIX7010
1002
{
1070
    41
1040
0.5
1002
}
  0
ARC
  5
22C
330
18
100
AcDbEntity
  8
31
  6
Continuous
 62
     7
100
AcDbCircle
 10
188.6214866203495
 20
156.0522105529026
 30
0.0
 40
0.7611783146858216
100
AcDbArc
 50
353.3262023925781
 51
356.7139587402341
1001
PHOENIX7010
1002
{
1070
    41
1040
0.5
1002
}
  0
ARC
  5
22D
330
18
100
AcDbEntity
  8
31
  6
Continuous
 62
     7
100
AcDbCircle
 10
188.5782737297245
 20
156.0567576720432
 30
0.0
 40
0.8047080636024475
100
AcDbArc
 50
350.0989990234374
 51
353.3627929687506
1001
PHOENIX7010
1002
{
1070
    41
1040
0.5
1002
}
  0
ARC
  5
22E
330
18
100
AcDbEntity
  8
31
  6
Continuous
 62
     7
100
AcDbCircle
 10
188.5460471672245
 20
156.0613047911838
 30
0.0
 40
0.8371886014938354
100
AcDbArc
 50
346.9866027832031
 51
350.1725158691406
1001
PHOENIX7010
1002
{
1070
    41
1040
0.5
1002
}
  0
ARC
  5
22F
330
18
100
AcDbEntity
  8
31
  6
Continuous
 62
     7
100
AcDbCircle
 10
188.545680956287
 20
156.0623423888401
 30
0.0
 40
0.8377630114555358
100
AcDbArc
 50
343.6963806152347
 51
346.9230651855474
1001
PHOENIX7010
1002
{
1070
    41
1040
0.5
1002
}
  0
ARC
  5
230
330
18
100
AcDbEntity
  8
31
  6
Continuous
 62
     7
100
AcDbCircle
 10
188.542995409412
 20
156.0632884337619
 30
0.0
 40
0.8406199216842651
100
AcDbArc
 50
340.4295043945311
 51
343.684387207031
1001
PHOENIX7010
1002
{
1070
    41
1040
0.5
1002
}
  0
ARC
  5
231
330
18
100
AcDbEntity
  8
31
  6
Continuous
 62
     7
100
AcDbCircle
 10
188.5428733390995
 20
156.0651194884494
 30
0.0
 40
0.8412911295890808
100
AcDbArc
 50
337.0228271484371
 51
340.3143615722655
1001
PHOENIX7010
1002
{
1070
    41
1040
0.5
1002
}
  0
ARC
  5
232
330
18
100
AcDbEntity
  8
31
  6
Continuous
 62
     7
100
AcDbCircle
 10
188.5450706047245
 20
156.064539654465
 30
0.0
 40
0.8391585946083068
100
AcDbArc
 50
333.66796875
 51
337.0039367675783
1001
PHOENIX7010
1002
{
1070
    41
1040
0.5
1002
}
  0
ARC
  5
233
330
18
100
AcDbEntity
  8
31
  6
Continuous
 62
     7
100
AcDbCircle
 10
188.557399706287
 20
156.0614878966525
 30
0.0
 40
0.8267040848731994
100
AcDbArc
 50
330.0519104003902
 51
333.4770507812497
1001
PHOENIX7010
1002
{
1070
    41
1040
0.5
1002
}
  0
ARC
  5
234
330
18
100
AcDbEntity
  8
31
  6
Continuous
 62
     7
100
AcDbCircle
 10
188.5621604484745
 20
156.0588023497776
 30
0.0
 40
0.8212521076202392
100
AcDbArc
 50
326.5618896484379
 51
330.0474853515622
1001
PHOENIX7010
1002
{
1070
    41
1040
0.5
1002
}
  0
ARC
  5
235
330
18
100
AcDbEntity
  8
31
  6
Continuous
 62
     7
100
AcDbCircle
 10
188.569606737537
 20
156.0572154357151
 30
0.0
 40
0.8141498565673828
100
AcDbArc
 50
322.808410644531
 51
326.3671264648441
1001
PHOENIX7010
1002
{
1070
    41
1040
0.5
1002
}
  0
ARC
  5
236
330
18
100
AcDbEntity
  8
31
  6
Continuous
 62
     7
100
AcDbCircle
 10
188.5814475578495
 20
156.0493419005588
 30
0.0
 40
0.8000152111053466
100
AcDbArc
 50
319.0789489746092
 51
322.7471618652339
1001
PHOENIX7010
1002
{
1070
    41
1040
0.5
1002
}
  0
ARC
  5
237
330
18
100
AcDbEntity
  8
31
  6
Continuous
 62
     7
100
AcDbCircle
 10
188.602565721912
 20
156.0346324279026
 30
0.0
 40
0.7743790149688721
100
AcDbArc
 50
315.0231323242191
 51
318.873992919922
1001
PHOENIX7010
1002
{
1070
    41
1040
0.5
1002
}
  0
ARC
  5
238
330
18
100
AcDbEntity
  8
31
  6
Continuous
 62
     7
100
AcDbCircle
 10
188.587429003162
 20
156.0460765196994
 30
0.0
 40
0.7931994795799256
100
AcDbArc
 50
311.4055175781252
 51
315.2112121582031
1001
PHOENIX7010
1002
{
1070
    41
1040
0.5
1002
}
  0
ARC
  5
239
330
18
100
AcDbEntity
  8
31
  6
Continuous
 62
     7
100
AcDbCircle
 10
188.5555686515995
 20
156.0857493712619
 30
0.0
 40
0.844066560268402
100
AcDbArc
 50
307.6225585937503
 51
311.2495727539058
1001
PHOENIX7010
1002
{
1070
    41
1040
0.5
1002
}
  0
ARC
  5
23A
330
18
100
AcDbEntity
  8
31
  6
Continuous
 62
     7
100
AcDbCircle
 10
188.6007346672245
 20
156.0406443907932
 30
0.0
 40
0.7808189392089844
100
AcDbArc
 50
302.9606628417966
 51
307.0179138183593
1001
PHOENIX7010
1002
{
1070
    41
1040
0.5
1002
}
  0
ARC
  5
23B
330
18
100
AcDbEntity
  8
31
  6
Continuous
 62
     7
100
AcDbCircle
 10
188.6603049797245
 20
155.9528453185276
 30
0.0
 40
0.6746998429298401
100
AcDbArc
 50
297.8619384765625
 51
302.7689208984374
1001
PHOENIX7010
1002
{
1070
    41
1040
0.5
1002
}
  0
ARC
  5
23C
330
18
100
AcDbEntity
  8
31
  6
Continuous
 62
     7
100
AcDbCircle
 10
188.5465354484745
 20
156.1070811583713
 30
0.0
 40
0.8647112846374511
100
AcDbArc
 50
296.0380859375002
 51
299.7544250488279
1001
PHOENIX7010
1002
{
1070
    41
1040
0.5
1002
}
  0
ARC
  5
23D
330
18
100
AcDbEntity
  8
31
  6
Continuous
 62
     7
100
AcDbCircle
 10
187.928005175037
 20
157.3583934142307
 30
0.0
 40
2.260510206222534
100
AcDbArc
 50
294.859832763672
 51
296.2005310058591
1001
PHOENIX7010
1002
{
1070
    41
1040
0.5
1002
}
  0
ARC
  5
23E
330
18
100
AcDbEntity
  8
31
  6
Continuous
 62
     7
100
AcDbCircle
 10
188.623805956287
 20
156.0049693419651
 30
0.0
 40
0.7426066398620606
100
AcDbArc
 50
284.8537902832031
 51
290.043670654297
1001
PHOENIX7010
1002
{
1070
    41
1040
0.5
1002
}
  0
ARC
  5
23F
330
18
100
AcDbEntity
  8
31
  6
Continuous
 62
     7
100
AcDbCircle
 10
188.6520041984745
 20
155.8965709044651
 30
0.0
 40
0.6306169629096985
100
AcDbArc
 50
275.6766662597656
 51
284.9072875976562
1001
PHOENIX7010
1002
{
1070
    41
1040
0.5
1002
}
  0
ARC
  5
240
330
18
100
AcDbEntity
  8
31
  6
Continuous
 62
     7
100
AcDbCircle
 10
188.454372362537
 20
156.8487498595432
 30
0.0
 40
1.600948572158813
100
AcDbArc
 50
274.598663330078
 51
279.3445739746093
1001
PHOENIX7010
1002
{
1070
    41
1040
0.5
1002
}
  0
ARC
  5
242
102
{ACAD_REACTORS
330
252
102
}
330
18
100
AcDbEntity
  8
31
  6
Continuous
 62
     7
100
AcDbCircle
 10
182.7855491203495
 20
156.1184947325901
 30
0.0
 40
0.8655593991279602
100
AcDbArc
 50
262.2310791015625
 51
265.9847412109376
1001
PHOENIX7010
1002
{
1070
    41
1040
0.5
1002
}
  0
ARC
  5
243
102
{ACAD_REACTORS
330
252
102
}
330
18
100
AcDbEntity
  8
31
  6
Continuous
 62
     7
100
AcDbCircle
 10
182.7755393547245
 20
156.0370433165744
 30
0.0
 40
0.7833567261695862
100
AcDbArc
 50
254.0401916503905
 51
258.0750122070313
1001
PHOENIX7010
1002
{
1070
    41
1040
0.5
1002
}
  0
ARC
  5
244
102
{ACAD_REACTORS
330
252
102
}
330
18
100
AcDbEntity
  8
31
  6
Continuous
 62
     7
100
AcDbCircle
 10
182.7777366203495
 20
156.0408274962619
 30
0.0
 40
0.7875971198081971
100
AcDbArc
 50
250.0066375732423
 51
253.9667358398438
1001
PHOENIX7010
1002
{
1070
    41
1040
0.5
1002
}
  0
ARC
  5
245
102
{ACAD_REACTORS
330
252
102
}
330
18
100
AcDbEntity
  8
31
  6
Continuous
 62
     7
100
AcDbCircle
 10
182.7765159172245
 20
156.0389048888401
 30
0.0
 40
0.7854898571968079
100
AcDbArc
 50
242.1909027099609
 51
246.0951385498046
1001
PHOENIX7010
1002
{
1070
    41
1040
0.5
1002
}
  0
ARC
  5
246
102
{ACAD_REACTORS
330
252
102
}
330
18
100
AcDbEntity
  8
31
  6
Continuous
 62
     7
100
AcDbCircle
 10
182.778102831287
 20
156.0425364806369
 30
0.0
 40
0.789486825466156
100
AcDbArc
 50
234.5123138427734
 51
238.3565063476561
1001
PHOENIX7010
1002
{
1070
    41
1040
0.5
1002
}
  0
ARC
  5
247
102
{ACAD_REACTORS
330
252
102
}
330
18
100
AcDbEntity
  8
31
  6
Continuous
 62
     7
100
AcDbCircle
 10
182.7855491203495
 20
156.0518748595432
 30
0.0
 40
0.8015360832214355
100
AcDbArc
 50
226.9355010986326
 51
230.69287109375
1001
PHOENIX7010
1002
{
1070
    41
1040
0.5
1002
}
  0
ARC
  5
248
102
{ACAD_REACTORS
330
252
102
}
330
18
100
AcDbEntity
  8
31
  6
Continuous
 62
     7
100
AcDbCircle
 10
182.7801780265995
 20
156.0458628966526
 30
0.0
 40
0.7935411334037781
100
AcDbArc
 50
219.3403930664065
 51
223.1318969726562
1001
PHOENIX7010
1002
{
1070
    41
1040
0.5
1002
}
  0
ARC
  5
249
102
{ACAD_REACTORS
330
252
102
}
330
18
100
AcDbEntity
  8
31
  6
Continuous
 62
     7
100
AcDbCircle
 10
182.8294944328495
 20
156.0856883361057
 30
0.0
 40
0.8571482300758361
100
AcDbArc
 50
212.3115234374998
 51
215.8017120361325
1001
PHOENIX7010
1002
{
1070
    41
1040
0.5
1002
}
  0
ARC
  5
24A
102
{ACAD_REACTORS
330
252
102
}
330
18
100
AcDbEntity
  8
31
  6
Continuous
 62
     7
100
AcDbCircle
 10
182.7867698234745
 20
156.0526377989963
 30
0.0
 40
0.8034508824348449
100
AcDbArc
 50
208.1745147705075
 51
211.9462890625003
1001
PHOENIX7010
1002
{
1070
    41
1040
0.5
1002
}
  0
ARC
  5
24B
102
{ACAD_REACTORS
330
252
102
}
330
18
100
AcDbEntity
  8
31
  6
Continuous
 62
     7
100
AcDbCircle
 10
182.6964377922245
 20
156.0009410216526
 30
0.0
 40
0.6992878913879395
100
AcDbArc
 50
203.5410003662111
 51
207.9405517578123
1001
PHOENIX7010
1002
{
1070
    41
1040
0.5
1002
}
  0
ARC
  5
24C
102
{ACAD_REACTORS
330
252
102
}
330
18
100
AcDbEntity
  8
31
  6
Continuous
 62
     7
100
AcDbCircle
 10
182.8080100578495
 20
156.0740916564182
 30
0.0
 40
0.8311167955398559
100
AcDbArc
 50
201.6203002929682
 51
205.0914764404293
1001
PHOENIX7010
1002
{
1070
    41
1040
0.5
1002
}
  0
ARC
  5
24D
102
{ACAD_REACTORS
330
252
102
}
330
18
100
AcDbEntity
  8
31
  6
Continuous
 62
     7
100
AcDbCircle
 10
183.5804709953495
 20
156.3858897521213
 30
0.0
 40
1.664213418960571
100
AcDbArc
 50
200.2471160888671
 51
201.799362182617
1001
PHOENIX7010
1002
{
1070
    41
1040
0.5
1002
}
  0
ARC
  5
24E
102
{ACAD_REACTORS
330
252
102
}
330
18
100
AcDbEntity
  8
31
  6
Continuous
 62
     7
100
AcDbCircle
 10
182.6869163078495
 20
156.0084483458713
 30
0.0
 40
0.6967494487762452
100
AcDbArc
 50
191.9932250976565
 51
196.5545196533204
1001
PHOENIX7010
1002
{
1070
    41
1040
0.5
1002
}
  0
ARC
  5
24F
102
{ACAD_REACTORS
330
252
102
}
330
18
100
AcDbEntity
  8
31
  6
Continuous
 62
     7
100
AcDbCircle
 10
182.6197776359745
 20
155.9965007140354
 30
0.0
 40
0.628493070602417
100
AcDbArc
 50
184.6270599365233
 51
192.1999511718751
1001
PHOENIX7010
1002
{
1070
    41
1040
0.5
1002
}
  0
ARC
  5
250
102
{ACAD_REACTORS
330
252
102
}
330
18
100
AcDbEntity
  8
31
  6
Continuous
 62
     7
100
AcDbCircle
 10
183.5748557609745
 20
156.1557261779026
 30
0.0
 40
1.595357298851013
100
AcDbArc
 50
183.6933746337892
 51
187.5613861083982
1001
PHOENIX7010
1002
{
1070
    41
1040
0.5
1002
}
  0
LINE
  5
443
102
{ACAD_REACTORS
330
452
102
}
330
18
100
AcDbEntity
  8
0
  6
Continuous
 62
     1
100
AcDbLine
 10
230.0
 20
5.000000000000113
 30
0.0
 11
230.0
 21
1.000000000000113
 31
0.0
1001
PHOENIX7010
1002
{
1070
    62
1070
     1
1070
    41
1040
1.0
1002
}
  0
LINE
  5
444
102
{ACAD_REACTORS
330
452
102
}
330
18
100
AcDbEntity
  8
0
  6
Continuous
 62
     3
100
AcDbLine
 10
415.0
 20
5.000000000000113
 30
0.0
 11
20.0
 21
5.000000000000113
 31
0.0
1001
PHOENIX7010
1002
{
1070
    62
1070
     3
1070
    41
1040
1.0
1002
}
  0
LINE
  5
445
102
{ACAD_REACTORS
330
452
102
}
330
18
100
AcDbEntity
  8
0
  6
Continuous
 62
     1
100
AcDbLine
 10
125.0
 20
296.0000000000001
 30
0.0
 11
125.0
 21
292.0000000000001
 31
0.0
1001
PHOENIX7010
1002
{
1070
    62
1070
     1
1070
    41
1040
1.0
1002
}
  0
LINE
  5
446
102
{ACAD_REACTORS
330
452
102
}
330
18
100
AcDbEntity
  8
0
  6
Continuous
 62
     1
100
AcDbLine
 10
230.0
 20
296.0000000000001
 30
0.0
 11
230.0
 21
292.0000000000001
 31
0.0
1001
PHOENIX7010
1002
{
1070
    62
1070
     1
1070
    41
1040
1.0
1002
}
  0
LINE
  5
447
102
{ACAD_REACTORS
330
452
102
}
330
18
100
AcDbEntity
  8
0
  6
Continuous
 62
     1
100
AcDbLine
 10
125.0
 20
5.000000000000113
 30
0.0
 11
125.0
 21
1.000000000000113
 31
0.0
1001
PHOENIX7010
1002
{
1070
    62
1070
     1
1070
    41
1040
1.0
1002
}
  0
LINE
  5
448
102
{ACAD_REACTORS
330
452
102
}
330
18
100
AcDbEntity
  8
0
  6
Continuous
 62
     1
100
AcDbLine
 10
419.0
 20
1.000000000000113
 30
0.0
 11
1.0
 21
1.000000000000113
 31
0.0
1001
PHOENIX7010
1002
{
1070
    62
1070
     1
1070
    41
1040
1.0
1002
}
  0
LINE
  5
449
102
{ACAD_REACTORS
330
452
102
}
330
18
100
AcDbEntity
  8
0
  6
Continuous
 62
     1
100
AcDbLine
 10
1.0
 20
1.000000000000113
 30
0.0
 11
1.0
 21
296.0000000000001
 31
0.0
1001
PHOENIX7010
1002
{
1070
    62
1070
     1
1070
    41
1040
1.0
1002
}
  0
LINE
  5
44A
102
{ACAD_REACTORS
330
452
102
}
330
18
100
AcDbEntity
  8
0
  6
Continuous
 62
     1
100
AcDbLine
 10
1.0
 20
296.0000000000001
 30
0.0
 11
419.0
 21
296.0000000000001
 31
0.0
1001
PHOENIX7010
1002
{
1070
    62
1070
     1
1070
    41
1040
1.0
1002
}
  0
LINE
  5
44B
102
{ACAD_REACTORS
330
452
102
}
330
18
100
AcDbEntity
  8
0
  6
Continuous
 62
     1
100
AcDbLine
 10
419.0
 20
296.0000000000001
 30
0.0
 11
419.0
 21
1.000000000000113
 31
0.0
1001
PHOENIX7010
1002
{
1070
    62
1070
     1
1070
    41
1040
1.0
1002
}
  0
LINE
  5
44C
102
{ACAD_REACTORS
330
452
102
}
330
18
100
AcDbEntity
  8
0
  6
Continuous
 62
     3
100
AcDbLine
 10
20.0
 20
5.000000000000113
 30
0.0
 11
20.0
 21
292.0000000000001
 31
0.0
1001
PHOENIX7010
1002
{
1070
    62
1070
     3
1070
    41
1040
1.0
1002
}
  0
LINE
  5
44D
102
{ACAD_REACTORS
330
452
102
}
330
18
100
AcDbEntity
  8
0
  6
Continuous
 62
     3
100
AcDbLine
 10
20.0
 20
292.0000000000001
 30
0.0
 11
415.0
 21
292.0000000000001
 31
0.0
1001
PHOENIX7010
1002
{
1070
    62
1070
     3
1070
    41
1040
1.0
1002
}
  0
LINE
  5
44E
102
{ACAD_REACTORS
330
452
102
}
330
18
100
AcDbEntity
  8
0
  6
Continuous
 62
     3
100
AcDbLine
 10
415.0
 20
292.0000000000001
 30
0.0
 11
415.0
 21
5.000000000000113
 31
0.0
1001
PHOENIX7010
1002
{
1070
    62
1070
     3
1070
    41
1040
1.0
1002
}
  0
MTEXT
  5
44F
102
{ACAD_REACTORS
330
452
102
}
330
18
100
AcDbEntity
  8
0
  6
Continuous
 62
     7
370
    50
100
AcDbMText
 10
19.70248718641096
 20
55.39351207913341
 30
0.0
 40
2.0
 41
0.0
 71
     7
 72
     5
  1
{\T1.1;\C1;"Schutzvermerk nach DIN ISO 16016 beachten" \Q20;"Please pay attention to copyright note DIN ISO 16016"}
 11
0.0000000000000002
 21
1.0
 31
0.0
 73
     1
 44
1.0
1001
PHOENIX7010
1002
{
1070
    41
1040
1.0
1002
}
1001
ACAD
1000
MTEXTBEGIN
1070
    73
1070
     1
1070
    44
1040
1.0
1070
    74
1070
     0
1000
MTEXTEND
  0
INSERT
  5
450
102
{ACAD_REACTORS
330
452
102
}
330
18
100
AcDbEntity
  8
0
  6
Continuous
 62
     1
100
AcDbBlockReference
  2
PH_GRPBLK
 10
230.0
 20
5.000000000000113
 30
0.0
1001
PHOENIX7010
1002
{
1070
    41
1040
1.0
1002
}
  0
HATCH
  5
4DE
102
{ACAD_REACTORS
330
526
102
}
330
18
100
AcDbEntity
  8
0
  6
Continuous
 62
     1
370
    25
100
AcDbHatch
 10
0.0
 20
0.0
 30
0.0
210
0.0
220
0.0
230
1.0
  2
_U
 70
     0
 71
     1
 91
        1
 92
        0
 93
        5
 72
     1
 10
407.4334749940253
 20
35.16453811398049
 11
400.7334749940254
 21
27.36453811398042
 72
     1
 10
400.7334749940254
 20
27.36453811398042
 11
412.7334749940255
 21
27.36453811398042
 72
     1
 10
412.7334749940255
 20
27.36453811398042
 11
412.7334749940255
 21
35.16453811398049
 72
     1
 10
412.7334749940255
 20
35.16453811398037
 11
407.4334749940253
 21
28.26453811398051
 72
     1
 10
407.4334749940253
 20
28.26453811398051
 11
407.4334749940253
 21
35.16453811398049
 97
        1
330
521
 75
     0
 76
     0
 52
45.0
 41
0.1
 77
     0
 78
     1
 53
45.0
 43
0.0
 44
-32.08885297207042
 45
-0.0707106781186548
 46
0.0707106781186548
 79
     0
 98
        1
 10
0.0
 20
-32.08885297207042
1001
PHOENIX7010
1002
{
1070
    41
1040
1.0
1002
}
  0
HATCH
  5
4DF
102
{ACAD_REACTORS
330
526
102
}
330
18
100
AcDbEntity
  8
0
  6
Continuous
 62
     1
370
    25
100
AcDbHatch
 10
0.0
 20
0.0
 30
0.0
210
0.0
220
0.0
230
1.0
  2
_U
 70
     0
 71
     1
 91
        1
 92
        0
 93
        3
 72
     1
 10
399.8834749940256
 20
27.36453811398042
 11
399.8834749940256
 21
31.51453811398039
 72
     1
 10
399.8834749940256
 20
31.51453811398039
 11
404.0334749940257
 21
31.51453811398039
 72
     2
 10
399.8834749940256
 20
31.51453811398039
 40
4.149999999999977
 50
0.0000000000001962
 51
270.0
 73
     1
 97
        1
330
522
 75
     0
 76
     0
 52
45.0
 41
0.65
 77
     0
 78
     1
 53
45.0
 43
0.0
 44
-32.08885297207042
 45
-0.4596194077712559
 46
0.459619407771256
 79
     0
 98
        1
 10
0.0
 20
-32.08885297207042
1001
PHOENIX7010
1002
{
1070
    41
1040
1.0
1002
}
  0
LINE
  5
4E0
102
{ACAD_REACTORS
330
526
102
}
330
18
100
AcDbEntity
  8
0
  6
Continuous
 62
     7
370
    50
100
AcDbLine
 10
400.7334749940254
 20
27.36453811398042
 30
0.0
 11
412.7334749940255
 21
27.36453811398042
 31
0.0
1001
PHOENIX7010
1002
{
1070
    41
1040
1.0
1002
}
  0
LINE
  5
4E1
102
{ACAD_REACTORS
330
526
102
}
330
18
100
AcDbEntity
  8
0
  6
Continuous
 62
     7
370
    50
100
AcDbLine
 10
412.7334749940255
 20
27.36453811398042
 30
0.0
 11
412.7334749940255
 21
35.16453811398037
 31
0.0
1001
PHOENIX7010
1002
{
1070
    41
1040
1.0
1002
}
  0
LINE
  5
4E2
102
{ACAD_REACTORS
330
526
102
}
330
18
100
AcDbEntity
  8
0
  6
Continuous
 62
     7
370
    50
100
AcDbLine
 10
407.4334749940253
 20
28.26453811398039
 30
0.0
 11
407.4334749940253
 21
35.16453811398037
 31
0.0
1001
PHOENIX7010
1002
{
1070
    41
1040
1.0
1002
}
  0
LINE
  5
4E3
102
{ACAD_REACTORS
330
526
102
}
330
18
100
AcDbEntity
  8
0
  6
Continuous
 62
     7
370
    50
100
AcDbLine
 10
407.4334749940253
 20
35.16453811398037
 30
0.0
 11
400.7334749940254
 21
27.36453811398042
 31
0.0
1001
PHOENIX7010
1002
{
1070
    41
1040
1.0
1002
}
  0
LINE
  5
4E4
102
{ACAD_REACTORS
330
526
102
}
330
18
100
AcDbEntity
  8
0
  6
Continuous
 62
     7
370
    50
100
AcDbLine
 10
412.7334749940255
 20
35.16453811398037
 30
0.0
 11
407.4334749940253
 21
28.26453811398039
 31
0.0
1001
PHOENIX7010
1002
{
1070
    41
1040
1.0
1002
}
  0
INSERT
  5
4E5
102
{ACAD_REACTORS
330
526
102
}
330
18
100
AcDbEntity
  8
0
  6
Continuous
 62
     1
370
    25
100
AcDbBlockReference
  2
PH_GRPBLK
 10
400.7334749940254
 20
27.36453811398042
 30
0.0
1001
PHOENIX7010
1002
{
1070
    41
1040
1.0
1002
}
  0
MTEXT
  5
4E6
102
{ACAD_REACTORS
330
527
102
}
330
18
100
AcDbEntity
  8
0
  6
Continuous
 62
     7
370
    50
100
AcDbMText
 10
381.0842366554657
 20
17.88346060003152
 30
0.0
 40
1.6
 41
0.0
 71
     7
 72
     5
  1
{\fArial|b0|i0|c0|p34;\W1.1;\C1;A Phoenix Mecano Company}
 73
     1
 44
1.0
1001
PHOENIX7010
1002
{
1070
    41
1040
1.0
1002
}
1001
ACAD
1000
MTEXTBEGIN
1070
    73
1070
     1
1070
    44
1040
1.0
1070
    74
1070
     0
1000
MTEXTEND
  0
MTEXT
  5
4E7
102
{ACAD_XDICTIONARY
360
8EE
102
}
102
{ACAD_REACTORS
330
527
102
}
330
18
100
AcDbEntity
  8
0
  6
Continuous
 62
     7
370
    50
100
AcDbMText
 10
393.565880717586
 20
21.46517927327739
 30
0.0
 40
3.7
 41
0.0
 71
     7
 72
     5
  1
{\fArial|b1|i0|c0|p34;\W1.1;BOPLA}
 73
     1
 44
1.135135135135135
1001
PHOENIX7010
1002
{
1070
    41
1040
1.0
1002
}
1001
ACAD
1000
MTEXTBEGIN
1070
    73
1070
     1
1070
    44
1040
1.135135135135135
1070
    74
1070
     0
1000
MTEXTEND
  0
INSERT
  5
4E8
102
{ACAD_REACTORS
330
527
102
}
330
18
100
AcDbEntity
  8
0
  6
Continuous
 62
     7
370
    50
100
AcDbBlockReference
  2
PH_GRPBLK
 10
400.7334749940254
 20
27.36453811398042
 30
0.0
1001
PHOENIX7010
1002
{
1070
    41
1040
1.0
1002
}
  0
MTEXT
  5
4E9
102
{ACAD_REACTORS
330
528
102
}
330
18
100
AcDbEntity
  8
0
  6
Continuous
 62
     5
370
    35
100
AcDbMText
 10
318.9304981780733
 20
52.18090043987126
 30
0.0
 40
3.5
 41
0.0
 71
     7
 72
     5
  1
{\C7;Katalogzeichnung/\Q20;Catalogue drawing}
 73
     1
 44
1.0
1001
PHOENIX7010
1002
{
1070
    41
1040
1.0
1002
}
1001
ACAD
1000
MTEXTBEGIN
1070
    73
1070
     1
1070
    44
1040
1.0
1070
    74
1070
     0
1000
MTEXTEND
  0
MTEXT
  5
4EA
102
{ACAD_REACTORS
330
528
102
}
330
18
100
AcDbEntity
  8
0
  6
Continuous
 62
     5
370
    35
100
AcDbMText
 10
318.9304981780733
 20
59.18090043987127
 30
0.0
 40
4.0
 41
0.0
 71
     7
 72
     5
  1
{\C7;PF/M 000 . . -BN}
 73
     1
 44
1.0
1001
PHOENIX7010
1002
{
1070
    41
1040
1.0
1002
}
1001
ACAD
1000
MTEXTBEGIN
1070
    73
1070
     1
1070
    44
1040
1.0
1070
    74
1070
     0
1000
MTEXTEND
  0
MTEXT
  5
4EB
102
{ACAD_REACTORS
330
528
102
}
330
18
100
AcDbEntity
  8
0
  6
Continuous
 62
     5
370
    35
100
AcDbMText
 10
318.9304981780733
 20
66.18090043987127
 30
0.0
 40
4.0
 41
0.0
 71
     7
 72
     5
  1
{\C7;Interzoll Modul}
 73
     1
 44
1.0
1001
PHOENIX7010
1002
{
1070
    41
1040
1.0
1002
}
1001
ACAD
1000
MTEXTBEGIN
1070
    73
1070
     1
1070
    44
1040
1.0
1070
    74
1070
     0
1000
MTEXTEND
  0
MTEXT
  5
4EC
102
{ACAD_REACTORS
330
528
102
}
330
18
100
AcDbEntity
  8
0
  6
Continuous
 62
     5
370
    35
100
AcDbMText
 10
340.3074630969177
 20
95.1987580068237
 30
0.0
 40
4.0
 41
0.0
 71
     7
 72
     5
  1
{\C7;2:1}
 73
     1
 44
1.0
1001
PHOENIX7010
1002
{
1070
    41
1040
1.0
1002
}
1001
ACAD
1000
MTEXTBEGIN
1070
    73
1070
     1
1070
    44
1040
1.0
1070
    74
1070
     0
1000
MTEXTEND
  0
MTEXT
  5
4ED
102
{ACAD_REACTORS
330
528
102
}
330
18
100
AcDbEntity
  8
0
  6
Continuous
 62
     5
370
    35
100
AcDbMText
 10
319.2942762589885
 20
94.24669079255114
 30
0.0
 40
2.5
 41
0.0
 71
     7
 72
     5
  1
{\C1;Maßstab/\P\Q20;Scale:}
 73
     1
 44
1.0
1001
PHOENIX7010
1002
{
1070
    41
1040
1.0
1002
}
1001
ACAD
1000
MTEXTBEGIN
1070
    73
1070
     1
1070
    44
1040
1.0
1070
    74
1070
     0
1000
MTEXTEND
  0
MTEXT
  5
4EE
102
{ACAD_REACTORS
330
528
102
}
330
18
100
AcDbEntity
  8
0
  6
Continuous
 62
     5
370
    35
100
AcDbMText
 10
319.5702130763932
 20
86.578461793006
 30
0.0
 40
3.0
 41
0.0
 71
     7
 72
     5
  1
Zeichnungs-Nr. / {\Q20;Drawing-No.:}
 73
     1
 44
1.0
1001
PHOENIX7010
1002
{
1070
    41
1040
1.0
1002
}
1001
ACAD
1000
MTEXTBEGIN
1070
    73
1070
     1
1070
    44
1040
1.0
1070
    74
1070
     0
1000
MTEXTEND
  0
MTEXT
  5
4EF
102
{ACAD_REACTORS
330
528
102
}
330
18
100
AcDbEntity
  8
0
  6
Continuous
 62
     5
370
    35
100
AcDbMText
 10
340.681094216935
 20
80.43630467405568
 30
0.0
 40
4.0
 41
0.0
 71
     7
 72
     5
  1
{\C7;3K 5315.023.02}
 73
     1
 44
1.0
1001
PHOENIX7010
1002
{
1070
    41
1040
1.0
1002
}
1001
ACAD
1000
MTEXTBEGIN
1070
    73
1070
     1
1070
    44
1040
1.0
1070
    74
1070
     0
1000
MTEXTEND
  0
MTEXT
  5
4F0
102
{ACAD_REACTORS
330
528
102
}
330
18
100
AcDbEntity
  8
0
  6
Continuous
 62
     5
370
    35
100
AcDbMText
 10
318.8800602381664
 20
72.42896167163713
 30
0.0
 40
4.0
 41
0.0
 71
     7
 72
     5
  1
{\C7;Artikel / \Q20;Article:}
 73
     1
 44
1.0
1001
PHOENIX7010
1002
{
1070
    41
1040
1.0
1002
}
1001
ACAD
1000
MTEXTBEGIN
1070
    73
1070
     1
1070
    44
1040
1.0
1070
    74
1070
     0
1000
MTEXTEND
  0
MTEXT
  5
4F1
102
{ACAD_REACTORS
330
528
102
}
330
18
100
AcDbEntity
  8
0
  6
Continuous
 62
     5
370
    35
100
AcDbMText
 10
329.5918340418984
 20
15.32304279191089
 30
0.0
 40
2.0
 41
0.0
 71
     7
 72
     5
  1
{\C1;Datum/\P\Q20;Date:}
 73
     1
 44
1.0
1001
PHOENIX7010
1002
{
1070
    41
1040
1.0
1002
}
1001
ACAD
1000
MTEXTBEGIN
1070
    73
1070
     1
1070
    44
1040
1.0
1070
    74
1070
     0
1000
MTEXTEND
  0
MTEXT
  5
4F2
102
{ACAD_REACTORS
330
528
102
}
330
18
100
AcDbEntity
  8
0
  6
Continuous
 62
     5
370
    35
100
AcDbMText
 10
316.167758256943
 20
15.32303913053624
 30
0.0
 40
2.0
 41
0.0
 71
     7
 72
     5
  1
{\C1;Ä.Nr/\P\Q20;Alt-No.:}
 73
     1
 44
1.0
1001
PHOENIX7010
1002
{
1070
    41
1040
1.0
1002
}
1001
ACAD
1000
MTEXTBEGIN
1070
    73
1070
     1
1070
    44
1040
1.0
1070
    74
1070
     0
1000
MTEXTEND
  0
MTEXT
  5
4F3
102
{ACAD_REACTORS
330
528
102
}
330
18
100
AcDbEntity
  8
0
  6
Continuous
 62
     5
370
    35
100
AcDbMText
 10
342.2178658257171
 20
10.60592166613935
 30
0.0
 40
2.5
 41
0.0
 71
     7
 72
     5
  1
2 901 833
 73
     1
 44
1.0
1001
PHOENIX7010
1002
{
1070
    41
1040
1.0
1002
}
1001
ACAD
1000
MTEXTBEGIN
1070
    73
1070
     1
1070
    44
1040
1.0
1070
    74
1070
     0
1000
MTEXTEND
  0
MTEXT
  5
4F4
102
{ACAD_REACTORS
330
528
102
}
330
18
100
AcDbEntity
  8
0
  6
Continuous
 62
     5
370
    35
100
AcDbMText
 10
316.5289912646938
 20
10.49475527098116
 30
0.0
 40
2.5
 41
0.0
 71
     7
 72
     5
  1
DISK:
 73
     1
 44
1.0
1001
PHOENIX7010
1002
{
1070
    41
1040
1.0
1002
}
1001
ACAD
1000
MTEXTBEGIN
1070
    73
1070
     1
1070
    44
1040
1.0
1070
    74
1070
     0
1000
MTEXTEND
  0
MTEXT
  5
4F5
102
{ACAD_REACTORS
330
528
102
}
330
18
100
AcDbEntity
  8
0
  6
Continuous
 62
     5
370
    35
100
AcDbMText
 10
342.2178658257171
 20
6.248887523187704
 30
0.0
 40
2.5
 41
0.0
 71
     7
 72
     5
  1
18.06.99 HR
 73
     1
 44
1.0
1001
PHOENIX7010
1002
{
1070
    41
1040
1.0
1002
}
1001
ACAD
1000
MTEXTBEGIN
1070
    73
1070
     1
1070
    44
1040
1.0
1070
    74
1070
     0
1000
MTEXTEND
  0
MTEXT
  5
4F6
102
{ACAD_REACTORS
330
528
102
}
330
18
100
AcDbEntity
  8
0
  6
Continuous
 62
     5
370
    35
100
AcDbMText
 10
316.5289912646938
 20
6.248887523187704
 30
0.0
 40
2.5
 41
0.0
 71
     7
 72
     5
  1
Datum/{\Q20;Date:}
 73
     1
 44
1.0
1001
PHOENIX7010
1002
{
1070
    41
1040
1.0
1002
}
1001
ACAD
1000
MTEXTBEGIN
1070
    73
1070
     1
1070
    44
1040
1.0
1070
    74
1070
     0
1000
MTEXTEND
  0
LINE
  5
4F7
102
{ACAD_REACTORS
330
528
102
}
330
18
100
AcDbEntity
  8
0
  6
Continuous
 62
     5
370
    35
100
AcDbLine
 10
314.9999999999998
 20
14.50000000000023
 30
0.0
 11
415.0
 21
14.50000000000023
 31
0.0
1001
PHOENIX7010
1002
{
1070
    41
1040
1.0
1002
}
  0
LINE
  5
4F8
102
{ACAD_REACTORS
330
528
102
}
330
18
100
AcDbEntity
  8
0
  6
Continuous
 62
     5
100
AcDbLine
 10
405.4999999999999
 20
92.50000000000012
 30
0.0
 11
405.4999999999999
 21
99.50000000000011
 31
0.0
1001
PHOENIX7010
1002
{
1070
    62
1070
     5
1070
    41
1040
1.0
1002
}
  0
LINE
  5
4F9
102
{ACAD_REACTORS
330
528
102
}
330
18
100
AcDbEntity
  8
0
  6
ACAD_ISO04W100
 62
     1
 48
0.1451612903225806
100
AcDbLine
 10
410.5
 20
91.50000000000011
 30
0.0
 11
410.5
 21
100.5000000000001
 31
0.0
1001
PHOENIX7010
1002
{
1070
    62
1070
     1
1070
    41
1040
1.0
1002
}
  0
CIRCLE
  5
4FA
102
{ACAD_REACTORS
330
528
102
}
330
18
100
AcDbEntity
  8
0
  6
Continuous
 62
     5
100
AcDbCircle
 10
410.5
 20
96.00000000000012
 30
0.0
 40
1.75
1001
PHOENIX7010
1002
{
1070
    62
1070
     5
1070
    41
1040
1.0
1002
}
  0
CIRCLE
  5
4FB
102
{ACAD_REACTORS
330
528
102
}
330
18
100
AcDbEntity
  8
0
  6
Continuous
 62
     5
100
AcDbCircle
 10
410.5
 20
96.00000000000012
 30
0.0
 40
3.5
1001
PHOENIX7010
1002
{
1070
    62
1070
     5
1070
    41
1040
1.0
1002
}
  0
LINE
  5
4FC
102
{ACAD_REACTORS
330
528
102
}
330
18
100
AcDbEntity
  8
0
  6
Continuous
 62
     5
100
AcDbLine
 10
398.5
 20
94.25000000000011
 30
0.0
 11
398.5
 21
97.75000000000012
 31
0.0
1001
PHOENIX7010
1002
{
1070
    62
1070
     5
1070
    41
1040
1.0
1002
}
  0
LINE
  5
4FD
102
{ACAD_REACTORS
330
528
102
}
330
18
100
AcDbEntity
  8
0
  6
ACAD_ISO04W100
 62
     1
 48
0.282258064516129
100
AcDbLine
 10
415.0
 20
96.00000000000012
 30
0.0
 11
397.5
 21
96.00000000000012
 31
0.0
1001
PHOENIX7010
1002
{
1070
    62
1070
     1
1070
    41
1040
1.0
1002
}
  0
LINE
  5
4FE
102
{ACAD_REACTORS
330
528
102
}
330
18
100
AcDbEntity
  8
0
  6
Continuous
 62
     5
100
AcDbLine
 10
405.4999999999999
 20
92.50000000000012
 30
0.0
 11
398.5
 21
94.25000000000011
 31
0.0
1001
PHOENIX7010
1002
{
1070
    62
1070
     5
1070
    41
1040
1.0
1002
}
  0
LINE
  5
4FF
102
{ACAD_REACTORS
330
528
102
}
330
18
100
AcDbEntity
  8
0
  6
Continuous
 62
     5
100
AcDbLine
 10
405.4999999999999
 20
99.50000000000011
 30
0.0
 11
398.5
 21
97.75000000000012
 31
0.0
1001
PHOENIX7010
1002
{
1070
    62
1070
     5
1070
    41
1040
1.0
1002
}
  0
ARC
  5
500
102
{ACAD_REACTORS
330
528
102
}
330
18
100
AcDbEntity
  8
0
  6
Continuous
 62
     5
100
AcDbCircle
 10
317.4999999999998
 20
89.00000000000011
 30
0.0
 40
2.5
100
AcDbArc
 50
90.0
 51
180.0
1001
PHOENIX7010
1002
{
1070
    62
1070
     5
1070
    41
1040
1.0
1002
}
  0
ARC
  5
501
102
{ACAD_REACTORS
330
528
102
}
330
18
100
AcDbEntity
  8
0
  6
Continuous
 62
     5
100
AcDbCircle
 10
317.4999999999998
 20
100.0000000000001
 30
0.0
 40
2.5
100
AcDbArc
 50
90.0
 51
180.0
1001
PHOENIX7010
1002
{
1070
    62
1070
     5
1070
    41
1040
1.0
1002
}
  0
LINE
  5
502
102
{ACAD_REACTORS
330
528
102
}
330
18
100
AcDbEntity
  8
0
  6
Continuous
 62
     5
100
AcDbLine
 10
415.0
 20
91.50000000000011
 30
0.0
 11
317.4999999999998
 21
91.50000000000011
 31
0.0
1001
PHOENIX7010
1002
{
1070
    62
1070
     5
1070
    41
1040
1.0
1002
}
  0
LINE
  5
503
102
{ACAD_REACTORS
330
528
102
}
330
18
100
AcDbEntity
  8
0
  6
Continuous
 62
     5
100
AcDbLine
 10
415.0
 20
102.5000000000001
 30
0.0
 11
317.4999999999998
 21
102.5000000000001
 31
0.0
1001
PHOENIX7010
1002
{
1070
    62
1070
     5
1070
    41
1040
1.0
1002
}
  0
LINE
  5
504
102
{ACAD_REACTORS
330
528
102
}
330
18
100
AcDbEntity
  8
0
  6
Continuous
 62
     5
100
AcDbLine
 10
350.0
 20
48.00000000000022
 30
0.0
 11
350.0
 21
14.50000000000023
 31
0.0
1001
PHOENIX7010
1002
{
1070
    62
1070
     5
1070
    41
1040
1.0
1002
}
  0
TEXT
  5
505
102
{ACAD_REACTORS
330
528
102
}
330
18
100
AcDbEntity
  8
0
  6
Continuous
 62
     1
100
AcDbText
 10
328.9999996997321
 20
42.74999981501366
 30
0.0
 40
2.0
  1
-
 41
1.5
100
AcDbText
1001
PHOENIX7010
1002
{
1070
    62
1070
     1
1070
    41
1040
1.0
1002
}
  0
TEXT
  5
506
102
{ACAD_REACTORS
330
528
102
}
330
18
100
AcDbEntity
  8
0
  6
Continuous
 62
     1
100
AcDbText
 10
328.9999996997321
 20
40.24999981501366
 30
0.0
 40
2.0
  1
-
 41
1.5
100
AcDbText
1001
PHOENIX7010
1002
{
1070
    62
1070
     1
1070
    41
1040
1.0
1002
}
  0
TEXT
  5
507
102
{ACAD_REACTORS
330
528
102
}
330
18
100
AcDbEntity
  8
0
  6
Continuous
 62
     1
100
AcDbText
 10
328.9999996997321
 20
45.24999981501366
 30
0.0
 40
2.0
  1
-
 41
1.5
100
AcDbText
1001
PHOENIX7010
1002
{
1070
    62
1070
     1
1070
    41
1040
1.0
1002
}
  0
TEXT
  5
508
102
{ACAD_REACTORS
330
528
102
}
330
18
100
AcDbEntity
  8
0
  6
Continuous
 62
     1
100
AcDbText
 10
315.9999996997324
 20
42.74999981501366
 30
0.0
 40
2.0
  1
-
 41
1.5
100
AcDbText
1001
PHOENIX7010
1002
{
1070
    62
1070
     1
1070
    41
1040
1.0
1002
}
  0
TEXT
  5
509
102
{ACAD_REACTORS
330
528
102
}
330
18
100
AcDbEntity
  8
0
  6
Continuous
 62
     1
100
AcDbText
 10
315.9999996997324
 20
40.24999981501366
 30
0.0
 40
2.0
  1
-
 41
1.5
100
AcDbText
1001
PHOENIX7010
1002
{
1070
    62
1070
     1
1070
    41
1040
1.0
1002
}
  0
TEXT
  5
50A
102
{ACAD_REACTORS
330
528
102
}
330
18
100
AcDbEntity
  8
0
  6
Continuous
 62
     1
100
AcDbText
 10
315.9999996997324
 20
45.24999981501366
 30
0.0
 40
2.0
  1
-
 41
1.5
100
AcDbText
1001
PHOENIX7010
1002
{
1070
    62
1070
     1
1070
    41
1040
1.0
1002
}
  0
ARC
  5
50B
102
{ACAD_REACTORS
330
528
102
}
330
18
100
AcDbEntity
  8
0
  6
Continuous
 62
     5
100
AcDbCircle
 10
317.4999999999998
 20
45.50000000000022
 30
0.0
 40
2.5
100
AcDbArc
 50
90.0
 51
180.0
1001
PHOENIX7010
1002
{
1070
    62
1070
     5
1070
    41
1040
1.0
1002
}
  0
ARC
  5
50C
102
{ACAD_REACTORS
330
528
102
}
330
18
100
AcDbEntity
  8
0
  6
Continuous
 62
     5
100
AcDbCircle
 10
317.4999999999998
 20
76.00000000000022
 30
0.0
 40
2.5
100
AcDbArc
 50
90.0
 51
180.0
1001
PHOENIX7010
1002
{
1070
    62
1070
     5
1070
    41
1040
1.0
1002
}
  0
TEXT
  5
50D
102
{ACAD_REACTORS
330
528
102
}
330
18
100
AcDbEntity
  8
0
  6
Continuous
 62
     1
100
AcDbText
 10
328.9999996997321
 20
25.24999981501367
 30
0.0
 40
2.0
  1
-
 41
1.5
100
AcDbText
1001
PHOENIX7010
1002
{
1070
    62
1070
     1
1070
    41
1040
1.0
1002
}
  0
TEXT
  5
50E
102
{ACAD_REACTORS
330
528
102
}
330
18
100
AcDbEntity
  8
0
  6
Continuous
 62
     1
100
AcDbText
 10
328.9999996997321
 20
22.74999981501367
 30
0.0
 40
2.0
  1
07.03.2014
 41
1.5
100
AcDbText
1001
PHOENIX7010
1002
{
1070
    62
1070
     1
1070
    41
1040
1.0
1002
}
  0
TEXT
  5
50F
102
{ACAD_REACTORS
330
528
102
}
330
18
100
AcDbEntity
  8
0
  6
Continuous
 62
     1
100
AcDbText
 10
328.9999996997321
 20
30.24999981501367
 30
0.0
 40
2.0
  1
-
 41
1.5
100
AcDbText
1001
PHOENIX7010
1002
{
1070
    62
1070
     1
1070
    41
1040
1.0
1002
}
  0
TEXT
  5
510
102
{ACAD_REACTORS
330
528
102
}
330
18
100
AcDbEntity
  8
0
  6
Continuous
 62
     1
100
AcDbText
 10
328.9999996997321
 20
27.74999981501367
 30
0.0
 40
2.0
  1
-
 41
1.5
100
AcDbText
1001
PHOENIX7010
1002
{
1070
    62
1070
     1
1070
    41
1040
1.0
1002
}
  0
TEXT
  5
511
102
{ACAD_REACTORS
330
528
102
}
330
18
100
AcDbEntity
  8
0
  6
Continuous
 62
     1
100
AcDbText
 10
328.9999996997321
 20
32.74999981501367
 30
0.0
 40
2.0
  1
-
 41
1.5
100
AcDbText
1001
PHOENIX7010
1002
{
1070
    62
1070
     1
1070
    41
1040
1.0
1002
}
  0
TEXT
  5
512
102
{ACAD_REACTORS
330
528
102
}
330
18
100
AcDbEntity
  8
0
  6
Continuous
 62
     1
100
AcDbText
 10
328.9999996997321
 20
35.24999981501367
 30
0.0
 40
2.0
  1
-
 41
1.5
100
AcDbText
1001
PHOENIX7010
1002
{
1070
    62
1070
     1
1070
    41
1040
1.0
1002
}
  0
TEXT
  5
513
102
{ACAD_REACTORS
330
528
102
}
330
18
100
AcDbEntity
  8
0
  6
Continuous
 62
     1
100
AcDbText
 10
328.9999996997321
 20
37.74999981501367
 30
0.0
 40
2.0
  1
-
 41
1.5
100
AcDbText
1001
PHOENIX7010
1002
{
1070
    62
1070
     1
1070
    41
1040
1.0
1002
}
  0
TEXT
  5
514
102
{ACAD_REACTORS
330
528
102
}
330
18
100
AcDbEntity
  8
0
  6
Continuous
 62
     1
100
AcDbText
 10
315.9999996997324
 20
25.24999981501367
 30
0.0
 40
2.0
  1
-
 41
1.5
100
AcDbText
1001
PHOENIX7010
1002
{
1070
    62
1070
     1
1070
    41
1040
1.0
1002
}
  0
TEXT
  5
515
102
{ACAD_REACTORS
330
528
102
}
330
18
100
AcDbEntity
  8
0
  6
Continuous
 62
     1
100
AcDbText
 10
315.9999996997324
 20
22.74999981501367
 30
0.0
 40
2.0
  1
4086
 41
1.5
100
AcDbText
1001
PHOENIX7010
1002
{
1070
    62
1070
     1
1070
    41
1040
1.0
1002
}
  0
TEXT
  5
516
102
{ACAD_REACTORS
330
528
102
}
330
18
100
AcDbEntity
  8
0
  6
Continuous
 62
     1
100
AcDbText
 10
315.9999996997324
 20
30.24999981501367
 30
0.0
 40
2.0
  1
-
 41
1.5
100
AcDbText
1001
PHOENIX7010
1002
{
1070
    62
1070
     1
1070
    41
1040
1.0
1002
}
  0
TEXT
  5
517
102
{ACAD_REACTORS
330
528
102
}
330
18
100
AcDbEntity
  8
0
  6
Continuous
 62
     1
100
AcDbText
 10
315.9999996997324
 20
27.74999981501367
 30
0.0
 40
2.0
  1
-
 41
1.5
100
AcDbText
1001
PHOENIX7010
1002
{
1070
    62
1070
     1
1070
    41
1040
1.0
1002
}
  0
TEXT
  5
518
102
{ACAD_REACTORS
330
528
102
}
330
18
100
AcDbEntity
  8
0
  6
Continuous
 62
     1
100
AcDbText
 10
315.9999996997324
 20
32.74999981501367
 30
0.0
 40
2.0
  1
-
 41
1.5
100
AcDbText
1001
PHOENIX7010
1002
{
1070
    62
1070
     1
1070
    41
1040
1.0
1002
}
  0
TEXT
  5
519
102
{ACAD_REACTORS
330
528
102
}
330
18
100
AcDbEntity
  8
0
  6
Continuous
 62
     1
100
AcDbText
 10
315.9999996997324
 20
35.24999981501367
 30
0.0
 40
2.0
  1
-
 41
1.5
100
AcDbText
1001
PHOENIX7010
1002
{
1070
    62
1070
     1
1070
    41
1040
1.0
1002
}
  0
TEXT
  5
51A
102
{ACAD_REACTORS
330
528
102
}
330
18
100
AcDbEntity
  8
0
  6
Continuous
 62
     1
100
AcDbText
 10
315.9999996997324
 20
37.74999981501367
 30
0.0
 40
2.0
  1
-
 41
1.5
100
AcDbText
1001
PHOENIX7010
1002
{
1070
    62
1070
     1
1070
    41
1040
1.0
1002
}
  0
LINE
  5
51B
102
{ACAD_REACTORS
330
528
102
}
330
18
100
AcDbEntity
  8
0
  6
Continuous
 62
     1
100
AcDbLine
 10
328.0
 20
48.00000000000022
 30
0.0
 11
328.0
 21
14.50000000000023
 31
0.0
1001
PHOENIX7010
1002
{
1070
    62
1070
     1
1070
    41
1040
1.0
1002
}
  0
LINE
  5
51C
102
{ACAD_REACTORS
330
528
102
}
330
18
100
AcDbEntity
  8
0
  6
Continuous
 62
     1
100
AcDbLine
 10
314.9999999999998
 20
21.50000000000023
 30
0.0
 11
350.0
 21
21.50000000000023
 31
0.0
1001
PHOENIX7010
1002
{
1070
    62
1070
     1
1070
    41
1040
1.0
1002
}
  0
LINE
  5
51D
102
{ACAD_REACTORS
330
528
102
}
330
18
100
AcDbEntity
  8
0
  6
Continuous
 62
     5
100
AcDbLine
 10
415.0
 20
78.50000000000022
 30
0.0
 11
317.4999999999998
 21
78.50000000000022
 31
0.0
1001
PHOENIX7010
1002
{
1070
    62
1070
     5
1070
    41
1040
1.0
1002
}
  0
LINE
  5
51E
102
{ACAD_REACTORS
330
528
102
}
330
18
100
AcDbEntity
  8
0
  6
Continuous
 62
     5
100
AcDbLine
 10
415.0
 20
48.00000000000022
 30
0.0
 11
317.4999999999998
 21
48.00000000000022
 31
0.0
1001
PHOENIX7010
1002
{
1070
    62
1070
     5
1070
    41
1040
1.0
1002
}
  0
LINE
  5
51F
102
{ACAD_REACTORS
330
528
102
}
330
18
100
AcDbEntity
  8
0
  6
Continuous
 62
     5
100
AcDbLine
 10
314.9999999999998
 20
100.0000000000001
 30
0.0
 11
314.9999999999998
 21
5.000000000000227
 31
0.0
1001
PHOENIX7010
1002
{
1070
    62
1070
     5
1070
    41
1040
1.0
1002
}
  0
INSERT
  5
520
102
{ACAD_REACTORS
330
528
102
}
330
18
100
AcDbEntity
  8
0
  6
Continuous
 62
     5
370
    35
100
AcDbBlockReference
  2
PH_GRPBLK
 10
314.9999999999998
 20
14.50000000000023
 30
0.0
1001
PHOENIX7010
1002
{
1070
    41
1040
1.0
1002
}
  0
LWPOLYLINE
  5
521
102
{ACAD_REACTORS
330
4DE
102
}
330
18
100
AcDbEntity
  8
0
  6
Continuous
 62
     7
 60
     1
370
    50
100
AcDbPolyline
 90
        5
 70
     1
 43
0.0
 10
407.4334749940253
 20
35.16453811398049
 10
400.7334749940254
 20
27.36453811398042
 10
412.7334749940255
 20
27.36453811398042
 10
412.7334749940255
 20
35.16453811398037
 10
407.4334749940253
 20
28.26453811398051
1001
PHOENIX7010
1002
{
1070
    41
1040
1.0
1002
}
  0
LWPOLYLINE
  5
522
102
{ACAD_REACTORS
330
4DF
102
}
330
18
100
AcDbEntity
  8
0
  6
Continuous
 62
     7
 60
     1
370
    50
100
AcDbPolyline
 90
        3
 70
     1
 43
0.0
 10
399.8834749940256
 20
27.36453811398042
 10
399.8834749940256
 20
31.51453811398039
 10
404.0334749940257
 20
31.51453811398039
 42
2.414213562373094
1001
PHOENIX7010
1002
{
1070
    41
1040
1.0
1002
}
  0
LINE
  5
63E
102
{ACAD_REACTORS
330
649
102
}
330
18
100
AcDbEntity
  8
0
  6
Continuous
 62
     1
100
AcDbLine
 10
27.50648120310098
 20
20.74195791260934
 30
0.0
 11
159.4947456119248
 21
20.74195791260934
 31
0.0
1001
PHOENIX7010
1002
{
1070
    41
1040
1.0
1070
    62
1070
     1
1002
}
  0
LINE
  5
63F
102
{ACAD_REACTORS
330
649
102
}
330
18
100
AcDbEntity
  8
0
  6
Continuous
 62
     1
100
AcDbLine
 10
27.50648120310098
 20
12.41195791260952
 30
0.0
 11
159.4947456119248
 21
12.41195791260952
 31
0.0
1001
PHOENIX7010
1002
{
1070
    41
1040
1.0
1070
    62
1070
     1
1002
}
  0
LINE
  5
640
102
{ACAD_REACTORS
330
649
102
}
330
18
100
AcDbEntity
  8
0
  6
Continuous
 62
     1
100
AcDbLine
 10
27.50648120310098
 20
29.07195791260938
 30
0.0
 11
159.4947456119248
 21
29.07195791260938
 31
0.0
1001
PHOENIX7010
1002
{
1070
    41
1040
1.0
1070
    62
1070
     1
1002
}
  0
LINE
  5
641
102
{ACAD_REACTORS
330
649
102
}
330
18
100
AcDbEntity
  8
0
  6
Continuous
 62
     1
100
AcDbLine
 10
27.50648120310098
 20
37.4019579126093
 30
0.0
 11
159.4947456119248
 21
37.4019579126093
 31
0.0
1001
PHOENIX7010
1002
{
1070
    41
1040
1.0
1070
    62
1070
     1
1002
}
  0
MTEXT
  5
642
102
{ACAD_REACTORS
330
649
102
}
330
18
100
AcDbEntity
  8
0
  6
Continuous
 62
     5
100
AcDbMText
 10
30.12433242122802
 20
44.4749866383554
 30
0.0
 40
5.0
 41
86.59961566179914
 71
     1
 72
     5
  1
Modell\PPF/M 00042.BN\PPF/M 00063.BN\PPF/M 00084.BN
 73
     1
 44
1.0
1001
PHOENIX7010
1002
{
1070
    41
1040
1.0
1070
    62
1070
     5
1002
}
1001
ACAD
1000
MTEXTBEGIN
1070
    73
1070
     1
1070
    44
1040
1.0
1070
    74
1070
     0
1000
MTEXTEND
  0
MTEXT
  5
643
102
{ACAD_REACTORS
330
649
102
}
330
18
100
AcDbEntity
  8
0
  6
Continuous
 62
     5
100
AcDbMText
 10
98.63309832434106
 20
44.4749866383554
 30
0.0
 40
5.0
 41
55.0
 71
     1
 72
     5
  1
TE\P42\P63\P84
 73
     1
 44
1.0
1001
PHOENIX7010
1002
{
1070
    41
1040
1.0
1070
    62
1070
     5
1002
}
1001
ACAD
1000
MTEXTBEGIN
1070
    73
1070
     1
1070
    44
1040
1.0
1070
    74
1070
     0
1000
MTEXTEND
  0
MTEXT
  5
644
102
{ACAD_REACTORS
330
649
102
}
330
18
100
AcDbEntity
  8
0
  6
Continuous
 62
     5
100
AcDbMText
 10
118.4431472500414
 20
44.4749866383554
 30
0.0
 40
5.0
 41
55.0
 71
     1
 72
     5
  1
Länge/Length\P218,44\P325,12\P431,80
 73
     1
 44
1.0
1001
PHOENIX7010
1002
{
1070
    41
1040
1.0
1070
    62
1070
     5
1002
}
1001
ACAD
1000
MTEXTBEGIN
1070
    73
1070
     1
1070
    44
1040
1.0
1070
    74
1070
     0
1000
MTEXTEND
  0
LINE
  5
645
102
{ACAD_REACTORS
330
649
102
}
330
18
100
AcDbEntity
  8
0
  6
Continuous
 62
     1
100
AcDbLine
 10
115.8252960319144
 20
12.41195791260952
 30
0.0
 11
115.8252960319144
 21
45.43782133827483
 31
0.0
1001
PHOENIX7010
1002
{
1070
    41
1040
1.0
1070
    62
1070
     1
1002
}
  0
LINE
  5
646
102
{ACAD_REACTORS
330
649
102
}
330
18
100
AcDbEntity
  8
0
  6
Continuous
 62
     1
100
AcDbLine
 10
91.58405312709897
 20
12.41195791260952
 30
0.0
 11
91.58405312709897
 21
45.43782133827483
 31
0.0
1001
PHOENIX7010
1002
{
1070
    41
1040
1.0
1070
    62
1070
     1
1002
}
  0
INSERT
  5
647
102
{ACAD_REACTORS
330
649
102
}
330
18
100
AcDbEntity
  8
0
  6
Continuous
 62
     1
100
AcDbBlockReference
  2
PH_GRPBLK
 10
27.50648120310098
 20
20.74195791260934
 30
0.0
1001
PHOENIX7010
1002
{
1070
    41
1040
1.0
1002
}
  0
PDFUNDERLAY
  5
84B
330
18
100
AcDbEntity
  8
0
  6
ACAD_ISO05W100
 92
        8
310
0800000000000000
100
AcDbUnderlayReference
340
84A
 10
247.0206528017468
 20
139.9068711033083
 30
0.0
 41
12.0
 42
12.0
 43
12.0
281
   100
282
     0
  0
ENDSEC
  0
SECTION
  2
OBJECTS
  0
DICTIONARY
  5
C
330
0
100
AcDbDictionary
281
     1
  3
ACAD_COLOR
350
3DC
  3
ACAD_GROUP
350
D
  3
ACAD_LAYOUT
350
3F3
  3
ACAD_MATERIAL
350
3AF
  3
ACAD_MLEADERSTYLE
350
3F1
  3
ACAD_MLINESTYLE
350
1B
  3
ACAD_PDFDEFINITIONS
350
5AB
  3
ACAD_PLOTSETTINGS
350
3F4
  3
ACAD_PLOTSTYLENAME
350
3AD
  3
ACAD_SCALELIST
350
3DF
  3
ACAD_TABLESTYLE
350
3DD
  3
ACAD_VISUALSTYLE
350
3C8
  3
ACDB_RECOMPOSE_DATA
350
8F0
  3
AcDbVariableDictionary
350
631
  3
AEC_PROPERTY_SET_DEFS
350
453
  3
DWGPROPS
350
8F1
  3
PH_OBJREACTOR_DICT
350
265
  3
PH_ROOTGROUP_DICT
350
25B
  3
PH_VARS
350
25A
  0
DICTIONARY
  5
600
330
8
100
AcDbDictionary
280
     1
281
     1
  0
DICTIONARY
  5
4DC
330
2
100
AcDbDictionary
280
     1
281
     1
  3
ACAD_LAYERSTATES
360
4DD
  0
DICTIONARY
  5
3F9
330
E
100
AcDbDictionary
280
     1
281
     1
  3
ADSK_XREC_LAYER_RECONCILED
360
3FA
  0
DICTIONARY
  5
3FB
330
21
100
AcDbDictionary
280
     1
281
     1
  3
ADSK_XREC_LAYER_RECONCILED
360
3FC
  0
DICTIONARY
  5
3FD
330
83
100
AcDbDictionary
280
     1
281
     1
  3
ADSK_XREC_LAYER_RECONCILED
360
3FE
  0
DICTIONARY
  5
3FF
330
157
100
AcDbDictionary
280
     1
281
     1
  3
ADSK_XREC_LAYER_RECONCILED
360
400
  0
DICTIONARY
  5
401
330
1D3
100
AcDbDictionary
280
     1
281
     1
  3
ADSK_XREC_LAYER_RECONCILED
360
402
  0
DICTIONARY
  5
403
330
27A
100
AcDbDictionary
280
     1
281
     1
  3
ADSK_XREC_LAYER_RECONCILED
360
404
  0
DICTIONARY
  5
8EE
330
4E7
100
AcDbDictionary
280
     1
281
     1
  3
ACAD_MTEXT_2008_RT
360
8EF
  0
DICTIONARY
  5
3DC
102
{ACAD_REACTORS
330
C
102
}
330
C
100
AcDbDictionary
281
     1
  0
DICTIONARY
  5
D
102
{ACAD_REACTORS
330
C
102
}
330
C
100
AcDbDictionary
281
     1
  3
$$$$$$$$_BZA45776
350
14F
  3
$$$$$$$$_RAHMEN
350
165
  3
_GF_XXXX_2KOPF
350
1FD
  3
_GF_XXXX_BZA45776
350
10C
  3
_GF_XXXX_RAHMEN
350
1A6
  3
_MD_XXXX_BZA45776
350
155
  3
_VV_XXXX_RAHMEN
350
161
  3
_ZU_XXXX_RAHMEN
350
1D2
  3
DINA4H_BZA45776
350
20
  3
POLYLINE_31
350
252
  0
DICTIONARY
  5
3F3
102
{ACAD_REACTORS
330
C
102
}
330
C
100
AcDbDictionary
281
     1
  3
Layout1
350
3F6
  3
Model
350
3F5
  0
DICTIONARY
  5
3AF
102
{ACAD_REACTORS
330
C
102
}
330
C
100
AcDbDictionary
281
     1
  3
ByBlock
350
3B8
  3
ByLayer
350
3B0
  3
Global
350
3C0
  0
DICTIONARY
  5
3F1
102
{ACAD_REACTORS
330
C
102
}
330
C
100
AcDbDictionary
281
     1
  3
Standard
350
3F2
  0
DICTIONARY
  5
1B
102
{ACAD_REACTORS
330
C
102
}
330
C
100
AcDbDictionary
281
     1
  3
STANDARD
350
1C
  0
DICTIONARY
  5
5AB
102
{ACAD_REACTORS
330
C
102
}
330
C
100
AcDbDictionary
281
     1
  3
2901833 - 1
350
84A
  3
86542330_PF-M_IZM_BN-RED BOOK - 1
350
5AD
  0
DICTIONARY
  5
3F4
102
{ACAD_REACTORS
330
C
102
}
330
C
100
AcDbDictionary
281
     1
  0
ACDBDICTIONARYWDFLT
  5
3AD
102
{ACAD_REACTORS
330
C
102
}
330
C
100
AcDbDictionary
281
     1
  3
Normal
350
3AE
100
AcDbDictionaryWithDefault
340
3AE
  0
DICTIONARY
  5
3DF
102
{ACAD_REACTORS
330
C
102
}
330
C
100
AcDbDictionary
281
     1
  3
A0
350
3E0
  3
A1
350
3E1
  3
A2
350
3E2
  3
A3
350
3E3
  3
A4
350
3E4
  3
A5
350
3E5
  3
A6
350
3E6
  3
A7
350
3E7
  3
A8
350
3E8
  3
A9
350
3E9
  3
B0
350
3EA
  3
B1
350
3EB
  3
B2
350
3EC
  3
B3
350
3ED
  3
B4
350
3EE
  3
B5
350
3EF
  3
B6
350
3F0
  0
DICTIONARY
  5
3DD
102
{ACAD_REACTORS
330
C
102
}
330
C
100
AcDbDictionary
281
     1
  3
Standard
350
3DE
  0
DICTIONARY
  5
3C8
102
{ACAD_REACTORS
330
C
102
}
330
C
100
AcDbDictionary
281
     1
  3
2dWireframe
350
3CE
  3
3D Hidden
350
3D0
  3
3dWireframe
350
3CF
  3
Basic
350
3CD
  3
Brighten
350
3D4
  3
ColorChange
350
3D8
  3
Conceptual
350
3D1
  3
Dim
350
3D3
  3
EdgeColorOff
350
3DB
  3
Facepattern
350
3D7
  3
Flat
350
3C9
  3
FlatWithEdges
350
3CA
  3
Gouraud
350
3CB
  3
GouraudWithEdges
350
3CC
  3
JitterOff
350
3D9
  3
Linepattern
350
3D6
  3
OverhangOff
350
3DA
  3
Realistic
350
3D2
  3
Thicken
350
3D5
  0
XRECORD
  5
8F0
102
{ACAD_REACTORS
330
C
102
}
330
C
100
AcDbXrecord
280
     1
 90
        1
330
3DE
330
4E7
  0
DICTIONARY
  5
631
102
{ACAD_REACTORS
330
C
102
}
330
C
100
AcDbDictionary
281
     1
  3
CANNOSCALE
350
634
  3
CMLEADERSTYLE
350
633
  3
CTABLESTYLE
350
632
  3
DIMASSOC
350
637
  3
INDEXCTL
350
636
  3
SORTENTS
350
635
  3
XCLIPFRAME
350
8EC
  0
DICTIONARY
  5
453
102
{ACAD_REACTORS
330
C
102
}
330
C
100
AcDbDictionary
281
     1
  0
XRECORD
  5
8F1
102
{ACAD_REACTORS
330
C
102
}
330
C
100
AcDbXrecord
280
     1
  1
DWGPROPS COOKIE
  2

  3

  4

  6

  7

  8
nowak
  9

300
=
301
=
302
=
303
=
304
=
305
=
306
=
307
=
308
=
309
=
 40
0.0504650578703704
 41
2451306.661037743
 42
2456784.316813866
  1

 90
        0
  0
DICTIONARY
  5
265
102
{ACAD_REACTORS
330
C
102
}
330
C
100
AcDbDictionary
281
     1
  0
DICTIONARY
  5
25B
102
{ACAD_REACTORS
330
C
102
}
330
C
100
AcDbDictionary
281
     1
  3
$PH$AAAC3H
350
451
  3
$PH$AAADCandP
350
523
  3
$PH$AAAEwer
350
648
  0
PH_VARS
  5
25A
102
{ACAD_REACTORS
330
C
102
}
330
C
  0
DICTIONARY
  5
4DD
102
{ACAD_REACTORS
330
4DC
102
}
330
4DC
100
AcDbDictionary
281
     1
  0
XRECORD
  5
3FA
102
{ACAD_REACTORS
330
3F9
102
}
330
3F9
100
AcDbXrecord
280
     1
290
     1
  0
XRECORD
  5
3FC
102
{ACAD_REACTORS
330
3FB
102
}
330
3FB
100
AcDbXrecord
280
     1
290
     1
  0
XRECORD
  5
3FE
102
{ACAD_REACTORS
330
3FD
102
}
330
3FD
100
AcDbXrecord
280
     1
290
     1
  0
XRECORD
  5
400
102
{ACAD_REACTORS
330
3FF
102
}
330
3FF
100
AcDbXrecord
280
     1
290
     1
  0
XRECORD
  5
402
102
{ACAD_REACTORS
330
401
102
}
330
401
100
AcDbXrecord
280
     1
290
     1
  0
XRECORD
  5
404
102
{ACAD_REACTORS
330
403
102
}
330
403
100
AcDbXrecord
280
     1
290
     1
  0
XRECORD
  5
8EF
102
{ACAD_REACTORS
330
8EE
102
}
330
8EE
100
AcDbXrecord
280
     1
 40
46997.0
  1
\pxql;{\fArial|b1|i0|c0|p34;\W1.1;BOPLA}
  0
GROUP
  5
14F
102
{ACAD_REACTORS
330
D
102
}
330
D
100
AcDbGroup
300
V11:16190:********
 70
     0
 71
     1
  0
GROUP
  5
165
102
{ACAD_REACTORS
330
D
102
}
330
D
100
AcDbGroup
300
V11:16203:********
 70
     0
 71
     1
  0
GROUP
  5
1FD
102
{ACAD_REACTORS
330
D
102
}
330
D
100
AcDbGroup
300
V11:16216:_GF_XXXX
 70
     0
 71
     1
  0
GROUP
  5
10C
102
{ACAD_REACTORS
330
D
102
}
330
D
100
AcDbGroup
300
V11:16172:_GF_XXXX
 70
     0
 71
     1
  0
GROUP
  5
1A6
102
{ACAD_REACTORS
330
D
102
}
330
D
100
AcDbGroup
300
V11:16209:_GF_XXXX
 70
     0
 71
     1
  0
GROUP
  5
155
102
{ACAD_REACTORS
330
D
102
}
330
D
100
AcDbGroup
300
V11:16191:_MD_XXXX
 70
     0
 71
     1
340
150
340
151
340
152
340
153
340
154
  0
GROUP
  5
161
102
{ACAD_REACTORS
330
D
102
}
330
D
100
AcDbGroup
300
V11:16197:_VV_XXXX
 70
     0
 71
     1
  0
GROUP
  5
1D2
102
{ACAD_REACTORS
330
D
102
}
330
D
100
AcDbGroup
300
V11:16213:_ZU_XXXX
 70
     0
 71
     1
  0
GROUP
  5
20
102
{ACAD_REACTORS
330
D
102
}
330
D
100
AcDbGroup
300
V11:16128:DINA4H
 70
     0
 71
     1
  0
GROUP
  5
252
102
{ACAD_REACTORS
330
D
102
}
330
D
100
AcDbGroup
300
V11:16220:POLYLINE
 70
     0
 71
     1
340
242
340
243
340
244
340
245
340
246
340
247
340
248
340
249
340
24A
340
24B
340
24C
340
24D
340
24E
340
24F
340
250
  0
LAYOUT
  5
3F6
102
{ACAD_XDICTIONARY
360
91E
102
}
102
{ACAD_REACTORS
330
3F3
102
}
330
3F3
100
AcDbPlotSettings
  1

  2
RICOH Aficio MP W2400 RPCS
  4

  6

 40
0.0
 41
0.0
 42
0.0
 43
0.0
 44
0.0
 45
0.0
 46
0.0
 47
0.0
 48
0.0
 49
0.0
140
0.0
141
0.0
142
1.0
143
1.0
 70
   688
 72
     0
 73
     0
 74
     5
  7
HP_Farbe_Dünn.ctb
 75
    16
147
1.0
148
0.0
149
0.0
100
AcDbLayout
  1
Layout1
 70
     1
 71
     1
 10
0.0
 20
0.0
 11
420.0
 21
297.0
 12
0.0
 22
0.0
 32
0.0
 14
1.000000000000000E+20
 24
1.000000000000000E+20
 34
1.000000000000000E+20
 15
-1.000000000000000E+20
 25
-1.000000000000000E+20
 35
-1.000000000000000E+20
146
0.0
 13
0.0
 23
0.0
 33
0.0
 16
1.0
 26
0.0
 36
0.0
 17
0.0
 27
1.0
 37
0.0
 76
     0
330
15
  0
LAYOUT
  5
3F5
102
{ACAD_XDICTIONARY
360
91C
102
}
102
{ACAD_REACTORS
330
3F3
102
}
330
3F3
100
AcDbPlotSettings
  1

  2
RICOH Aficio MP W2400 RPCS
  4
A4
  6

 40
5.027082920074462
 41
5.027099609375
 42
5.027069091796875
 43
5.027069091796875
 44
209.9733276367187
 45
296.9259948730469
 46
0.0
 47
0.0
 48
0.0
 49
0.0
140
0.0
141
0.0
142
1.0
143
2.185668046447567
 70
 11952
 72
     1
 73
     1
 74
     0
  7
HP_Farbe_Dünn.ctb
 75
     0
147
0.4575260189328981
148
103.5307535859987
149
0.0542953875197441
100
AcDbLayout
  1
Model
 70
     1
 71
     0
 10
0.0
 20
0.0
 11
12.0
 21
9.0
 12
0.0
 22
0.0
 32
0.0
 14
0.0
 24
0.0
 34
0.0
 15
0.0
 25
0.0
 35
0.0
146
0.0
 13
0.0
 23
0.0
 33
0.0
 16
1.0
 26
0.0
 36
0.0
 17
0.0
 27
1.0
 37
0.0
 76
     0
330
18
331
3AB
1001
ACAD_PSEXT
1000
RICOH Aficio MP W2400 RPCS
1000
RICOH Aficio MP W2400 RPCS
1000
192.168.49.64
1000

1070
     0
  0
MATERIAL
  5
3B8
102
{ACAD_XDICTIONARY
360
3B9
102
}
102
{ACAD_REACTORS
330
3AF
102
}
330
3AF
100
AcDbMaterial
  1
ByBlock
 72
     0
 43
0.0208333333333333
 43
0.0
 43
0.0
 43
0.0
 43
0.0
 43
0.0208333333333333
 43
0.0
 43
0.0
 43
0.0
 43
0.0
 43
1.0
 43
0.0
 43
0.0
 43
0.0
 43
0.0
 43
1.0
 77
     0
 47
0.0208333333333333
 47
0.0
 47
0.0
 47
0.0
 47
0.0
 47
0.0208333333333333
 47
0.0
 47
0.0
 47
0.0
 47
0.0
 47
1.0
 47
0.0
 47
0.0
 47
0.0
 47
0.0
 47
1.0
171
     0
 49
0.0208333333333333
 49
0.0
 49
0.0
 49
0.0
 49
0.0
 49
0.0208333333333333
 49
0.0
 49
0.0
 49
0.0
 49
0.0
 49
1.0
 49
0.0
 49
0.0
 49
0.0
 49
0.0
 49
1.0
175
     0
142
0.0208333333333333
142
0.0
142
0.0
142
0.0
142
0.0
142
0.0208333333333333
142
0.0
142
0.0
142
0.0
142
0.0
142
1.0
142
0.0
142
0.0
142
0.0
142
0.0
142
1.0
179
     0
144
0.0208333333333333
144
0.0
144
0.0
144
0.0
144
0.0
144
0.0208333333333333
144
0.0
144
0.0
144
0.0
144
0.0
144
1.0
144
0.0
144
0.0
144
0.0
144
0.0
144
1.0
147
0.0208333333333333
147
0.0
147
0.0
147
0.0
147
0.0
147
0.0208333333333333
147
0.0
147
0.0
147
0.0
147
0.0
147
1.0
147
0.0
147
0.0
147
0.0
147
0.0
147
1.0
  0
MATERIAL
  5
3B0
102
{ACAD_XDICTIONARY
360
3B1
102
}
102
{ACAD_REACTORS
330
3AF
102
}
330
3AF
100
AcDbMaterial
  1
ByLayer
 72
     0
 43
0.0208333333333333
 43
0.0
 43
0.0
 43
0.0
 43
0.0
 43
0.0208333333333333
 43
0.0
 43
0.0
 43
0.0
 43
0.0
 43
1.0
 43
0.0
 43
0.0
 43
0.0
 43
0.0
 43
1.0
 77
     0
 47
0.0208333333333333
 47
0.0
 47
0.0
 47
0.0
 47
0.0
 47
0.0208333333333333
 47
0.0
 47
0.0
 47
0.0
 47
0.0
 47
1.0
 47
0.0
 47
0.0
 47
0.0
 47
0.0
 47
1.0
171
     0
 49
0.0208333333333333
 49
0.0
 49
0.0
 49
0.0
 49
0.0
 49
0.0208333333333333
 49
0.0
 49
0.0
 49
0.0
 49
0.0
 49
1.0
 49
0.0
 49
0.0
 49
0.0
 49
0.0
 49
1.0
175
     0
142
0.0208333333333333
142
0.0
142
0.0
142
0.0
142
0.0
142
0.0208333333333333
142
0.0
142
0.0
142
0.0
142
0.0
142
1.0
142
0.0
142
0.0
142
0.0
142
0.0
142
1.0
179
     0
144
0.0208333333333333
144
0.0
144
0.0
144
0.0
144
0.0
144
0.0208333333333333
144
0.0
144
0.0
144
0.0
144
0.0
144
1.0
144
0.0
144
0.0
144
0.0
144
0.0
144
1.0
147
0.0208333333333333
147
0.0
147
0.0
147
0.0
147
0.0
147
0.0208333333333333
147
0.0
147
0.0
147
0.0
147
0.0
147
1.0
147
0.0
147
0.0
147
0.0
147
0.0
147
1.0
  0
MATERIAL
  5
3C0
102
{ACAD_XDICTIONARY
360
3C1
102
}
102
{ACAD_REACTORS
330
3AF
102
}
330
3AF
100
AcDbMaterial
  1
Global
 72
     0
 43
0.0208333333333333
 43
0.0
 43
0.0
 43
0.0
 43
0.0
 43
0.0208333333333333
 43
0.0
 43
0.0
 43
0.0
 43
0.0
 43
1.0
 43
0.0
 43
0.0
 43
0.0
 43
0.0
 43
1.0
 77
     0
 47
0.0208333333333333
 47
0.0
 47
0.0
 47
0.0
 47
0.0
 47
0.0208333333333333
 47
0.0
 47
0.0
 47
0.0
 47
0.0
 47
1.0
 47
0.0
 47
0.0
 47
0.0
 47
0.0
 47
1.0
171
     0
 49
0.0208333333333333
 49
0.0
 49
0.0
 49
0.0
 49
0.0
 49
0.0208333333333333
 49
0.0
 49
0.0
 49
0.0
 49
0.0
 49
1.0
 49
0.0
 49
0.0
 49
0.0
 49
0.0
 49
1.0
175
     0
142
0.0208333333333333
142
0.0
142
0.0
142
0.0
142
0.0
142
0.0208333333333333
142
0.0
142
0.0
142
0.0
142
0.0
142
1.0
142
0.0
142
0.0
142
0.0
142
0.0
142
1.0
179
     0
144
0.0208333333333333
144
0.0
144
0.0
144
0.0
144
0.0
144
0.0208333333333333
144
0.0
144
0.0
144
0.0
144
0.0
144
1.0
144
0.0
144
0.0
144
0.0
144
0.0
144
1.0
147
0.0208333333333333
147
0.0
147
0.0
147
0.0
147
0.0
147
0.0208333333333333
147
0.0
147
0.0
147
0.0
147
0.0
147
1.0
147
0.0
147
0.0
147
0.0
147
0.0
147
1.0
  0
MLEADERSTYLE
  5
3F2
102
{ACAD_REACTORS
330
3F1
102
}
330
3F1
100
AcDbMLeaderStyle
170
     2
171
     1
172
     0
 90
        2
 40
0.0
 41
0.0
173
     1
 91
-1056964608
340
12
 92
       -2
290
     1
 42
2.0
291
     1
 43
0.36
  3
Standard
 44
4.0
300

342
F
174
     1
178
     6
175
     1
176
     0
 93
-1056964608
 45
4.0
292
     0
297
     0
 46
4.0
 94
-1056964608
 47
1.0
 49
1.0
140
1.0
293
     1
141
0.0
294
     1
177
     0
142
1.0
295
     0
296
     0
143
0.125
1001
ACAD_MLEADERVER
1070
     2
  0
MLINESTYLE
  5
1C
102
{ACAD_REACTORS
330
1B
102
}
330
1B
100
AcDbMlineStyle
  2
STANDARD
 70
     0
  3

 62
   256
 51
90.0
 52
90.0
 71
     2
 49
0.5
 62
   256
  6
BYLAYER
 49
-0.5
 62
   256
  6
BYLAYER
  0
PDFDEFINITION
  5
84A
102
{ACAD_REACTORS
330
5AB
330
84B
102
}
330
5AB
100
AcDbUnderlayDefinition
  1
F:\User\Daten\DWG\nc2\nc29\2901833.pdf
  2
1
  0
PDFDEFINITION
  5
5AD
102
{ACAD_REACTORS
330
5AB
330
5AE
102
}
330
5AB
100
AcDbUnderlayDefinition
  1
F:\User\Daten\DWG\Anw\RN\NEUE KATALOGZG\Interzoll Modul\NEUE NC2-KatalogZG\86542330_PF-M_IZM_BN-RED BOOK.pdf
  2
1
  0
ACDBPLACEHOLDER
  5
3AE
102
{ACAD_REACTORS
330
3AD
102
}
330
3AD
  0
SCALE
  5
3E0
102
{ACAD_REACTORS
330
3DF
102
}
330
3DF
100
AcDbScale
 70
     0
300
1:1
140
1.0
141
1.0
290
     1
  0
SCALE
  5
3E1
102
{ACAD_REACTORS
330
3DF
102
}
330
3DF
100
AcDbScale
 70
     0
300
1:2
140
1.0
141
2.0
290
     0
  0
SCALE
  5
3E2
102
{ACAD_REACTORS
330
3DF
102
}
330
3DF
100
AcDbScale
 70
     0
300
1:4
140
1.0
141
4.0
290
     0
  0
SCALE
  5
3E3
102
{ACAD_REACTORS
330
3DF
102
}
330
3DF
100
AcDbScale
 70
     0
300
1:5
140
1.0
141
5.0
290
     0
  0
SCALE
  5
3E4
102
{ACAD_REACTORS
330
3DF
102
}
330
3DF
100
AcDbScale
 70
     0
300
1:8
140
1.0
141
8.0
290
     0
  0
SCALE
  5
3E5
102
{ACAD_REACTORS
330
3DF
102
}
330
3DF
100
AcDbScale
 70
     0
300
1:10
140
1.0
141
10.0
290
     0
  0
SCALE
  5
3E6
102
{ACAD_REACTORS
330
3DF
102
}
330
3DF
100
AcDbScale
 70
     0
300
1:16
140
1.0
141
16.0
290
     0
  0
SCALE
  5
3E7
102
{ACAD_REACTORS
330
3DF
102
}
330
3DF
100
AcDbScale
 70
     0
300
1:20
140
1.0
141
20.0
290
     0
  0
SCALE
  5
3E8
102
{ACAD_REACTORS
330
3DF
102
}
330
3DF
100
AcDbScale
 70
     0
300
1:30
140
1.0
141
30.0
290
     0
  0
SCALE
  5
3E9
102
{ACAD_REACTORS
330
3DF
102
}
330
3DF
100
AcDbScale
 70
     0
300
1:40
140
1.0
141
40.0
290
     0
  0
SCALE
  5
3EA
102
{ACAD_REACTORS
330
3DF
102
}
330
3DF
100
AcDbScale
 70
     0
300
1:50
140
1.0
141
50.0
290
     0
  0
SCALE
  5
3EB
102
{ACAD_REACTORS
330
3DF
102
}
330
3DF
100
AcDbScale
 70
     0
300
1:100
140
1.0
141
100.0
290
     0
  0
SCALE
  5
3EC
102
{ACAD_REACTORS
330
3DF
102
}
330
3DF
100
AcDbScale
 70
     0
300
2:1
140
2.0
141
1.0
290
     0
  0
SCALE
  5
3ED
102
{ACAD_REACTORS
330
3DF
102
}
330
3DF
100
AcDbScale
 70
     0
300
4:1
140
4.0
141
1.0
290
     0
  0
SCALE
  5
3EE
102
{ACAD_REACTORS
330
3DF
102
}
330
3DF
100
AcDbScale
 70
     0
300
8:1
140
8.0
141
1.0
290
     0
  0
SCALE
  5
3EF
102
{ACAD_REACTORS
330
3DF
102
}
330
3DF
100
AcDbScale
 70
     0
300
10:1
140
10.0
141
1.0
290
     0
  0
SCALE
  5
3F0
102
{ACAD_REACTORS
330
3DF
102
}
330
3DF
100
AcDbScale
 70
     0
300
100:1
140
100.0
141
1.0
290
     0
  0
TABLESTYLE
  5
3DE
102
{ACAD_XDICTIONARY
360
5FA
102
}
102
{ACAD_REACTORS
330
3DD
102
}
330
3DD
100
AcDbTableStyle
  3
Standard
 70
     0
 71
     0
 40
1.5
 41
1.5
280
     0
281
     0
  7
STANDARD
140
4.5
170
     2
 62
     0
 63
     7
283
     0
274
    -2
284
     1
 64
     0
275
    -2
285
     1
 65
     0
276
    -2
286
     1
 66
     0
277
    -2
287
     1
 67
     0
278
    -2
288
     1
 68
     0
279
    -2
289
     1
 69
     0
  7
STANDARD
140
6.0
170
     5
 62
     0
 63
     7
283
     0
274
    -2
284
     1
 64
     0
275
    -2
285
     1
 65
     0
276
    -2
286
     1
 66
     0
277
    -2
287
     1
 67
     0
278
    -2
288
     1
 68
     0
279
    -2
289
     1
 69
     0
  7
STANDARD
140
4.5
170
     5
 62
     0
 63
     7
283
     0
274
    -2
284
     1
 64
     0
275
    -2
285
     1
 65
     0
276
    -2
286
     1
 66
     0
277
    -2
287
     1
 67
     0
278
    -2
288
     1
 68
     0
279
    -2
289
     1
 69
     0
  0
VISUALSTYLE
  5
3CE
102
{ACAD_XDICTIONARY
360
8FF
102
}
102
{ACAD_REACTORS
330
3C8
102
}
330
3C8
100
AcDbVisualStyle
  2
2dWireframe
 70
     4
 71
     0
 72
     2
 73
     0
 90
        0
 40
-0.6
 41
-30.0
 62
     5
 63
     7
 74
     1
 91
        4
 64
     7
 65
   257
 75
     1
175
     1
 42
1.0
 92
        0
 66
   257
 43
1.0
 76
     1
 77
     6
 78
     2
 67
     7
 79
     5
170
     0
171
     0
290
     0
174
     0
 93
        1
 44
0.0
173
     0
291
     0
 45
0.0
1001
ACAD
1000
AcDbSavedByObjectVersion
1070
     0
  0
VISUALSTYLE
  5
3D0
102
{ACAD_XDICTIONARY
360
903
102
}
102
{ACAD_REACTORS
330
3C8
102
}
330
3C8
100
AcDbVisualStyle
  2
3D Hidden
 70
     6
 71
     1
 72
     2
 73
     2
 90
        0
 40
-0.6
 41
-30.0
 62
     5
 63
     7
 74
     2
 91
        2
 64
     7
 65
   257
 75
     2
175
     1
 42
179.0
 92
        0
 66
   257
 43
1.0
 76
     1
 77
     6
 78
     2
 67
     7
 79
     3
170
     0
171
     0
290
     0
174
     0
 93
        1
 44
0.0
173
     0
291
     0
 45
0.0
1001
ACAD
1000
AcDbSavedByObjectVersion
1070
     0
  0
VISUALSTYLE
  5
3CF
102
{ACAD_XDICTIONARY
360
901
102
}
102
{ACAD_REACTORS
330
3C8
102
}
330
3C8
100
AcDbVisualStyle
  2
3dWireframe
 70
     5
 71
     0
 72
     2
 73
     0
 90
        0
 40
-0.6
 41
-30.0
 62
     5
 63
     7
 74
     1
 91
        4
 64
     7
 65
   257
 75
     1
175
     1
 42
1.0
 92
        0
 66
   257
 43
1.0
 76
     1
 77
     6
 78
     2
 67
     7
 79
     5
170
     0
171
     0
290
     0
174
     0
 93
        1
 44
0.0
173
     0
291
     0
 45
0.0
1001
ACAD
1000
AcDbSavedByObjectVersion
1070
     0
  0
VISUALSTYLE
  5
3CD
102
{ACAD_XDICTIONARY
360
8FD
102
}
102
{ACAD_REACTORS
330
3C8
102
}
330
3C8
100
AcDbVisualStyle
  2
Basic
 70
     7
 71
     1
 72
     0
 73
     1
 90
        0
 40
-0.6
 41
-30.0
 62
     5
 63
     7
 74
     0
 91
        4
 64
     7
 65
   257
 75
     1
175
     1
 42
1.0
 92
        8
 66
     7
 43
1.0
 76
     1
 77
     6
 78
     2
 67
     7
 79
     5
170
     0
171
     0
290
     0
174
     0
 93
        1
 44
0.0
173
     0
291
     1
 45
0.0
1001
ACAD
1000
AcDbSavedByObjectVersion
1070
     0
  0
VISUALSTYLE
  5
3D4
102
{ACAD_XDICTIONARY
360
90B
102
}
102
{ACAD_REACTORS
330
3C8
102
}
330
3C8
100
AcDbVisualStyle
  2
Brighten
 70
    12
 71
     2
 72
     2
 73
     0
 90
        0
 40
-0.6
 41
-30.0
 62
     5
 63
     7
 74
     1
 91
        4
 64
     7
 65
   257
 75
     1
175
     1
 42
1.0
 92
        8
 66
     7
 43
1.0
 76
     1
 77
     6
 78
     2
 67
     7
 79
     5
170
     0
171
     0
290
     0
174
     0
 93
        1
 44
50.0
173
     0
291
     1
 45
0.0
1001
ACAD
1000
AcDbSavedByObjectVersion
1070
     0
  0
VISUALSTYLE
  5
3D8
102
{ACAD_XDICTIONARY
360
913
102
}
102
{ACAD_REACTORS
330
3C8
102
}
330
3C8
100
AcDbVisualStyle
  2
ColorChange
 70
    16
 71
     2
 72
     2
 73
     3
 90
        0
 40
-0.6
 41
-30.0
 62
     5
 63
     8
 74
     1
 91
        4
 64
     7
 65
   257
 75
     1
175
     1
 42
1.0
 92
        8
 66
     8
 43
1.0
 76
     1
 77
     6
 78
     2
 67
     7
 79
     5
170
     0
171
     0
290
     0
174
     0
 93
        1
 44
0.0
173
     0
291
     1
 45
0.0
1001
ACAD
1000
AcDbSavedByObjectVersion
1070
     0
  0
VISUALSTYLE
  5
3D1
102
{ACAD_XDICTIONARY
360
905
102
}
102
{ACAD_REACTORS
330
3C8
102
}
330
3C8
100
AcDbVisualStyle
  2
Conceptual
 70
     9
 71
     3
 72
     2
 73
     0
 90
        0
 40
-0.6
 41
-30.0
 62
     5
 63
     7
 74
     2
 91
        2
 64
     7
 65
   257
 75
     1
175
     1
 42
179.0
 92
        8
 66
     7
 43
1.0
 76
     1
 77
     6
 78
     2
 67
     7
 79
     3
170
     0
171
     0
290
     0
174
     0
 93
        1
 44
0.0
173
     0
291
     0
 45
0.0
1001
ACAD
1000
AcDbSavedByObjectVersion
1070
     0
  0
VISUALSTYLE
  5
3D3
102
{ACAD_XDICTIONARY
360
909
102
}
102
{ACAD_REACTORS
330
3C8
102
}
330
3C8
100
AcDbVisualStyle
  2
Dim
 70
    11
 71
     2
 72
     2
 73
     0
 90
        0
 40
-0.6
 41
-30.0
 62
     5
 63
     7
 74
     1
 91
        4
 64
     7
 65
   257
 75
     1
175
     1
 42
1.0
 92
        8
 66
     7
 43
1.0
 76
     1
 77
     6
 78
     2
 67
     7
 79
     5
170
     0
171
     0
290
     0
174
     0
 93
        1
 44
-50.0
173
     0
291
     1
 45
0.0
1001
ACAD
1000
AcDbSavedByObjectVersion
1070
     0
  0
VISUALSTYLE
  5
3DB
102
{ACAD_XDICTIONARY
360
919
102
}
102
{ACAD_REACTORS
330
3C8
102
}
330
3C8
100
AcDbVisualStyle
  2
EdgeColorOff
 70
    22
 71
     2
 72
     2
 73
     0
 90
        0
 40
-0.6
 41
-30.0
 62
     5
 63
     7
 74
     1
 91
        4
 64
     7
 65
   257
 75
     1
175
     1
 42
1.0
 92
        8
 66
     7
 43
1.0
 76
     1
 77
     6
 78
     2
 67
     7
 79
     5
170
     0
171
     0
290
     0
174
     0
 93
        1
 44
0.0
173
     0
291
     1
 45
0.0
1001
ACAD
1000
AcDbSavedByObjectVersion
1070
     0
  0
VISUALSTYLE
  5
3D7
102
{ACAD_XDICTIONARY
360
911
102
}
102
{ACAD_REACTORS
330
3C8
102
}
330
3C8
100
AcDbVisualStyle
  2
Facepattern
 70
    15
 71
     2
 72
     2
 73
     0
 90
        0
 40
-0.6
 41
-30.0
 62
     5
 63
     7
 74
     1
 91
        4
 64
     7
 65
   257
 75
     1
175
     1
 42
1.0
 92
        8
 66
     7
 43
1.0
 76
     1
 77
     6
 78
     2
 67
     7
 79
     5
170
     0
171
     0
290
     0
174
     0
 93
        1
 44
0.0
173
     0
291
     1
 45
0.0
1001
ACAD
1000
AcDbSavedByObjectVersion
1070
     0
  0
VISUALSTYLE
  5
3C9
102
{ACAD_XDICTIONARY
360
8F5
102
}
102
{ACAD_REACTORS
330
3C8
102
}
330
3C8
100
AcDbVisualStyle
  2
Flat
 70
     0
 71
     2
 72
     1
 73
     1
 90
        2
 40
-0.6
 41
30.0
 62
     5
 63
     7
 74
     0
 91
        4
 64
     7
 65
   257
 75
     1
175
     1
 42
1.0
 92
        8
 66
     7
 43
1.0
 76
     1
 77
     6
 78
     2
 67
     7
 79
     5
170
     0
171
     0
290
     0
174
     0
 93
       13
 44
0.0
173
     0
291
     1
 45
0.0
1001
ACAD
1000
AcDbSavedByObjectVersion
1070
     0
  0
VISUALSTYLE
  5
3CA
102
{ACAD_XDICTIONARY
360
8F7
102
}
102
{ACAD_REACTORS
330
3C8
102
}
330
3C8
100
AcDbVisualStyle
  2
FlatWithEdges
 70
     1
 71
     2
 72
     1
 73
     1
 90
        2
 40
-0.6
 41
30.0
 62
     5
 63
     7
 74
     1
 91
        4
 64
     7
 65
   257
 75
     1
175
     1
 42
1.0
 92
        0
 66
   257
 43
1.0
 76
     1
 77
     6
 78
     2
 67
     7
 79
     5
170
     0
171
     0
290
     0
174
     0
 93
       13
 44
0.0
173
     0
291
     1
 45
0.0
1001
ACAD
1000
AcDbSavedByObjectVersion
1070
     0
  0
VISUALSTYLE
  5
3CB
102
{ACAD_XDICTIONARY
360
8F9
102
}
102
{ACAD_REACTORS
330
3C8
102
}
330
3C8
100
AcDbVisualStyle
  2
Gouraud
 70
     2
 71
     2
 72
     2
 73
     1
 90
        2
 40
-0.6
 41
30.0
 62
     5
 63
     7
 74
     0
 91
        4
 64
     7
 65
   257
 75
     1
175
     1
 42
1.0
 92
        0
 66
     7
 43
1.0
 76
     1
 77
     6
 78
     2
 67
     7
 79
     5
170
     0
171
     0
290
     0
174
     0
 93
       13
 44
0.0
173
     0
291
     1
 45
0.0
1001
ACAD
1000
AcDbSavedByObjectVersion
1070
     0
  0
VISUALSTYLE
  5
3CC
102
{ACAD_XDICTIONARY
360
8FB
102
}
102
{ACAD_REACTORS
330
3C8
102
}
330
3C8
100
AcDbVisualStyle
  2
GouraudWithEdges
 70
     3
 71
     2
 72
     2
 73
     1
 90
        2
 40
-0.6
 41
30.0
 62
     5
 63
     7
 74
     1
 91
        4
 64
     7
 65
   257
 75
     1
175
     1
 42
1.0
 92
        0
 66
   257
 43
1.0
 76
     1
 77
     6
 78
     2
 67
     7
 79
     5
170
     0
171
     0
290
     0
174
     0
 93
       13
 44
0.0
173
     0
291
     1
 45
0.0
1001
ACAD
1000
AcDbSavedByObjectVersion
1070
     0
  0
VISUALSTYLE
  5
3D9
102
{ACAD_XDICTIONARY
360
915
102
}
102
{ACAD_REACTORS
330
3C8
102
}
330
3C8
100
AcDbVisualStyle
  2
JitterOff
 70
    20
 71
     2
 72
     2
 73
     0
 90
        0
 40
-0.6
 41
-30.0
 62
     5
 63
     7
 74
     1
 91
        4
 64
     7
 65
   257
 75
     1
175
     1
 42
1.0
 92
       10
 66
     7
 43
1.0
 76
     1
 77
     6
 78
     2
 67
     7
 79
     5
170
     0
171
     0
290
     0
174
     0
 93
        1
 44
0.0
173
     0
291
     1
 45
0.0
1001
ACAD
1000
AcDbSavedByObjectVersion
1070
     0
  0
VISUALSTYLE
  5
3D6
102
{ACAD_XDICTIONARY
360
90F
102
}
102
{ACAD_REACTORS
330
3C8
102
}
330
3C8
100
AcDbVisualStyle
  2
Linepattern
 70
    14
 71
     2
 72
     2
 73
     0
 90
        0
 40
-0.6
 41
-30.0
 62
     5
 63
     7
 74
     1
 91
        4
 64
     7
 65
   257
 75
     7
175
     7
 42
1.0
 92
        8
 66
     7
 43
1.0
 76
     1
 77
     6
 78
     2
 67
     7
 79
     5
170
     0
171
     0
290
     0
174
     0
 93
        1
 44
0.0
173
     0
291
     1
 45
0.0
1001
ACAD
1000
AcDbSavedByObjectVersion
1070
     0
  0
VISUALSTYLE
  5
3DA
102
{ACAD_XDICTIONARY
360
917
102
}
102
{ACAD_REACTORS
330
3C8
102
}
330
3C8
100
AcDbVisualStyle
  2
OverhangOff
 70
    21
 71
     2
 72
     2
 73
     0
 90
        0
 40
-0.6
 41
-30.0
 62
     5
 63
     7
 74
     1
 91
        4
 64
     7
 65
   257
 75
     1
175
     1
 42
1.0
 92
        9
 66
     7
 43
1.0
 76
     1
 77
     6
 78
     2
 67
     7
 79
     5
170
     0
171
     0
290
     0
174
     0
 93
        1
 44
0.0
173
     0
291
     1
 45
0.0
1001
ACAD
1000
AcDbSavedByObjectVersion
1070
     0
  0
VISUALSTYLE
  5
3D2
102
{ACAD_XDICTIONARY
360
907
102
}
102
{ACAD_REACTORS
330
3C8
102
}
330
3C8
100
AcDbVisualStyle
  2
Realistic
 70
     8
 71
     2
 72
     2
 73
     0
 90
        0
 40
-0.6
 41
-30.0
 62
     5
 63
     7
 74
     1
 91
        0
 64
     7
 65
   257
 75
     1
175
     1
 42
1.0
 92
        8
 66
     8
 43
1.0
 76
     1
 77
     6
 78
     2
 67
     7
 79
     5
170
     0
171
     0
290
     0
174
     0
 93
       13
 44
0.0
173
     0
291
     0
 45
0.0
1001
ACAD
1000
AcDbSavedByObjectVersion
1070
     0
  0
VISUALSTYLE
  5
3D5
102
{ACAD_XDICTIONARY
360
90D
102
}
102
{ACAD_REACTORS
330
3C8
102
}
330
3C8
100
AcDbVisualStyle
  2
Thicken
 70
    13
 71
     2
 72
     2
 73
     0
 90
        0
 40
-0.6
 41
-30.0
 62
     5
 63
     7
 74
     1
 91
        4
 64
     7
 65
   257
 75
     1
175
     1
 42
1.0
 92
       12
 66
     7
 43
1.0
 76
     1
 77
     6
 78
     2
 67
     7
 79
     5
170
     0
171
     0
290
     0
174
     0
 93
        1
 44
0.0
173
     0
291
     1
 45
0.0
1001
ACAD
1000
AcDbSavedByObjectVersion
1070
     0
  0
DICTIONARYVAR
  5
634
102
{ACAD_REACTORS
330
631
102
}
330
631
100
DictionaryVariables
280
     0
  1
1:1
  0
DICTIONARYVAR
  5
633
102
{ACAD_REACTORS
330
631
102
}
330
631
100
DictionaryVariables
280
     0
  1
STANDARD
  0
DICTIONARYVAR
  5
632
102
{ACAD_REACTORS
330
631
102
}
330
631
100
DictionaryVariables
280
     0
  1
STANDARD
  0
DICTIONARYVAR
  5
637
102
{ACAD_REACTORS
330
631
102
}
330
631
100
DictionaryVariables
280
     0
  1
1
  0
DICTIONARYVAR
  5
636
102
{ACAD_REACTORS
330
631
102
}
330
631
100
DictionaryVariables
280
     0
  1
0
  0
DICTIONARYVAR
  5
635
102
{ACAD_REACTORS
330
631
102
}
330
631
100
DictionaryVariables
280
     0
  1
127
  0
DICTIONARYVAR
  5
8EC
102
{ACAD_REACTORS
330
631
102
}
330
631
100
DictionaryVariables
280
     0
  1
2
  0
DICTIONARY
  5
451
102
{ACAD_REACTORS
330
25B
102
}
330
25B
100
AcDbDictionary
281
     1
  3
PH_GRPMEMBERS
350
452
  0
DICTIONARY
  5
523
102
{ACAD_REACTORS
330
25B
102
}
330
25B
100
AcDbDictionary
281
     1
  3
$PH$AAAA
350
524
  3
PH_GRPMEMBERS
350
528
  0
DICTIONARY
  5
648
102
{ACAD_REACTORS
330
25B
102
}
330
25B
100
AcDbDictionary
281
     1
  3
PH_GRPMEMBERS
350
649
  0
DICTIONARY
  5
91E
330
3F6
100
AcDbDictionary
280
     1
281
     1
  3
ACAD_XREC_ROUNDTRIP
360
91F
  0
DICTIONARY
  5
91C
330
3F5
100
AcDbDictionary
280
     1
281
     1
  3
ACAD_XREC_ROUNDTRIP
360
91D
  0
DICTIONARY
  5
3B9
330
3B8
100
AcDbDictionary
280
     1
281
     1
  3
ACAD_XREC_ROUNDTRIP
360
8F3
  3
BUMPTILE
360
3BB
  3
DIFFUSETILE
360
3BA
  3
OPACITYTILE
360
3BE
  3
REFLECTIONTILE
360
3BD
  3
REFRACTIONTILE
360
3BF
  3
SPECULARTILE
360
3BC
  0
DICTIONARY
  5
3B1
330
3B0
100
AcDbDictionary
280
     1
281
     1
  3
ACAD_XREC_ROUNDTRIP
360
8F2
  3
BUMPTILE
360
3B3
  3
DIFFUSETILE
360
3B2
  3
OPACITYTILE
360
3B6
  3
REFLECTIONTILE
360
3B5
  3
REFRACTIONTILE
360
3B7
  3
SPECULARTILE
360
3B4
  0
DICTIONARY
  5
3C1
330
3C0
100
AcDbDictionary
280
     1
281
     1
  3
ACAD_XREC_ROUNDTRIP
360
8F4
  3
BUMPTILE
360
3C3
  3
DIFFUSETILE
360
3C2
  3
OPACITYTILE
360
3C6
  3
REFLECTIONTILE
360
3C5
  3
REFRACTIONTILE
360
3C7
  3
SPECULARTILE
360
3C4
  0
DICTIONARY
  5
5FA
330
3DE
100
AcDbDictionary
280
     1
281
     1
  3
ACAD_ROUNDTRIP_2008_TABLESTYLE_CELLSTYLEMAP
360
8ED
  3
ACAD_XREC_ROUNDTRIP
360
91B
  0
DICTIONARY
  5
8FF
330
3CE
100
AcDbDictionary
280
     1
281
     1
  3
ACAD_XREC_ROUNDTRIP
360
900
  0
DICTIONARY
  5
903
330
3D0
100
AcDbDictionary
280
     1
281
     1
  3
ACAD_XREC_ROUNDTRIP
360
904
  0
DICTIONARY
  5
901
330
3CF
100
AcDbDictionary
280
     1
281
     1
  3
ACAD_XREC_ROUNDTRIP
360
902
  0
DICTIONARY
  5
8FD
330
3CD
100
AcDbDictionary
280
     1
281
     1
  3
ACAD_XREC_ROUNDTRIP
360
8FE
  0
DICTIONARY
  5
90B
330
3D4
100
AcDbDictionary
280
     1
281
     1
  3
ACAD_XREC_ROUNDTRIP
360
90C
  0
DICTIONARY
  5
913
330
3D8
100
AcDbDictionary
280
     1
281
     1
  3
ACAD_XREC_ROUNDTRIP
360
914
  0
DICTIONARY
  5
905
330
3D1
100
AcDbDictionary
280
     1
281
     1
  3
ACAD_XREC_ROUNDTRIP
360
906
  0
DICTIONARY
  5
909
330
3D3
100
AcDbDictionary
280
     1
281
     1
  3
ACAD_XREC_ROUNDTRIP
360
90A
  0
DICTIONARY
  5
919
330
3DB
100
AcDbDictionary
280
     1
281
     1
  3
ACAD_XREC_ROUNDTRIP
360
91A
  0
DICTIONARY
  5
911
330
3D7
100
AcDbDictionary
280
     1
281
     1
  3
ACAD_XREC_ROUNDTRIP
360
912
  0
DICTIONARY
  5
8F5
330
3C9
100
AcDbDictionary
280
     1
281
     1
  3
ACAD_XREC_ROUNDTRIP
360
8F6
  0
DICTIONARY
  5
8F7
330
3CA
100
AcDbDictionary
280
     1
281
     1
  3
ACAD_XREC_ROUNDTRIP
360
8F8
  0
DICTIONARY
  5
8F9
330
3CB
100
AcDbDictionary
280
     1
281
     1
  3
ACAD_XREC_ROUNDTRIP
360
8FA
  0
DICTIONARY
  5
8FB
330
3CC
100
AcDbDictionary
280
     1
281
     1
  3
ACAD_XREC_ROUNDTRIP
360
8FC
  0
DICTIONARY
  5
915
330
3D9
100
AcDbDictionary
280
     1
281
     1
  3
ACAD_XREC_ROUNDTRIP
360
916
  0
DICTIONARY
  5
90F
330
3D6
100
AcDbDictionary
280
     1
281
     1
  3
ACAD_XREC_ROUNDTRIP
360
910
  0
DICTIONARY
  5
917
330
3DA
100
AcDbDictionary
280
     1
281
     1
  3
ACAD_XREC_ROUNDTRIP
360
918
  0
DICTIONARY
  5
907
330
3D2
100
AcDbDictionary
280
     1
281
     1
  3
ACAD_XREC_ROUNDTRIP
360
908
  0
DICTIONARY
  5
90D
330
3D5
100
AcDbDictionary
280
     1
281
     1
  3
ACAD_XREC_ROUNDTRIP
360
90E
  0
PH_GROUP
  5
452
102
{ACAD_REACTORS
330
451
102
}
330
451
  0
DICTIONARY
  5
524
102
{ACAD_REACTORS
330
523
102
}
330
523
100
AcDbDictionary
281
     1
  3
$PH$AAAA
350
525
  3
PH_GRPMEMBERS
350
527
  0
PH_GROUP
  5
528
102
{ACAD_REACTORS
330
523
102
}
330
523
  0
PH_GROUP
  5
649
102
{ACAD_REACTORS
330
648
102
}
330
648
  0
XRECORD
  5
91F
102
{ACAD_REACTORS
330
91E
102
}
330
91E
100
AcDbXrecord
280
     1
102
SHADEPLOT
 70
     0
102
SHADEPLOTRESLEVEL
 70
     2
102
SHADEPLOTCUSTOMDPI
 70
   300
  0
XRECORD
  5
91D
102
{ACAD_REACTORS
330
91C
102
}
330
91C
100
AcDbXrecord
280
     1
102
SHADEPLOT
 70
     0
102
SHADEPLOTRESLEVEL
 70
     2
102
SHADEPLOTCUSTOMDPI
 70
   300
  0
XRECORD
  5
8F3
102
{ACAD_REACTORS
330
3B9
102
}
330
3B9
100
AcDbXrecord
280
     1
102
MATERIAL
148
0.0
149
0.0
149
0.0
 93
        0
 94
      127
282
     0
 72
     0
 77
     0
171
     0
175
     0
179
     0
273
     0
  0
XRECORD
  5
3BB
102
{ACAD_REACTORS
330
3B9
102
}
330
3B9
100
AcDbXrecord
280
     1
270
     1
271
     1
  0
XRECORD
  5
3BA
102
{ACAD_REACTORS
330
3B9
102
}
330
3B9
100
AcDbXrecord
280
     1
270
     1
271
     1
  0
XRECORD
  5
3BE
102
{ACAD_REACTORS
330
3B9
102
}
330
3B9
100
AcDbXrecord
280
     1
270
     1
271
     1
  0
XRECORD
  5
3BD
102
{ACAD_REACTORS
330
3B9
102
}
330
3B9
100
AcDbXrecord
280
     1
270
     1
271
     1
  0
XRECORD
  5
3BF
102
{ACAD_REACTORS
330
3B9
102
}
330
3B9
100
AcDbXrecord
280
     1
270
     1
271
     1
  0
XRECORD
  5
3BC
102
{ACAD_REACTORS
330
3B9
102
}
330
3B9
100
AcDbXrecord
280
     1
270
     1
271
     1
  0
XRECORD
  5
8F2
102
{ACAD_REACTORS
330
3B1
102
}
330
3B1
100
AcDbXrecord
280
     1
102
MATERIAL
148
0.0
149
0.0
149
0.0
 93
        0
 94
      127
282
     0
 72
     0
 77
     0
171
     0
175
     0
179
     0
273
     0
  0
XRECORD
  5
3B3
102
{ACAD_REACTORS
330
3B1
102
}
330
3B1
100
AcDbXrecord
280
     1
270
     1
271
     1
  0
XRECORD
  5
3B2
102
{ACAD_REACTORS
330
3B1
102
}
330
3B1
100
AcDbXrecord
280
     1
270
     1
271
     1
  0
XRECORD
  5
3B6
102
{ACAD_REACTORS
330
3B1
102
}
330
3B1
100
AcDbXrecord
280
     1
270
     1
271
     1
  0
XRECORD
  5
3B5
102
{ACAD_REACTORS
330
3B1
102
}
330
3B1
100
AcDbXrecord
280
     1
270
     1
271
     1
  0
XRECORD
  5
3B7
102
{ACAD_REACTORS
330
3B1
102
}
330
3B1
100
AcDbXrecord
280
     1
270
     1
271
     1
  0
XRECORD
  5
3B4
102
{ACAD_REACTORS
330
3B1
102
}
330
3B1
100
AcDbXrecord
280
     1
270
     1
271
     1
  0
XRECORD
  5
8F4
102
{ACAD_REACTORS
330
3C1
102
}
330
3C1
100
AcDbXrecord
280
     1
102
MATERIAL
148
0.0
149
0.0
149
0.0
 93
        0
 94
      127
282
     0
 72
     0
 77
     0
171
     0
175
     0
179
     0
273
     0
  0
XRECORD
  5
3C3
102
{ACAD_REACTORS
330
3C1
102
}
330
3C1
100
AcDbXrecord
280
     1
270
     1
271
     1
  0
XRECORD
  5
3C2
102
{ACAD_REACTORS
330
3C1
102
}
330
3C1
100
AcDbXrecord
280
     1
270
     1
271
     1
  0
XRECORD
  5
3C6
102
{ACAD_REACTORS
330
3C1
102
}
330
3C1
100
AcDbXrecord
280
     1
270
     1
271
     1
  0
XRECORD
  5
3C5
102
{ACAD_REACTORS
330
3C1
102
}
330
3C1
100
AcDbXrecord
280
     1
270
     1
271
     1
  0
XRECORD
  5
3C7
102
{ACAD_REACTORS
330
3C1
102
}
330
3C1
100
AcDbXrecord
280
     1
270
     1
271
     1
  0
XRECORD
  5
3C4
102
{ACAD_REACTORS
330
3C1
102
}
330
3C1
100
AcDbXrecord
280
     1
270
     1
271
     1
  0
CELLSTYLEMAP
  5
8ED
102
{ACAD_REACTORS
330
5FA
102
}
330
5FA
100
AcDbCellStyleMap
 90
        3
300
CELLSTYLE
  1
TABLEFORMAT_BEGIN
 90
        5
170
     1
 91
        0
 92
    32768
 62
   257
 93
        1
300
CONTENTFORMAT
  1
CONTENTFORMAT_BEGIN
 90
        0
 91
        0
 92
      512
 93
        0
300

 40
0.0
140
1.0
 94
        5
 62
     0
340
F
144
6.0
309
CONTENTFORMAT_END
171
     1
301
MARGIN
  1
CELLMARGIN_BEGIN
 40
1.5
 40
1.5
 40
1.5
 40
1.5
 40
4.5
 40
4.5
309
CELLMARGIN_END
 94
        6
 95
        1
302
GRIDFORMAT
  1
GRIDFORMAT_BEGIN
 90
        0
 91
        1
 62
     0
 92
       -2
340
0
 93
        0
 40
1.125
309
GRIDFORMAT_END
 95
        2
302
GRIDFORMAT
  1
GRIDFORMAT_BEGIN
 90
        0
 91
        1
 62
     0
 92
       -2
340
0
 93
        0
 40
1.125
309
GRIDFORMAT_END
 95
        4
302
GRIDFORMAT
  1
GRIDFORMAT_BEGIN
 90
        0
 91
        1
 62
     0
 92
       -2
340
0
 93
        0
 40
1.125
309
GRIDFORMAT_END
 95
        8
302
GRIDFORMAT
  1
GRIDFORMAT_BEGIN
 90
        0
 91
        1
 62
     0
 92
       -2
340
0
 93
        0
 40
1.125
309
GRIDFORMAT_END
 95
       16
302
GRIDFORMAT
  1
GRIDFORMAT_BEGIN
 90
        0
 91
        1
 62
     0
 92
       -2
340
0
 93
        0
 40
1.125
309
GRIDFORMAT_END
 95
       32
302
GRIDFORMAT
  1
GRIDFORMAT_BEGIN
 90
        0
 91
        1
 62
     0
 92
       -2
340
0
 93
        0
 40
1.125
309
GRIDFORMAT_END
309
TABLEFORMAT_END
  1
CELLSTYLE_BEGIN
 90
        1
 91
        1
300
_TITLE
309
CELLSTYLE_END
300
CELLSTYLE
  1
TABLEFORMAT_BEGIN
 90
        5
170
     1
 91
        0
 92
        0
 62
   257
 93
        1
300
CONTENTFORMAT
  1
CONTENTFORMAT_BEGIN
 90
        0
 91
        0
 92
      512
 93
        0
300

 40
0.0
140
1.0
 94
        5
 62
     0
340
F
144
4.5
309
CONTENTFORMAT_END
171
     1
301
MARGIN
  1
CELLMARGIN_BEGIN
 40
1.5
 40
1.5
 40
1.5
 40
1.5
 40
4.5
 40
4.5
309
CELLMARGIN_END
 94
        6
 95
        1
302
GRIDFORMAT
  1
GRIDFORMAT_BEGIN
 90
        0
 91
        1
 62
     0
 92
       -2
340
0
 93
        0
 40
1.125
309
GRIDFORMAT_END
 95
        2
302
GRIDFORMAT
  1
GRIDFORMAT_BEGIN
 90
        0
 91
        1
 62
     0
 92
       -2
340
0
 93
        0
 40
1.125
309
GRIDFORMAT_END
 95
        4
302
GRIDFORMAT
  1
GRIDFORMAT_BEGIN
 90
        0
 91
        1
 62
     0
 92
       -2
340
0
 93
        0
 40
1.125
309
GRIDFORMAT_END
 95
        8
302
GRIDFORMAT
  1
GRIDFORMAT_BEGIN
 90
        0
 91
        1
 62
     0
 92
       -2
340
0
 93
        0
 40
1.125
309
GRIDFORMAT_END
 95
       16
302
GRIDFORMAT
  1
GRIDFORMAT_BEGIN
 90
        0
 91
        1
 62
     0
 92
       -2
340
0
 93
        0
 40
1.125
309
GRIDFORMAT_END
 95
       32
302
GRIDFORMAT
  1
GRIDFORMAT_BEGIN
 90
        0
 91
        1
 62
     0
 92
       -2
340
0
 93
        0
 40
1.125
309
GRIDFORMAT_END
309
TABLEFORMAT_END
  1
CELLSTYLE_BEGIN
 90
        2
 91
        1
300
_HEADER
309
CELLSTYLE_END
300
CELLSTYLE
  1
TABLEFORMAT_BEGIN
 90
        5
170
     1
 91
        0
 92
        0
 62
   257
 93
        1
300
CONTENTFORMAT
  1
CONTENTFORMAT_BEGIN
 90
        0
 91
        0
 92
      512
 93
        0
300

 40
0.0
140
1.0
 94
        2
 62
     0
340
F
144
4.5
309
CONTENTFORMAT_END
171
     1
301
MARGIN
  1
CELLMARGIN_BEGIN
 40
1.5
 40
1.5
 40
1.5
 40
1.5
 40
4.5
 40
4.5
309
CELLMARGIN_END
 94
        6
 95
        1
302
GRIDFORMAT
  1
GRIDFORMAT_BEGIN
 90
        0
 91
        1
 62
     0
 92
       -2
340
0
 93
        0
 40
1.125
309
GRIDFORMAT_END
 95
        2
302
GRIDFORMAT
  1
GRIDFORMAT_BEGIN
 90
        0
 91
        1
 62
     0
 92
       -2
340
0
 93
        0
 40
1.125
309
GRIDFORMAT_END
 95
        4
302
GRIDFORMAT
  1
GRIDFORMAT_BEGIN
 90
        0
 91
        1
 62
     0
 92
       -2
340
0
 93
        0
 40
1.125
309
GRIDFORMAT_END
 95
        8
302
GRIDFORMAT
  1
GRIDFORMAT_BEGIN
 90
        0
 91
        1
 62
     0
 92
       -2
340
0
 93
        0
 40
1.125
309
GRIDFORMAT_END
 95
       16
302
GRIDFORMAT
  1
GRIDFORMAT_BEGIN
 90
        0
 91
        1
 62
     0
 92
       -2
340
0
 93
        0
 40
1.125
309
GRIDFORMAT_END
 95
       32
302
GRIDFORMAT
  1
GRIDFORMAT_BEGIN
 90
        0
 91
        1
 62
     0
 92
       -2
340
0
 93
        0
 40
1.125
309
GRIDFORMAT_END
309
TABLEFORMAT_END
  1
CELLSTYLE_BEGIN
 90
        3
 91
        2
300
_DATA
309
CELLSTYLE_END
  0
XRECORD
  5
91B
102
{ACAD_REACTORS
330
5FA
102
}
330
5FA
100
AcDbXrecord
280
     1
102
ACAD_ROUNDTRIP_PRE2007_TABLESTYLE
 90
      512
 91
        0
  1

 92
      512
 93
        0
  2

 94
      512
 95
        0
  3

  0
XRECORD
  5
900
102
{ACAD_REACTORS
330
8FF
102
}
330
8FF
100
AcDbXrecord
280
     1
102
RTVSPropertyOp0
 70
     1
102
RTVSPropertyOp1
 70
     1
102
RTVSPropertyOp2
 70
     1
102
RTVSPropertyOp3
 70
     1
102
RTVSPropertyOp4
 70
     1
102
RTVSPropertyOp5
 70
     1
102
RTVSPropertyOp6
 70
     1
102
RTVSPropertyOp7
 70
     1
102
RTVSPropertyOp8
 70
     1
102
RTVSPropertyOp9
 70
     1
102
RTVSPropertyOp10
 70
     1
102
RTVSPropertyOp11
 70
     1
102
RTVSPropertyOp12
 70
     1
102
RTVSPropertyOp13
 70
     1
102
RTVSPropertyOp14
 70
     1
102
RTVSPropertyOp15
 70
     1
102
RTVSPropertyOp16
 70
     1
102
RTVSPropertyOp17
 70
     1
102
RTVSPropertyOp18
 70
     1
102
RTVSPropertyOp19
 70
     1
102
RTVSPropertyOp20
 70
     1
102
RTVSPropertyOp21
 70
     1
102
RTVSPropertyOp22
 70
     1
102
RTVSPropertyOp23
 70
     1
102
RTVSPropertyOp24
 70
     1
102
RTVSPropertyOp25
 70
     1
102
RTVSPropertyOp26
 70
     1
102
RTVSPropertyOp27
 70
     1
  0
XRECORD
  5
904
102
{ACAD_REACTORS
330
903
102
}
330
903
100
AcDbXrecord
280
     1
102
RTVSPropertyOp0
 70
     1
102
RTVSPropertyOp1
 70
     1
102
RTVSPropertyOp2
 70
     1
102
RTVSPropertyOp3
 70
     1
102
RTVSPropertyOp4
 70
     1
102
RTVSPropertyOp5
 70
     1
102
RTVSPropertyOp6
 70
     1
102
RTVSPropertyOp7
 70
     1
102
RTVSPropertyOp8
 70
     1
102
RTVSPropertyOp9
 70
     1
102
RTVSPropertyOp10
 70
     1
102
RTVSPropertyOp11
 70
     1
102
RTVSPropertyOp12
 70
     1
102
RTVSPropertyOp13
 70
     1
102
RTVSPropertyOp14
 70
     1
102
RTVSPropertyOp15
 70
     1
102
RTVSPropertyOp16
 70
     1
102
RTVSPropertyOp17
 70
     1
102
RTVSPropertyOp18
 70
     1
102
RTVSPropertyOp19
 70
     1
102
RTVSPropertyOp20
 70
     1
102
RTVSPropertyOp21
 70
     1
102
RTVSPropertyOp22
 70
     1
102
RTVSPropertyOp23
 70
     1
102
RTVSPropertyOp24
 70
     1
102
RTVSPropertyOp25
 70
     1
102
RTVSPropertyOp26
 70
     1
102
RTVSPropertyOp27
 70
     1
  0
XRECORD
  5
902
102
{ACAD_REACTORS
330
901
102
}
330
901
100
AcDbXrecord
280
     1
102
RTVSPropertyOp0
 70
     1
102
RTVSPropertyOp1
 70
     1
102
RTVSPropertyOp2
 70
     1
102
RTVSPropertyOp3
 70
     1
102
RTVSPropertyOp4
 70
     1
102
RTVSPropertyOp5
 70
     1
102
RTVSPropertyOp6
 70
     1
102
RTVSPropertyOp7
 70
     1
102
RTVSPropertyOp8
 70
     1
102
RTVSPropertyOp9
 70
     1
102
RTVSPropertyOp10
 70
     1
102
RTVSPropertyOp11
 70
     1
102
RTVSPropertyOp12
 70
     1
102
RTVSPropertyOp13
 70
     1
102
RTVSPropertyOp14
 70
     1
102
RTVSPropertyOp15
 70
     1
102
RTVSPropertyOp16
 70
     1
102
RTVSPropertyOp17
 70
     1
102
RTVSPropertyOp18
 70
     1
102
RTVSPropertyOp19
 70
     1
102
RTVSPropertyOp20
 70
     1
102
RTVSPropertyOp21
 70
     1
102
RTVSPropertyOp22
 70
     1
102
RTVSPropertyOp23
 70
     1
102
RTVSPropertyOp24
 70
     1
102
RTVSPropertyOp25
 70
     1
102
RTVSPropertyOp26
 70
     1
102
RTVSPropertyOp27
 70
     1
  0
XRECORD
  5
8FE
102
{ACAD_REACTORS
330
8FD
102
}
330
8FD
100
AcDbXrecord
280
     1
102
RTVSPropertyOp0
 70
     1
102
RTVSPropertyOp1
 70
     1
102
RTVSPropertyOp2
 70
     1
102
RTVSPropertyOp3
 70
     1
102
RTVSPropertyOp4
 70
     1
102
RTVSPropertyOp5
 70
     1
102
RTVSPropertyOp6
 70
     1
102
RTVSPropertyOp7
 70
     1
102
RTVSPropertyOp8
 70
     1
102
RTVSPropertyOp9
 70
     1
102
RTVSPropertyOp10
 70
     1
102
RTVSPropertyOp11
 70
     1
102
RTVSPropertyOp12
 70
     1
102
RTVSPropertyOp13
 70
     1
102
RTVSPropertyOp14
 70
     1
102
RTVSPropertyOp15
 70
     1
102
RTVSPropertyOp16
 70
     1
102
RTVSPropertyOp17
 70
     1
102
RTVSPropertyOp18
 70
     1
102
RTVSPropertyOp19
 70
     1
102
RTVSPropertyOp20
 70
     1
102
RTVSPropertyOp21
 70
     1
102
RTVSPropertyOp22
 70
     1
102
RTVSPropertyOp23
 70
     1
102
RTVSPropertyOp24
 70
     1
102
RTVSPropertyOp25
 70
     1
102
RTVSPropertyOp26
 70
     1
102
RTVSPropertyOp27
 70
     1
  0
XRECORD
  5
90C
102
{ACAD_REACTORS
330
90B
102
}
330
90B
100
AcDbXrecord
280
     1
102
RTVSPropertyOp0
 70
     1
102
RTVSPropertyOp1
 70
     1
102
RTVSPropertyOp2
 70
     1
102
RTVSPropertyOp3
 70
     1
102
RTVSPropertyOp4
 70
     1
102
RTVSPropertyOp5
 70
     1
102
RTVSPropertyOp6
 70
     1
102
RTVSPropertyOp7
 70
     1
102
RTVSPropertyOp8
 70
     1
102
RTVSPropertyOp9
 70
     1
102
RTVSPropertyOp10
 70
     1
102
RTVSPropertyOp11
 70
     1
102
RTVSPropertyOp12
 70
     1
102
RTVSPropertyOp13
 70
     1
102
RTVSPropertyOp14
 70
     1
102
RTVSPropertyOp15
 70
     1
102
RTVSPropertyOp16
 70
     1
102
RTVSPropertyOp17
 70
     1
102
RTVSPropertyOp18
 70
     1
102
RTVSPropertyOp19
 70
     1
102
RTVSPropertyOp20
 70
     1
102
RTVSPropertyOp21
 70
     1
102
RTVSPropertyOp22
 70
     1
102
RTVSPropertyOp23
 70
     1
102
RTVSPropertyOp24
 70
     1
102
RTVSPropertyOp25
 70
     1
102
RTVSPropertyOp26
 70
     1
102
RTVSPropertyOp27
 70
     1
  0
XRECORD
  5
914
102
{ACAD_REACTORS
330
913
102
}
330
913
100
AcDbXrecord
280
     1
102
RTVSPropertyOp0
 70
     1
102
RTVSPropertyOp1
 70
     1
102
RTVSPropertyOp2
 70
     1
102
RTVSPropertyOp3
 70
     1
102
RTVSPropertyOp4
 70
     1
102
RTVSPropertyOp5
 70
     1
102
RTVSPropertyOp6
 70
     1
102
RTVSPropertyOp7
 70
     1
102
RTVSPropertyOp8
 70
     1
102
RTVSPropertyOp9
 70
     1
102
RTVSPropertyOp10
 70
     1
102
RTVSPropertyOp11
 70
     1
102
RTVSPropertyOp12
 70
     1
102
RTVSPropertyOp13
 70
     1
102
RTVSPropertyOp14
 70
     1
102
RTVSPropertyOp15
 70
     1
102
RTVSPropertyOp16
 70
     1
102
RTVSPropertyOp17
 70
     1
102
RTVSPropertyOp18
 70
     1
102
RTVSPropertyOp19
 70
     1
102
RTVSPropertyOp20
 70
     1
102
RTVSPropertyOp21
 70
     1
102
RTVSPropertyOp22
 70
     1
102
RTVSPropertyOp23
 70
     1
102
RTVSPropertyOp24
 70
     1
102
RTVSPropertyOp25
 70
     1
102
RTVSPropertyOp26
 70
     1
102
RTVSPropertyOp27
 70
     1
  0
XRECORD
  5
906
102
{ACAD_REACTORS
330
905
102
}
330
905
100
AcDbXrecord
280
     1
102
RTVSPropertyOp0
 70
     1
102
RTVSPropertyOp1
 70
     1
102
RTVSPropertyOp2
 70
     1
102
RTVSPropertyOp3
 70
     1
102
RTVSPropertyOp4
 70
     1
102
RTVSPropertyOp5
 70
     1
102
RTVSPropertyOp6
 70
     1
102
RTVSPropertyOp7
 70
     1
102
RTVSPropertyOp8
 70
     1
102
RTVSPropertyOp9
 70
     1
102
RTVSPropertyOp10
 70
     1
102
RTVSPropertyOp11
 70
     1
102
RTVSPropertyOp12
 70
     1
102
RTVSPropertyOp13
 70
     1
102
RTVSPropertyOp14
 70
     1
102
RTVSPropertyOp15
 70
     1
102
RTVSPropertyOp16
 70
     1
102
RTVSPropertyOp17
 70
     1
102
RTVSPropertyOp18
 70
     1
102
RTVSPropertyOp19
 70
     1
102
RTVSPropertyOp20
 70
     1
102
RTVSPropertyOp21
 70
     1
102
RTVSPropertyOp22
 70
     1
102
RTVSPropertyOp23
 70
     1
102
RTVSPropertyOp24
 70
     1
102
RTVSPropertyOp25
 70
     1
102
RTVSPropertyOp26
 70
     1
102
RTVSPropertyOp27
 70
     1
  0
XRECORD
  5
90A
102
{ACAD_REACTORS
330
909
102
}
330
909
100
AcDbXrecord
280
     1
102
RTVSPropertyOp0
 70
     1
102
RTVSPropertyOp1
 70
     1
102
RTVSPropertyOp2
 70
     1
102
RTVSPropertyOp3
 70
     1
102
RTVSPropertyOp4
 70
     1
102
RTVSPropertyOp5
 70
     1
102
RTVSPropertyOp6
 70
     1
102
RTVSPropertyOp7
 70
     1
102
RTVSPropertyOp8
 70
     1
102
RTVSPropertyOp9
 70
     1
102
RTVSPropertyOp10
 70
     1
102
RTVSPropertyOp11
 70
     1
102
RTVSPropertyOp12
 70
     1
102
RTVSPropertyOp13
 70
     1
102
RTVSPropertyOp14
 70
     1
102
RTVSPropertyOp15
 70
     1
102
RTVSPropertyOp16
 70
     1
102
RTVSPropertyOp17
 70
     1
102
RTVSPropertyOp18
 70
     1
102
RTVSPropertyOp19
 70
     1
102
RTVSPropertyOp20
 70
     1
102
RTVSPropertyOp21
 70
     1
102
RTVSPropertyOp22
 70
     1
102
RTVSPropertyOp23
 70
     1
102
RTVSPropertyOp24
 70
     1
102
RTVSPropertyOp25
 70
     1
102
RTVSPropertyOp26
 70
     1
102
RTVSPropertyOp27
 70
     1
  0
XRECORD
  5
91A
102
{ACAD_REACTORS
330
919
102
}
330
919
100
AcDbXrecord
280
     1
102
RTVSPropertyOp0
 70
     0
102
RTVSPropertyOp1
 70
     0
102
RTVSPropertyOp2
 70
     0
102
RTVSPropertyOp3
 70
     0
102
RTVSPropertyOp4
 70
     0
102
RTVSPropertyOp5
 70
     0
102
RTVSPropertyOp6
 70
     0
102
RTVSPropertyOp7
 70
     0
102
RTVSPropertyOp8
 70
     0
102
RTVSPropertyOp9
 70
     0
102
RTVSPropertyOp10
 70
     0
102
RTVSPropertyOp11
 70
     0
102
RTVSPropertyOp12
 70
     0
102
RTVSPropertyOp13
 70
     0
102
RTVSPropertyOp14
 70
     2
102
RTVSPropertyOp15
 70
     0
102
RTVSPropertyOp16
 70
     0
102
RTVSPropertyOp17
 70
     0
102
RTVSPropertyOp18
 70
     0
102
RTVSPropertyOp19
 70
     0
102
RTVSPropertyOp20
 70
     0
102
RTVSPropertyOp21
 70
     0
102
RTVSPropertyOp22
 70
     0
102
RTVSPropertyOp23
 70
     0
102
RTVSPropertyOp24
 70
     0
102
RTVSPropertyOp25
 70
     0
102
RTVSPropertyOp26
 70
     0
102
RTVSPropertyOp27
 70
     0
  0
XRECORD
  5
912
102
{ACAD_REACTORS
330
911
102
}
330
911
100
AcDbXrecord
280
     1
102
RTVSPropertyOp0
 70
     1
102
RTVSPropertyOp1
 70
     1
102
RTVSPropertyOp2
 70
     1
102
RTVSPropertyOp3
 70
     1
102
RTVSPropertyOp4
 70
     1
102
RTVSPropertyOp5
 70
     1
102
RTVSPropertyOp6
 70
     1
102
RTVSPropertyOp7
 70
     1
102
RTVSPropertyOp8
 70
     1
102
RTVSPropertyOp9
 70
     1
102
RTVSPropertyOp10
 70
     1
102
RTVSPropertyOp11
 70
     1
102
RTVSPropertyOp12
 70
     1
102
RTVSPropertyOp13
 70
     1
102
RTVSPropertyOp14
 70
     1
102
RTVSPropertyOp15
 70
     1
102
RTVSPropertyOp16
 70
     1
102
RTVSPropertyOp17
 70
     1
102
RTVSPropertyOp18
 70
     1
102
RTVSPropertyOp19
 70
     1
102
RTVSPropertyOp20
 70
     1
102
RTVSPropertyOp21
 70
     1
102
RTVSPropertyOp22
 70
     1
102
RTVSPropertyOp23
 70
     1
102
RTVSPropertyOp24
 70
     1
102
RTVSPropertyOp25
 70
     1
102
RTVSPropertyOp26
 70
     1
102
RTVSPropertyOp27
 70
     1
  0
XRECORD
  5
8F6
102
{ACAD_REACTORS
330
8F5
102
}
330
8F5
100
AcDbXrecord
280
     1
102
RTVSPropertyOp0
 70
     1
102
RTVSPropertyOp1
 70
     1
102
RTVSPropertyOp2
 70
     1
102
RTVSPropertyOp3
 70
     1
102
RTVSPropertyOp4
 70
     1
102
RTVSPropertyOp5
 70
     1
102
RTVSPropertyOp6
 70
     1
102
RTVSPropertyOp7
 70
     1
102
RTVSPropertyOp8
 70
     1
102
RTVSPropertyOp9
 70
     1
102
RTVSPropertyOp10
 70
     1
102
RTVSPropertyOp11
 70
     1
102
RTVSPropertyOp12
 70
     1
102
RTVSPropertyOp13
 70
     1
102
RTVSPropertyOp14
 70
     1
102
RTVSPropertyOp15
 70
     1
102
RTVSPropertyOp16
 70
     1
102
RTVSPropertyOp17
 70
     1
102
RTVSPropertyOp18
 70
     1
102
RTVSPropertyOp19
 70
     1
102
RTVSPropertyOp20
 70
     1
102
RTVSPropertyOp21
 70
     1
102
RTVSPropertyOp22
 70
     1
102
RTVSPropertyOp23
 70
     1
102
RTVSPropertyOp24
 70
     1
102
RTVSPropertyOp25
 70
     1
102
RTVSPropertyOp26
 70
     1
102
RTVSPropertyOp27
 70
     1
  0
XRECORD
  5
8F8
102
{ACAD_REACTORS
330
8F7
102
}
330
8F7
100
AcDbXrecord
280
     1
102
RTVSPropertyOp0
 70
     1
102
RTVSPropertyOp1
 70
     1
102
RTVSPropertyOp2
 70
     1
102
RTVSPropertyOp3
 70
     1
102
RTVSPropertyOp4
 70
     1
102
RTVSPropertyOp5
 70
     1
102
RTVSPropertyOp6
 70
     1
102
RTVSPropertyOp7
 70
     1
102
RTVSPropertyOp8
 70
     1
102
RTVSPropertyOp9
 70
     1
102
RTVSPropertyOp10
 70
     1
102
RTVSPropertyOp11
 70
     1
102
RTVSPropertyOp12
 70
     1
102
RTVSPropertyOp13
 70
     1
102
RTVSPropertyOp14
 70
     1
102
RTVSPropertyOp15
 70
     1
102
RTVSPropertyOp16
 70
     1
102
RTVSPropertyOp17
 70
     1
102
RTVSPropertyOp18
 70
     1
102
RTVSPropertyOp19
 70
     1
102
RTVSPropertyOp20
 70
     1
102
RTVSPropertyOp21
 70
     1
102
RTVSPropertyOp22
 70
     1
102
RTVSPropertyOp23
 70
     1
102
RTVSPropertyOp24
 70
     1
102
RTVSPropertyOp25
 70
     1
102
RTVSPropertyOp26
 70
     1
102
RTVSPropertyOp27
 70
     1
  0
XRECORD
  5
8FA
102
{ACAD_REACTORS
330
8F9
102
}
330
8F9
100
AcDbXrecord
280
     1
102
RTVSPropertyOp0
 70
     1
102
RTVSPropertyOp1
 70
     1
102
RTVSPropertyOp2
 70
     1
102
RTVSPropertyOp3
 70
     1
102
RTVSPropertyOp4
 70
     1
102
RTVSPropertyOp5
 70
     1
102
RTVSPropertyOp6
 70
     1
102
RTVSPropertyOp7
 70
     1
102
RTVSPropertyOp8
 70
     1
102
RTVSPropertyOp9
 70
     1
102
RTVSPropertyOp10
 70
     1
102
RTVSPropertyOp11
 70
     1
102
RTVSPropertyOp12
 70
     1
102
RTVSPropertyOp13
 70
     1
102
RTVSPropertyOp14
 70
     1
102
RTVSPropertyOp15
 70
     1
102
RTVSPropertyOp16
 70
     1
102
RTVSPropertyOp17
 70
     1
102
RTVSPropertyOp18
 70
     1
102
RTVSPropertyOp19
 70
     1
102
RTVSPropertyOp20
 70
     1
102
RTVSPropertyOp21
 70
     1
102
RTVSPropertyOp22
 70
     1
102
RTVSPropertyOp23
 70
     1
102
RTVSPropertyOp24
 70
     1
102
RTVSPropertyOp25
 70
     1
102
RTVSPropertyOp26
 70
     1
102
RTVSPropertyOp27
 70
     1
  0
XRECORD
  5
8FC
102
{ACAD_REACTORS
330
8FB
102
}
330
8FB
100
AcDbXrecord
280
     1
102
RTVSPropertyOp0
 70
     1
102
RTVSPropertyOp1
 70
     1
102
RTVSPropertyOp2
 70
     1
102
RTVSPropertyOp3
 70
     1
102
RTVSPropertyOp4
 70
     1
102
RTVSPropertyOp5
 70
     1
102
RTVSPropertyOp6
 70
     1
102
RTVSPropertyOp7
 70
     1
102
RTVSPropertyOp8
 70
     1
102
RTVSPropertyOp9
 70
     1
102
RTVSPropertyOp10
 70
     1
102
RTVSPropertyOp11
 70
     1
102
RTVSPropertyOp12
 70
     1
102
RTVSPropertyOp13
 70
     1
102
RTVSPropertyOp14
 70
     1
102
RTVSPropertyOp15
 70
     1
102
RTVSPropertyOp16
 70
     1
102
RTVSPropertyOp17
 70
     1
102
RTVSPropertyOp18
 70
     1
102
RTVSPropertyOp19
 70
     1
102
RTVSPropertyOp20
 70
     1
102
RTVSPropertyOp21
 70
     1
102
RTVSPropertyOp22
 70
     1
102
RTVSPropertyOp23
 70
     1
102
RTVSPropertyOp24
 70
     1
102
RTVSPropertyOp25
 70
     1
102
RTVSPropertyOp26
 70
     1
102
RTVSPropertyOp27
 70
     1
  0
XRECORD
  5
916
102
{ACAD_REACTORS
330
915
102
}
330
915
100
AcDbXrecord
280
     1
102
RTVSPropertyOp0
 70
     0
102
RTVSPropertyOp1
 70
     0
102
RTVSPropertyOp2
 70
     0
102
RTVSPropertyOp3
 70
     0
102
RTVSPropertyOp4
 70
     0
102
RTVSPropertyOp5
 70
     0
102
RTVSPropertyOp6
 70
     0
102
RTVSPropertyOp7
 70
     0
102
RTVSPropertyOp8
 70
     0
102
RTVSPropertyOp9
 70
     0
102
RTVSPropertyOp10
 70
     0
102
RTVSPropertyOp11
 70
     0
102
RTVSPropertyOp12
 70
     0
102
RTVSPropertyOp13
 70
     0
102
RTVSPropertyOp14
 70
     2
102
RTVSPropertyOp15
 70
     0
102
RTVSPropertyOp16
 70
     0
102
RTVSPropertyOp17
 70
     0
102
RTVSPropertyOp18
 70
     0
102
RTVSPropertyOp19
 70
     0
102
RTVSPropertyOp20
 70
     0
102
RTVSPropertyOp21
 70
     0
102
RTVSPropertyOp22
 70
     0
102
RTVSPropertyOp23
 70
     0
102
RTVSPropertyOp24
 70
     0
102
RTVSPropertyOp25
 70
     0
102
RTVSPropertyOp26
 70
     0
102
RTVSPropertyOp27
 70
     0
  0
XRECORD
  5
910
102
{ACAD_REACTORS
330
90F
102
}
330
90F
100
AcDbXrecord
280
     1
102
RTVSPropertyOp0
 70
     1
102
RTVSPropertyOp1
 70
     1
102
RTVSPropertyOp2
 70
     1
102
RTVSPropertyOp3
 70
     1
102
RTVSPropertyOp4
 70
     1
102
RTVSPropertyOp5
 70
     1
102
RTVSPropertyOp6
 70
     1
102
RTVSPropertyOp7
 70
     1
102
RTVSPropertyOp8
 70
     1
102
RTVSPropertyOp9
 70
     1
102
RTVSPropertyOp10
 70
     1
102
RTVSPropertyOp11
 70
     1
102
RTVSPropertyOp12
 70
     1
102
RTVSPropertyOp13
 70
     1
102
RTVSPropertyOp14
 70
     1
102
RTVSPropertyOp15
 70
     1
102
RTVSPropertyOp16
 70
     1
102
RTVSPropertyOp17
 70
     1
102
RTVSPropertyOp18
 70
     1
102
RTVSPropertyOp19
 70
     1
102
RTVSPropertyOp20
 70
     1
102
RTVSPropertyOp21
 70
     1
102
RTVSPropertyOp22
 70
     1
102
RTVSPropertyOp23
 70
     1
102
RTVSPropertyOp24
 70
     1
102
RTVSPropertyOp25
 70
     1
102
RTVSPropertyOp26
 70
     1
102
RTVSPropertyOp27
 70
     1
  0
XRECORD
  5
918
102
{ACAD_REACTORS
330
917
102
}
330
917
100
AcDbXrecord
280
     1
102
RTVSPropertyOp0
 70
     0
102
RTVSPropertyOp1
 70
     0
102
RTVSPropertyOp2
 70
     0
102
RTVSPropertyOp3
 70
     0
102
RTVSPropertyOp4
 70
     0
102
RTVSPropertyOp5
 70
     0
102
RTVSPropertyOp6
 70
     0
102
RTVSPropertyOp7
 70
     0
102
RTVSPropertyOp8
 70
     0
102
RTVSPropertyOp9
 70
     0
102
RTVSPropertyOp10
 70
     0
102
RTVSPropertyOp11
 70
     0
102
RTVSPropertyOp12
 70
     0
102
RTVSPropertyOp13
 70
     0
102
RTVSPropertyOp14
 70
     2
102
RTVSPropertyOp15
 70
     0
102
RTVSPropertyOp16
 70
     0
102
RTVSPropertyOp17
 70
     0
102
RTVSPropertyOp18
 70
     0
102
RTVSPropertyOp19
 70
     0
102
RTVSPropertyOp20
 70
     0
102
RTVSPropertyOp21
 70
     0
102
RTVSPropertyOp22
 70
     0
102
RTVSPropertyOp23
 70
     0
102
RTVSPropertyOp24
 70
     0
102
RTVSPropertyOp25
 70
     0
102
RTVSPropertyOp26
 70
     0
102
RTVSPropertyOp27
 70
     0
  0
XRECORD
  5
908
102
{ACAD_REACTORS
330
907
102
}
330
907
100
AcDbXrecord
280
     1
102
RTVSPropertyOp0
 70
     1
102
RTVSPropertyOp1
 70
     1
102
RTVSPropertyOp2
 70
     1
102
RTVSPropertyOp3
 70
     1
102
RTVSPropertyOp4
 70
     1
102
RTVSPropertyOp5
 70
     1
102
RTVSPropertyOp6
 70
     1
102
RTVSPropertyOp7
 70
     1
102
RTVSPropertyOp8
 70
     1
102
RTVSPropertyOp9
 70
     1
102
RTVSPropertyOp10
 70
     1
102
RTVSPropertyOp11
 70
     1
102
RTVSPropertyOp12
 70
     1
102
RTVSPropertyOp13
 70
     1
102
RTVSPropertyOp14
 70
     1
102
RTVSPropertyOp15
 70
     1
102
RTVSPropertyOp16
 70
     1
102
RTVSPropertyOp17
 70
     1
102
RTVSPropertyOp18
 70
     1
102
RTVSPropertyOp19
 70
     1
102
RTVSPropertyOp20
 70
     1
102
RTVSPropertyOp21
 70
     1
102
RTVSPropertyOp22
 70
     1
102
RTVSPropertyOp23
 70
     1
102
RTVSPropertyOp24
 70
     1
102
RTVSPropertyOp25
 70
     1
102
RTVSPropertyOp26
 70
     1
102
RTVSPropertyOp27
 70
     1
  0
XRECORD
  5
90E
102
{ACAD_REACTORS
330
90D
102
}
330
90D
100
AcDbXrecord
280
     1
102
RTVSPropertyOp0
 70
     1
102
RTVSPropertyOp1
 70
     1
102
RTVSPropertyOp2
 70
     1
102
RTVSPropertyOp3
 70
     1
102
RTVSPropertyOp4
 70
     1
102
RTVSPropertyOp5
 70
     1
102
RTVSPropertyOp6
 70
     1
102
RTVSPropertyOp7
 70
     1
102
RTVSPropertyOp8
 70
     1
102
RTVSPropertyOp9
 70
     1
102
RTVSPropertyOp10
 70
     1
102
RTVSPropertyOp11
 70
     1
102
RTVSPropertyOp12
 70
     1
102
RTVSPropertyOp13
 70
     1
102
RTVSPropertyOp14
 70
     1
102
RTVSPropertyOp15
 70
     1
102
RTVSPropertyOp16
 70
     1
102
RTVSPropertyOp17
 70
     1
102
RTVSPropertyOp18
 70
     1
102
RTVSPropertyOp19
 70
     1
102
RTVSPropertyOp20
 70
     1
102
RTVSPropertyOp21
 70
     1
102
RTVSPropertyOp22
 70
     1
102
RTVSPropertyOp23
 70
     1
102
RTVSPropertyOp24
 70
     1
102
RTVSPropertyOp25
 70
     1
102
RTVSPropertyOp26
 70
     1
102
RTVSPropertyOp27
 70
     1
  0
DICTIONARY
  5
525
102
{ACAD_REACTORS
330
524
102
}
330
524
100
AcDbDictionary
281
     1
  3
PH_GRPMEMBERS
350
526
  0
PH_GROUP
  5
527
102
{ACAD_REACTORS
330
524
102
}
330
524
  0
PH_GROUP
  5
526
102
{ACAD_REACTORS
330
525
102
}
330
525
  0
ENDSEC
  0
EOF
