  0
SECTION
  2
HEADER
  9
$ACADVER
  1
AC1015
  9
$ACADMAINTVER
 70
    20
  9
$DWGCODEPAGE
  3
ANSI_1252
  9
$INSBASE
 10
0.0
 20
0.0
 30
0.0
  9
$EXTMIN
 10
0.9920455302027448
 20
0.9970611235578417
 30
-0.0015258207003583
  9
$EXTMAX
 10
419.0248538319857
 20
296.0192781158101
 30
0.0000000349246037
  9
$LIMMIN
 10
0.0
 20
0.0
  9
$LIMMAX
 10
420.0
 20
297.0
  9
$ORTHOMODE
 70
     1
  9
$REGENMODE
 70
     1
  9
$FILLMODE
 70
     1
  9
$QTEXTMODE
 70
     0
  9
$MIRRTEXT
 70
     1
  9
$LTSCALE
 40
1.0
  9
$ATTMODE
 70
     1
  9
$TEXTSIZE
 40
2.5
  9
$TRACEWID
 40
1.0
  9
$TEXTSTYLE
  7
STANDARD
  9
$CLAYER
  8
0
  9
$CELTYPE
  6
ACAD_ISO05W100
  9
$CECOLOR
 62
     7
  9
$CELTSCALE
 40
1.0
  9
$DISPSILH
 70
     0
  9
$DIMSCALE
 40
1.0
  9
$DIMASZ
 40
2.5
  9
$DIMEXO
 40
0.625
  9
$DIMDLI
 40
3.75
  9
$DIMRND
 40
0.0
  9
$DIMDLE
 40
0.0
  9
$DIMEXE
 40
1.25
  9
$DIMTP
 40
0.0
  9
$DIMTM
 40
0.0
  9
$DIMTXT
 40
2.5
  9
$DIMCEN
 40
2.5
  9
$DIMTSZ
 40
0.0
  9
$DIMTOL
 70
     0
  9
$DIMLIM
 70
     0
  9
$DIMTIH
 70
     0
  9
$DIMTOH
 70
     0
  9
$DIMSE1
 70
     0
  9
$DIMSE2
 70
     0
  9
$DIMTAD
 70
     1
  9
$DIMZIN
 70
     0
  9
$DIMBLK
  1

  9
$DIMASO
 70
     1
  9
$DIMSHO
 70
     1
  9
$DIMPOST
  1

  9
$DIMAPOST
  1

  9
$DIMALT
 70
     0
  9
$DIMALTD
 70
     4
  9
$DIMALTF
 40
0.0394
  9
$DIMLFAC
 40
1.0
  9
$DIMTOFL
 70
     1
  9
$DIMTVP
 40
0.0
  9
$DIMTIX
 70
     0
  9
$DIMSOXD
 70
     0
  9
$DIMSAH
 70
     0
  9
$DIMBLK1
  1

  9
$DIMBLK2
  1

  9
$DIMSTYLE
  2
STANDARD
  9
$DIMCLRD
 70
     0
  9
$DIMCLRE
 70
     0
  9
$DIMCLRT
 70
     0
  9
$DIMTFAC
 40
1.0
  9
$DIMGAP
 40
0.625
  9
$DIMJUST
 70
     0
  9
$DIMSD1
 70
     0
  9
$DIMSD2
 70
     0
  9
$DIMTOLJ
 70
     1
  9
$DIMTZIN
 70
     0
  9
$DIMALTZ
 70
     0
  9
$DIMALTTZ
 70
     0
  9
$DIMUPT
 70
     0
  9
$DIMDEC
 70
     4
  9
$DIMTDEC
 70
     4
  9
$DIMALTU
 70
     8
  9
$DIMALTTD
 70
     4
  9
$DIMTXSTY
  7
STANDARD
  9
$DIMAUNIT
 70
     0
  9
$DIMADEC
 70
     0
  9
$DIMALTRND
 40
0.0
  9
$DIMAZIN
 70
     0
  9
$DIMDSEP
 70
    46
  9
$DIMATFIT
 70
     3
  9
$DIMFRAC
 70
     0
  9
$DIMLDRBLK
  1

  9
$DIMLUNIT
 70
     6
  9
$DIMLWD
 70
    -2
  9
$DIMLWE
 70
    -2
  9
$DIMTMOVE
 70
     0
  9
$LUNITS
 70
     2
  9
$LUPREC
 70
     4
  9
$SKETCHINC
 40
1.0
  9
$FILLETRAD
 40
0.0
  9
$AUNITS
 70
     0
  9
$AUPREC
 70
     0
  9
$MENU
  1
.
  9
$ELEVATION
 40
0.0
  9
$PELEVATION
 40
0.0
  9
$THICKNESS
 40
0.0
  9
$LIMCHECK
 70
     0
  9
$CHAMFERA
 40
10.0
  9
$CHAMFERB
 40
10.0
  9
$CHAMFERC
 40
20.0
  9
$CHAMFERD
 40
0.0
  9
$SKPOLY
 70
     0
  9
$TDCREATE
 40
2451306.659226227
  9
$TDUCREATE
 40
2451306.575892894
  9
$TDUPDATE
 40
2456784.307532569
  9
$TDUUPDATE
 40
2456784.224199236
  9
$TDINDWG
 40
0.0489179051
  9
$TDUSRTIMER
 40
0.0489179051
  9
$USRTIMER
 70
     1
  9
$ANGBASE
 50
0.0
  9
$ANGDIR
 70
     0
  9
$PDMODE
 70
    35
  9
$PDSIZE
 40
-2.0
  9
$PLINEWID
 40
0.0
  9
$SPLFRAME
 70
     0
  9
$SPLINETYPE
 70
     6
  9
$SPLINESEGS
 70
     8
  9
$HANDSEED
  5
9EA
  9
$SURFTAB1
 70
     6
  9
$SURFTAB2
 70
     6
  9
$SURFTYPE
 70
     6
  9
$SURFU
 70
     6
  9
$SURFV
 70
     6
  9
$UCSBASE
  2

  9
$UCSNAME
  2

  9
$UCSORG
 10
0.0
 20
0.0
 30
0.0
  9
$UCSXDIR
 10
1.0
 20
0.0
 30
0.0
  9
$UCSYDIR
 10
0.0
 20
1.0
 30
0.0
  9
$UCSORTHOREF
  2

  9
$UCSORTHOVIEW
 70
     0
  9
$UCSORGTOP
 10
0.0
 20
0.0
 30
0.0
  9
$UCSORGBOTTOM
 10
0.0
 20
0.0
 30
0.0
  9
$UCSORGLEFT
 10
0.0
 20
0.0
 30
0.0
  9
$UCSORGRIGHT
 10
0.0
 20
0.0
 30
0.0
  9
$UCSORGFRONT
 10
0.0
 20
0.0
 30
0.0
  9
$UCSORGBACK
 10
0.0
 20
0.0
 30
0.0
  9
$PUCSBASE
  2

  9
$PUCSNAME
  2

  9
$PUCSORG
 10
0.0
 20
0.0
 30
0.0
  9
$PUCSXDIR
 10
1.0
 20
0.0
 30
0.0
  9
$PUCSYDIR
 10
0.0
 20
1.0
 30
0.0
  9
$PUCSORTHOREF
  2

  9
$PUCSORTHOVIEW
 70
     0
  9
$PUCSORGTOP
 10
0.0
 20
0.0
 30
0.0
  9
$PUCSORGBOTTOM
 10
0.0
 20
0.0
 30
0.0
  9
$PUCSORGLEFT
 10
0.0
 20
0.0
 30
0.0
  9
$PUCSORGRIGHT
 10
0.0
 20
0.0
 30
0.0
  9
$PUCSORGFRONT
 10
0.0
 20
0.0
 30
0.0
  9
$PUCSORGBACK
 10
0.0
 20
0.0
 30
0.0
  9
$USERI1
 70
     0
  9
$USERI2
 70
     0
  9
$USERI3
 70
     0
  9
$USERI4
 70
     0
  9
$USERI5
 70
     0
  9
$USERR1
 40
0.0
  9
$USERR2
 40
0.0
  9
$USERR3
 40
0.0
  9
$USERR4
 40
0.0
  9
$USERR5
 40
0.0
  9
$WORLDVIEW
 70
     1
  9
$SHADEDGE
 70
     3
  9
$SHADEDIF
 70
    70
  9
$TILEMODE
 70
     1
  9
$MAXACTVP
 70
    48
  9
$PINSBASE
 10
0.0
 20
0.0
 30
0.0
  9
$PLIMCHECK
 70
     0
  9
$PEXTMIN
 10
1.000000000000000E+20
 20
1.000000000000000E+20
 30
1.000000000000000E+20
  9
$PEXTMAX
 10
-1.000000000000000E+20
 20
-1.000000000000000E+20
 30
-1.000000000000000E+20
  9
$PLIMMIN
 10
0.0
 20
0.0
  9
$PLIMMAX
 10
420.0
 20
297.0
  9
$UNITMODE
 70
     0
  9
$VISRETAIN
 70
     1
  9
$PLINEGEN
 70
     0
  9
$PSLTSCALE
 70
     1
  9
$TREEDEPTH
 70
  3020
  9
$CMLSTYLE
  2
STANDARD
  9
$CMLJUST
 70
     0
  9
$CMLSCALE
 40
20.0
  9
$PROXYGRAPHICS
 70
     1
  9
$MEASUREMENT
 70
     1
  9
$CELWEIGHT
370
    50
  9
$ENDCAPS
280
     0
  9
$JOINSTYLE
280
     0
  9
$LWDISPLAY
290
     0
  9
$INSUNITS
 70
     0
  9
$HYPERLINKBASE
  1

  9
$STYLESHEET
  1
HP_Farbe_Dünn.ctb
  9
$XEDIT
290
     1
  9
$CEPSNTYPE
380
     0
  9
$PSTYLEMODE
290
     1
  9
$FINGERPRINTGUID
  2
{4790F1CD-6DDF-43FC-9598-EFB50E49659B}
  9
$VERSIONGUID
  2
{2F097BA5-D3F6-43C9-91EE-8D113E398C1F}
  9
$EXTNAMES
290
     1
  9
$PSVPSCALE
 40
0.0
  9
$OLESTARTUP
290
     0
  0
ENDSEC
  0
SECTION
  2
CLASSES
  0
CLASS
  1
PH_VARS
  2
PhoenixVars
  3
PHOENIX7010
 90
        0
280
     0
281
     0
  0
CLASS
  1
PH_GROUP
  2
PhGroup
  3
PHOENIX7010
 90
        0
280
     0
281
     0
  0
CLASS
  1
ACDBDICTIONARYWDFLT
  2
AcDbDictionaryWithDefault
  3
ObjectDBX Classes
 90
        0
280
     0
281
     0
  0
CLASS
  1
MATERIAL
  2
AcDbMaterial
  3
ObjectDBX Classes
 90
     1153
280
     0
281
     0
  0
CLASS
  1
VISUALSTYLE
  2
AcDbVisualStyle
  3
ObjectDBX Classes
 90
     4095
280
     0
281
     0
  0
CLASS
  1
TABLESTYLE
  2
AcDbTableStyle
  3
ObjectDBX Classes
 90
     4095
280
     0
281
     0
  0
CLASS
  1
SCALE
  2
AcDbScale
  3
ObjectDBX Classes
 90
     1153
280
     0
281
     0
  0
CLASS
  1
MLEADERSTYLE
  2
AcDbMLeaderStyle
  3
ACDB_MLEADERSTYLE_CLASS
 90
     4095
280
     0
281
     0
  0
CLASS
  1
AEC_REFEDIT_STATUS_TRACKER
  2
AecDbRefEditStatusTracker
  3
AecArchBase60|Product Desc: Autodesk Architectural Desktop 2007 |Company: Autodesk,Inc. |WEB Address: www.autodesk.com
 90
    32897
280
     0
281
     0
  0
CLASS
  1
NPOCOLLECTION
  2
AcDbImpNonPersistentObjectsCollection
  3
ObjectDBX Classes
 90
    33921
280
     0
281
     0
  0
CLASS
  1
CELLSTYLEMAP
  2
AcDbCellStyleMap
  3
ObjectDBX Classes
 90
     1152
280
     0
281
     0
  0
CLASS
  1
DICTIONARYVAR
  2
AcDbDictionaryVar
  3
ObjectDBX Classes
 90
        0
280
     0
281
     0
  0
CLASS
  1
PDFDEFINITION
  2
AcDbPdfDefinition
  3
ObjectDBX Classes
 90
     1153
280
     0
281
     0
  0
CLASS
  1
PDFUNDERLAY
  2
AcDbPdfReference
  3
ObjectDBX Classes
 90
     1153
280
     0
281
     1
  0
CLASS
  1
ACDBPLACEHOLDER
  2
AcDbPlaceHolder
  3
ObjectDBX Classes
 90
        0
280
     0
281
     0
  0
CLASS
  1
LAYOUT
  2
AcDbLayout
  3
ObjectDBX Classes
 90
        0
280
     0
281
     0
  0
ENDSEC
  0
SECTION
  2
TABLES
  0
TABLE
  2
VPORT
  5
8
102
{ACAD_XDICTIONARY
360
6BC
102
}
330
0
100
AcDbSymbolTable
 70
     1
  0
VPORT
  5
4A1
330
8
100
AcDbSymbolTableRecord
100
AcDbViewportTableRecord
  2
*ACTIVE
 70
     0
 10
0.0
 20
0.0
 11
1.0
 21
1.0
 12
210.0084496810942
 22
148.5081696196839
 13
0.0
 23
0.0
 14
10.0
 24
10.0
 15
10.0
 25
10.0
 16
0.0
 26
0.0
 36
1.0
 17
0.0
 27
0.0
 37
0.0
 40
297.0709823880318
 41
2.098493626882966
 42
50.0
 43
0.0
 44
0.0
 50
0.0
 51
0.0
 71
     0
 72
   100
 73
     1
 74
     0
 75
     0
 76
     0
 77
     0
 78
     0
281
     0
 65
     1
110
0.0
120
0.0
130
0.0
111
1.0
121
0.0
131
0.0
112
0.0
122
1.0
132
0.0
 79
     0
146
0.0
  0
ENDTAB
  0
TABLE
  2
LTYPE
  5
5
330
0
100
AcDbSymbolTable
 70
     4
  0
LTYPE
  5
12
330
5
100
AcDbSymbolTableRecord
100
AcDbLinetypeTableRecord
  2
BYBLOCK
 70
     0
  3

 72
    65
 73
     0
 40
0.0
  0
LTYPE
  5
13
330
5
100
AcDbSymbolTableRecord
100
AcDbLinetypeTableRecord
  2
BYLAYER
 70
     0
  3

 72
    65
 73
     0
 40
0.0
  0
LTYPE
  5
14
330
5
100
AcDbSymbolTableRecord
100
AcDbLinetypeTableRecord
  2
CONTINUOUS
 70
     0
  3
Solid line
 72
    65
 73
     0
 40
0.0
  0
LTYPE
  5
2E3
330
5
100
AcDbSymbolTableRecord
100
AcDbLinetypeTableRecord
  2
ACAD_ISO04W100
 70
     0
  3
____ . ____ . ____ . ____ . ____ . ____ . ____ 
 72
    65
 73
     4
 40
30.5
 49
24.0
 74
     0
 49
-3.0
 74
     0
 49
0.5
 74
     0
 49
-3.0
 74
     0
  0
LTYPE
  5
62D
330
5
100
AcDbSymbolTableRecord
100
AcDbLinetypeTableRecord
  2
ACAD_ISO05W100
 70
     0
  3
ISO Lang gestrichelt doppelpunktiert ____ .. __
 72
    65
 73
     6
 40
33.0
 49
24.0
 74
     0
 49
-3.0
 74
     0
 49
0.0
 74
     0
 49
-3.0
 74
     0
 49
0.0
 74
     0
 49
-3.0
 74
     0
  0
ENDTAB
  0
TABLE
  2
LAYER
  5
2
102
{ACAD_XDICTIONARY
360
502
102
}
330
0
100
AcDbSymbolTable
 70
     8
  0
LAYER
  5
E
102
{ACAD_XDICTIONARY
360
5D9
102
}
330
2
100
AcDbSymbolTableRecord
100
AcDbLayerTableRecord
  2
0
 70
     0
 62
     7
  6
CONTINUOUS
370
    -3
390
4A4
  0
LAYER
  5
21
102
{ACAD_XDICTIONARY
360
5DB
102
}
330
2
100
AcDbSymbolTableRecord
100
AcDbLayerTableRecord
  2
BZA45776
 70
     0
 62
     7
  6
CONTINUOUS
370
    -3
390
4A4
  0
LAYER
  5
76
102
{ACAD_XDICTIONARY
360
5DD
102
}
330
2
100
AcDbSymbolTableRecord
100
AcDbLayerTableRecord
  2
29
 70
     0
 62
     7
  6
CONTINUOUS
370
    -3
390
4A4
  0
LAYER
  5
78
102
{ACAD_XDICTIONARY
360
5DF
102
}
330
2
100
AcDbSymbolTableRecord
100
AcDbLayerTableRecord
  2
31
 70
     0
 62
     7
  6
CONTINUOUS
370
    -3
390
4A4
  0
LAYER
  5
141
102
{ACAD_XDICTIONARY
360
5E1
102
}
330
2
100
AcDbSymbolTableRecord
100
AcDbLayerTableRecord
  2
RAHMEN
 70
     0
 62
     7
  6
CONTINUOUS
370
    -3
390
4A4
  0
LAYER
  5
1BD
102
{ACAD_XDICTIONARY
360
5E3
102
}
330
2
100
AcDbSymbolTableRecord
100
AcDbLayerTableRecord
  2
2KOPF
 70
     0
 62
     7
  6
CONTINUOUS
370
    -3
390
4A4
  0
LAYER
  5
245
102
{ACAD_XDICTIONARY
360
5E5
102
}
330
2
100
AcDbSymbolTableRecord
100
AcDbLayerTableRecord
  2
PH_HILFSELEMENTE
 70
     0
 62
    -7
  6
CONTINUOUS
370
    -3
390
4A4
  0
LAYER
  5
2E4
330
2
100
AcDbSymbolTableRecord
100
AcDbLayerTableRecord
  2
DEFPOINTS
 70
     0
 62
     7
  6
CONTINUOUS
290
     0
370
    -3
390
4A4
  0
ENDTAB
  0
TABLE
  2
STYLE
  5
3
330
0
100
AcDbSymbolTable
 70
     1
  0
STYLE
  5
F
330
3
100
AcDbSymbolTableRecord
100
AcDbTextStyleTableRecord
  2
STANDARD
 70
     0
 40
0.0
 41
1.0
 50
0.0
 71
     0
 42
2.5
  3
isocp.shx
  4

  0
ENDTAB
  0
TABLE
  2
VIEW
  5
6
330
0
100
AcDbSymbolTable
 70
     0
  0
ENDTAB
  0
TABLE
  2
UCS
  5
7
330
0
100
AcDbSymbolTable
 70
     0
  0
ENDTAB
  0
TABLE
  2
APPID
  5
9
330
0
100
AcDbSymbolTable
 70
     6
  0
APPID
  5
10
330
9
100
AcDbSymbolTableRecord
100
AcDbRegAppTableRecord
  2
ACAD
 70
     0
  0
APPID
  5
220
330
9
100
AcDbSymbolTableRecord
100
AcDbRegAppTableRecord
  2
PHOENIX7010
 70
     0
  0
APPID
  5
501
330
9
100
AcDbSymbolTableRecord
100
AcDbRegAppTableRecord
  2
ACAD_PSEXT
 70
     0
  0
APPID
  5
626
330
9
100
AcDbSymbolTableRecord
100
AcDbRegAppTableRecord
  2
ACAD_EXEMPT_FROM_CAD_STANDARDS
 70
     0
  0
APPID
  5
62C
330
9
100
AcDbSymbolTableRecord
100
AcDbRegAppTableRecord
  2
AdeskUnderlayLayerOverrideData
 70
     0
  0
APPID
  5
6E8
330
9
100
AcDbSymbolTableRecord
100
AcDbRegAppTableRecord
  2
ACAD_MLEADERVER
 70
     0
  0
ENDTAB
  0
TABLE
  2
DIMSTYLE
  5
A
330
0
100
AcDbSymbolTable
 70
     4
100
AcDbDimStyleTable
 71
     1
340
1D
  0
DIMSTYLE
105
1D
330
A
100
AcDbSymbolTableRecord
100
AcDbDimStyleTableRecord
  2
STANDARD
 70
     0
340
F
  0
DIMSTYLE
105
227
330
A
100
AcDbSymbolTableRecord
100
AcDbDimStyleTableRecord
  2
PHOENIX
 70
     0
  4
"
 41
3.72
 42
0.0
 43
7.0
 44
1.5
 73
     0
 74
     0
 77
     1
 78
     8
140
3.5
141
0.0
143
0.0393700787401575
146
0.6666666666666666
147
2.0
172
     1
173
     1
176
     1
177
     1
178
     5
271
     2
272
     2
284
     8
288
     1
289
     0
340
F
341
221
343
221
344
221
  0
DIMSTYLE
105
228
330
A
100
AcDbSymbolTableRecord
100
AcDbDimStyleTableRecord
  2
PHOENIX$4
 70
     0
  4
"
 41
3.72
 42
0.0
 43
7.0
 44
1.5
 73
     0
 74
     0
 77
     1
 78
     8
140
3.5
141
0.0
143
0.0393700787401575
146
0.6666666666666666
147
2.0
173
     1
176
     1
177
     1
178
     5
271
     2
272
     2
281
     1
284
     8
288
     1
289
     0
340
F
341
221
343
221
344
221
  0
DIMSTYLE
105
4EF
330
A
100
AcDbSymbolTableRecord
100
AcDbDimStyleTableRecord
  2
ISO-25
 70
     0
 41
2.5
 42
0.625
 43
3.75
 44
1.25
 73
     0
 74
     0
 77
     1
 78
     8
140
2.5
141
2.5
143
0.03937007874016
147
0.625
171
     3
172
     1
271
     2
272
     2
274
     3
278
    44
283
     0
284
     8
340
F
  0
ENDTAB
  0
TABLE
  2
BLOCK_RECORD
  5
1
330
0
100
AcDbSymbolTable
 70
     2
  0
BLOCK_RECORD
  5
18
330
1
100
AcDbSymbolTableRecord
100
AcDbBlockTableRecord
  2
*MODEL_SPACE
340
4EB
  0
BLOCK_RECORD
  5
15
330
1
100
AcDbSymbolTableRecord
100
AcDbBlockTableRecord
  2
*PAPER_SPACE
340
4EC
  0
BLOCK_RECORD
  5
221
330
1
100
AcDbSymbolTableRecord
100
AcDbBlockTableRecord
  2
_OPEN15
340
0
  0
BLOCK_RECORD
  5
246
330
1
100
AcDbSymbolTableRecord
100
AcDbBlockTableRecord
  2
PH_GRPBLK
340
0
102
{BLKREFS
331
4FD
331
50B
331
50E
331
546
331
76D
102
}
  0
ENDTAB
  0
ENDSEC
  0
SECTION
  2
BLOCKS
  0
BLOCK
  5
19
330
18
100
AcDbEntity
  8
0
100
AcDbBlockBegin
  2
*MODEL_SPACE
 70
     0
 10
0.0
 20
0.0
 30
0.0
  3
*MODEL_SPACE
  1

  0
ENDBLK
  5
1A
330
18
100
AcDbEntity
  8
0
100
AcDbBlockEnd
  0
BLOCK
  5
16
330
15
100
AcDbEntity
 67
     1
  8
0
100
AcDbBlockBegin
  2
*PAPER_SPACE
 70
     0
 10
0.0
 20
0.0
 30
0.0
  3
*PAPER_SPACE
  1

  0
ENDBLK
  5
17
330
15
100
AcDbEntity
 67
     1
  8
0
100
AcDbBlockEnd
  0
BLOCK
  5
225
330
221
100
AcDbEntity
  8
0
100
AcDbBlockBegin
  2
_OPEN15
 70
     0
 10
1.0
 20
0.0
 30
0.0
  3
_OPEN15
  1

  0
LINE
  5
222
330
221
100
AcDbEntity
  8
0
  6
ByBlock
 62
     0
100
AcDbLine
 10
0.0
 20
0.0
 30
0.0
 11
1.0
 21
0.0
 31
0.0
  0
LINE
  5
223
330
221
100
AcDbEntity
  8
0
  6
ByBlock
 62
     0
100
AcDbLine
 10
1.0
 20
0.0
 30
0.0
 11
0.0
 21
0.1316524975873958
 31
0.0
  0
LINE
  5
224
330
221
100
AcDbEntity
  8
0
  6
ByBlock
 62
     0
100
AcDbLine
 10
1.0
 20
0.0
 30
0.0
 11
0.0
 21
-0.1316524975873958
 31
0.0
  0
ENDBLK
  5
226
330
221
100
AcDbEntity
  8
0
100
AcDbBlockEnd
  0
BLOCK
  5
248
330
246
100
AcDbEntity
  8
0
 62
     7
100
AcDbBlockBegin
  2
PH_GRPBLK
 70
     0
 10
0.0
 20
0.0
 30
0.0
  3
PH_GRPBLK
  1

  0
POINT
  5
247
330
246
100
AcDbEntity
  8
DEFPOINTS
  6
Continuous
 62
     0
100
AcDbPoint
 10
0.0
 20
0.0
 30
0.0
  0
ENDBLK
  5
249
330
246
100
AcDbEntity
  8
0
 62
     7
100
AcDbBlockEnd
  0
ENDSEC
  0
SECTION
  2
ENTITIES
  0
LINE
  5
22
330
18
100
AcDbEntity
  8
BZA45776
  6
Continuous
 62
     1
100
AcDbLine
 10
72.23783630447815
 20
152.1695655011741
 30
0.0
 11
72.23783630447815
 21
131.6767066144554
 31
0.0
1001
PHOENIX7010
1002
{
1070
    41
1040
0.5
1002
}
  0
TEXT
  5
23
330
18
100
AcDbEntity
  8
BZA45776
 62
     5
100
AcDbText
 10
74.28263610916565
 20
134.7076819562522
 30
0.0
 40
3.5
  1
 2 
100
AcDbText
1001
PHOENIX7010
1002
{
1070
    41
1040
0.5
1002
}
  0
TEXT
  5
24
330
18
100
AcDbEntity
  8
BZA45776
 62
     5
100
AcDbText
 10
89.19254821854066
 20
134.7902930402366
 30
0.0
 40
3.5
  1
1.2
100
AcDbText
1001
PHOENIX7010
1002
{
1070
    41
1040
0.5
1002
}
  0
TEXT
  5
25
330
18
100
AcDbEntity
  8
BZA45776
 62
     5
100
AcDbText
 10
78.82772888260316
 20
124.6639807843772
 30
0.0
 40
3.5
  1
5.2 
 72
     1
 11
82.50272888260315
 21
124.6639807843772
 31
0.0
100
AcDbText
1001
PHOENIX7010
1002
{
1070
    41
1040
0.5
1002
}
  0
TEXT
  5
26
330
18
100
AcDbEntity
  8
BZA45776
 62
     5
100
AcDbText
 10
86.86845218314442
 20
162.4814246320335
 30
0.0
 40
3.5
  1
 9  
 72
     1
 11
90.1995672615094
 21
162.4814246320335
 31
0.0
100
AcDbText
1001
PHOENIX7010
1002
{
1070
    41
1040
0.5
1002
}
  0
TEXT
  5
27
330
18
100
AcDbEntity
  8
BZA45776
 62
     5
100
AcDbText
 10
94.87437194900939
 20
124.7455542707054
 30
0.0
 40
3.5
  1
2.2
100
AcDbText
1001
PHOENIX7010
1002
{
1070
    41
1040
0.5
1002
}
  0
TEXT
  5
28
330
18
100
AcDbEntity
  8
BZA45776
 62
     5
100
AcDbText
 10
93.61586364822816
 20
114.7381995343772
 30
0.0
 40
3.5
  1
12.8
 72
     1
 11
97.46586364822816
 21
114.7381995343772
 31
0.0
100
AcDbText
1001
PHOENIX7010
1002
{
1070
    41
1040
0.5
1002
}
  0
LINE
  5
29
330
18
100
AcDbEntity
  8
BZA45776
 62
     1
100
AcDbLine
 10
123.2377142341656
 20
169.5559485578147
 30
0.0
 11
123.2377142341656
 21
147.6228736066429
 31
0.0
1001
PHOENIX7010
1002
{
1070
    41
1040
0.5
1002
}
  0
TEXT
  5
2A
330
18
100
AcDbEntity
  8
BZA45776
 62
     5
100
AcDbText
 10
129.9128240974469
 20
134.7430823468772
 30
0.0
 40
3.5
  1
M 4
100
AcDbText
1001
PHOENIX7010
1002
{
1070
    41
1040
0.5
1002
}
  0
TEXT
  5
2B
330
18
100
AcDbEntity
  8
BZA45776
 62
     5
100
AcDbText
 10
169.3037542732281
 20
134.7848303937522
 30
0.0
 40
3.5
  1
2  
100
AcDbText
1001
PHOENIX7010
1002
{
1070
    41
1040
0.5
1002
}
  0
LINE
  5
2C
330
18
100
AcDbEntity
  8
BZA45776
 62
     1
100
AcDbLine
 10
115.5649847419781
 20
164.4766333722678
 30
0.0
 11
136.5474066169781
 21
164.4766333722678
 31
0.0
1001
PHOENIX7010
1002
{
1070
    41
1040
0.5
1002
}
  0
LINE
  5
2E
330
18
100
AcDbEntity
  8
BZA45776
  6
Continuous
 62
     1
100
AcDbLine
 10
62.23783630447815
 20
170.4780371808616
 30
0.0
 11
62.23783630447815
 21
156.2766211652366
 31
0.0
1001
PHOENIX7010
1002
{
1070
    41
1040
0.5
1002
}
  0
LINE
  5
2F
330
18
100
AcDbEntity
  8
BZA45776
  6
Continuous
 62
     1
100
AcDbLine
 10
79.76774353104065
 20
170.4780371808616
 30
0.0
 11
60.23783630447815
 21
170.4780371808616
 31
0.0
1001
PHOENIX7010
1002
{
1070
    41
1040
0.5
1002
}
  0
LINE
  5
30
330
18
100
AcDbEntity
  8
BZA45776
  6
Continuous
 62
     1
100
AcDbLine
 10
73.43790954666565
 20
156.2766211652366
 30
0.0
 11
60.23783630447815
 21
156.2766211652366
 31
0.0
1001
PHOENIX7010
1002
{
1070
    41
1040
0.5
1002
}
  0
LINE
  5
31
330
18
100
AcDbEntity
  8
BZA45776
  6
Continuous
 62
     1
100
AcDbLine
 10
62.23783630447815
 20
170.4780371808616
 30
0.0
 11
61.7809881599469
 21
167.0079749250022
 31
0.0
1001
PHOENIX7010
1002
{
1070
    41
1040
0.5
1002
}
  0
LINE
  5
32
330
18
100
AcDbEntity
  8
BZA45776
  6
Continuous
 62
     1
100
AcDbLine
 10
62.23783630447815
 20
170.4780371808616
 30
0.0
 11
62.6946844490094
 21
167.0079749250022
 31
0.0
1001
PHOENIX7010
1002
{
1070
    41
1040
0.5
1002
}
  0
LINE
  5
33
330
18
100
AcDbEntity
  8
BZA45776
  6
Continuous
 62
     1
100
AcDbLine
 10
62.23783630447815
 20
156.2766211652366
 30
0.0
 11
61.7809881599469
 21
159.746683421096
 31
0.0
1001
PHOENIX7010
1002
{
1070
    41
1040
0.5
1002
}
  0
LINE
  5
34
330
18
100
AcDbEntity
  8
BZA45776
  6
Continuous
 62
     1
100
AcDbLine
 10
62.23783630447815
 20
156.2766211652366
 30
0.0
 11
62.6946844490094
 21
159.746683421096
 31
0.0
1001
PHOENIX7010
1002
{
1070
    41
1040
0.5
1002
}
  0
TEXT
  5
35
330
18
100
AcDbEntity
  8
BZA45776
 62
     5
100
AcDbText
 10
61.23783630447815
 20
159.0022681378929
 30
0.0
 40
3.5
  1
 3.6 
 50
90.0
 72
     1
 11
61.23783630447815
 21
163.3772681378929
 31
0.0
100
AcDbText
1001
PHOENIX7010
1002
{
1070
    41
1040
0.5
1002
}
  0
LINE
  5
37
330
18
100
AcDbEntity
  8
BZA45776
  6
Continuous
 62
     1
100
AcDbLine
 10
52.23783630447815
 20
173.8766577863304
 30
0.0
 11
52.23783630447815
 21
152.8766577863304
 31
0.0
1001
PHOENIX7010
1002
{
1070
    41
1040
0.5
1002
}
  0
LINE
  5
38
330
18
100
AcDbEntity
  8
BZA45776
  6
Continuous
 62
     1
100
AcDbLine
 10
80.23771423416565
 20
173.8766577863304
 30
0.0
 11
50.23783630447815
 21
173.8766577863304
 31
0.0
1001
PHOENIX7010
1002
{
1070
    41
1040
0.5
1002
}
  0
LINE
  5
39
330
18
100
AcDbEntity
  8
BZA45776
  6
Continuous
 62
     1
100
AcDbLine
 10
80.23783630447814
 20
152.8766577863304
 30
0.0
 11
50.23783630447815
 21
152.8766577863304
 31
0.0
1001
PHOENIX7010
1002
{
1070
    41
1040
0.5
1002
}
  0
LINE
  5
3A
330
18
100
AcDbEntity
  8
BZA45776
  6
Continuous
 62
     1
100
AcDbLine
 10
52.23783630447815
 20
173.8766577863304
 30
0.0
 11
51.7809881599469
 21
170.406595530471
 31
0.0
1001
PHOENIX7010
1002
{
1070
    41
1040
0.5
1002
}
  0
LINE
  5
3B
330
18
100
AcDbEntity
  8
BZA45776
  6
Continuous
 62
     1
100
AcDbLine
 10
52.23783630447815
 20
173.8766577863304
 30
0.0
 11
52.6946844490094
 21
170.406595530471
 31
0.0
1001
PHOENIX7010
1002
{
1070
    41
1040
0.5
1002
}
  0
LINE
  5
3C
330
18
100
AcDbEntity
  8
BZA45776
  6
Continuous
 62
     1
100
AcDbLine
 10
52.23783630447815
 20
152.8766577863304
 30
0.0
 11
51.7809881599469
 21
156.3467200421897
 31
0.0
1001
PHOENIX7010
1002
{
1070
    41
1040
0.5
1002
}
  0
LINE
  5
3D
330
18
100
AcDbEntity
  8
BZA45776
  6
Continuous
 62
     1
100
AcDbLine
 10
52.23783630447815
 20
152.8766577863304
 30
0.0
 11
52.6946844490094
 21
156.3467200421897
 31
0.0
1001
PHOENIX7010
1002
{
1070
    41
1040
0.5
1002
}
  0
TEXT
  5
3E
330
18
100
AcDbEntity
  8
BZA45776
 62
     5
100
AcDbText
 10
51.23783630447815
 20
159.001566233596
 30
0.0
 40
3.5
  1
 5.3 
 50
90.0
 72
     1
 11
51.23783630447815
 21
163.376566233596
 31
0.0
100
AcDbText
1001
PHOENIX7010
1002
{
1070
    41
1040
0.5
1002
}
  0
LINE
  5
40
330
18
100
AcDbEntity
  8
BZA45776
  6
Continuous
 62
     1
100
AcDbLine
 10
52.23783630447815
 20
183.6766455792991
 30
0.0
 11
52.23783630447815
 21
173.8766577863304
 31
0.0
1001
PHOENIX7010
1002
{
1070
    41
1040
0.5
1002
}
  0
LINE
  5
41
330
18
100
AcDbEntity
  8
BZA45776
  6
Continuous
 62
     1
100
AcDbLine
 10
52.23783630447815
 20
183.6766455792991
 30
0.0
 11
51.7809881599469
 21
180.2065833234397
 31
0.0
1001
PHOENIX7010
1002
{
1070
    41
1040
0.5
1002
}
  0
LINE
  5
42
330
18
100
AcDbEntity
  8
BZA45776
  6
Continuous
 62
     1
100
AcDbLine
 10
52.23783630447815
 20
183.6766455792991
 30
0.0
 11
52.6946844490094
 21
180.2065833234397
 31
0.0
1001
PHOENIX7010
1002
{
1070
    41
1040
0.5
1002
}
  0
LINE
  5
43
330
18
100
AcDbEntity
  8
BZA45776
  6
Continuous
 62
     1
100
AcDbLine
 10
52.23783630447815
 20
173.8766577863304
 30
0.0
 11
51.7809881599469
 21
177.3467200421897
 31
0.0
1001
PHOENIX7010
1002
{
1070
    41
1040
0.5
1002
}
  0
LINE
  5
44
330
18
100
AcDbEntity
  8
BZA45776
  6
Continuous
 62
     1
100
AcDbLine
 10
52.23783630447815
 20
173.8766577863304
 30
0.0
 11
52.6946844490094
 21
177.3467200421897
 31
0.0
1001
PHOENIX7010
1002
{
1070
    41
1040
0.5
1002
}
  0
TEXT
  5
45
330
18
100
AcDbEntity
  8
BZA45776
 62
     5
100
AcDbText
 10
51.23783630447815
 20
174.4015601300804
 30
0.0
 40
3.5
  1
 2.5 
 50
90.0
 72
     1
 11
51.23783630447815
 21
178.7765601300804
 31
0.0
100
AcDbText
1001
PHOENIX7010
1002
{
1070
    41
1040
0.5
1002
}
  0
LINE
  5
46
330
18
100
AcDbEntity
  8
BZA45776
  6
Continuous
 62
     1
100
AcDbLine
 10
77.43790954666565
 20
183.6765998029319
 30
0.0
 11
50.23783630447815
 21
183.6766455792991
 31
0.0
1001
PHOENIX7010
1002
{
1070
    41
1040
0.5
1002
}
  0
LINE
  5
48
330
18
100
AcDbEntity
  8
BZA45776
  6
Continuous
 62
     1
100
AcDbLine
 10
42.23785156326721
 20
183.6766455792991
 30
0.0
 11
42.23785156326721
 21
143.6767066144554
 31
0.0
1001
PHOENIX7010
1002
{
1070
    41
1040
0.5
1002
}
  0
LINE
  5
49
330
18
100
AcDbEntity
  8
BZA45776
  6
Continuous
 62
     1
100
AcDbLine
 10
52.23785156326721
 20
183.6766455792991
 30
0.0
 11
40.23785156326721
 21
183.6766455792991
 31
0.0
1001
PHOENIX7010
1002
{
1070
    41
1040
0.5
1002
}
  0
LINE
  5
4A
330
18
100
AcDbEntity
  8
BZA45776
  6
Continuous
 62
     1
100
AcDbLine
 10
73.43778747635315
 20
143.6767066144554
 30
0.0
 11
40.23783630447815
 21
143.6767066144554
 31
0.0
1001
PHOENIX7010
1002
{
1070
    41
1040
0.5
1002
}
  0
LINE
  5
4B
330
18
100
AcDbEntity
  8
BZA45776
  6
Continuous
 62
     1
100
AcDbLine
 10
42.23785156326721
 20
183.6766455792991
 30
0.0
 11
41.78100341873596
 21
180.2065833234397
 31
0.0
1001
PHOENIX7010
1002
{
1070
    41
1040
0.5
1002
}
  0
LINE
  5
4C
330
18
100
AcDbEntity
  8
BZA45776
  6
Continuous
 62
     1
100
AcDbLine
 10
42.23785156326721
 20
183.6766455792991
 30
0.0
 11
42.69469970779846
 21
180.2065833234397
 31
0.0
1001
PHOENIX7010
1002
{
1070
    41
1040
0.5
1002
}
  0
LINE
  5
4D
330
18
100
AcDbEntity
  8
BZA45776
  6
Continuous
 62
     1
100
AcDbLine
 10
42.23785156326721
 20
143.6767066144554
 30
0.0
 11
41.78100341873596
 21
147.1467688703147
 31
0.0
1001
PHOENIX7010
1002
{
1070
    41
1040
0.5
1002
}
  0
LINE
  5
4E
330
18
100
AcDbEntity
  8
BZA45776
  6
Continuous
 62
     1
100
AcDbLine
 10
42.23785156326721
 20
143.6767066144554
 30
0.0
 11
42.69469970779846
 21
147.1467688703147
 31
0.0
1001
PHOENIX7010
1002
{
1070
    41
1040
0.5
1002
}
  0
TEXT
  5
4F
330
18
100
AcDbEntity
  8
BZA45776
 62
     5
100
AcDbText
 10
41.23785156326721
 20
160.1765845441429
 30
0.0
 40
3.5
  1
 10 
 50
90.0
 72
     1
 11
41.23785156326721
 21
163.6765845441429
 31
0.0
100
AcDbText
1001
PHOENIX7010
1002
{
1070
    41
1040
0.5
1002
}
  0
LINE
  5
51
330
18
100
AcDbEntity
  8
BZA45776
  6
Continuous
 62
     1
100
AcDbLine
 10
80.23783630447814
 20
152.8766577863304
 30
0.0
 11
80.23783630447814
 21
131.6767066144554
 31
0.0
1001
PHOENIX7010
1002
{
1070
    41
1040
0.5
1002
}
  0
LINE
  5
52
330
18
100
AcDbEntity
  8
BZA45776
  6
Continuous
 62
     1
100
AcDbLine
 10
85.03776306229065
 20
152.8766577863304
 30
0.0
 11
85.03776306229065
 21
131.6767066144554
 31
0.0
1001
PHOENIX7010
1002
{
1070
    41
1040
0.5
1002
}
  0
LINE
  5
53
330
18
100
AcDbEntity
  8
BZA45776
  6
Continuous
 62
     1
100
AcDbLine
 10
80.23783630447814
 20
133.6767066144554
 30
0.0
 11
76.76777404861877
 21
133.2198584699241
 31
0.0
1001
PHOENIX7010
1002
{
1070
    41
1040
0.5
1002
}
  0
LINE
  5
54
330
18
100
AcDbEntity
  8
BZA45776
  6
Continuous
 62
     1
100
AcDbLine
 10
80.23783630447814
 20
133.6767066144554
 30
0.0
 11
76.76777404861877
 21
134.1335547589866
 31
0.0
1001
PHOENIX7010
1002
{
1070
    41
1040
0.5
1002
}
  0
LINE
  5
55
330
18
100
AcDbEntity
  8
BZA45776
  6
Continuous
 62
     1
100
AcDbLine
 10
85.03776306229065
 20
133.6767066144554
 30
0.0
 11
88.50782531815003
 21
133.2198584699241
 31
0.0
1001
PHOENIX7010
1002
{
1070
    41
1040
0.5
1002
}
  0
LINE
  5
56
330
18
100
AcDbEntity
  8
BZA45776
  6
Continuous
 62
     1
100
AcDbLine
 10
85.03776306229065
 20
133.6767066144554
 30
0.0
 11
88.50782531815003
 21
134.1335547589866
 31
0.0
1001
PHOENIX7010
1002
{
1070
    41
1040
0.5
1002
}
  0
LINE
  5
57
330
18
100
AcDbEntity
  8
BZA45776
  6
Continuous
 62
     1
100
AcDbLine
 10
80.23783630447814
 20
133.6767066144554
 30
0.0
 11
95.18449157791565
 21
133.6767066144554
 31
0.0
1001
PHOENIX7010
1002
{
1070
    41
1040
0.5
1002
}
  0
LINE
  5
59
330
18
100
AcDbEntity
  8
BZA45776
  6
Continuous
 62
     1
100
AcDbLine
 10
72.23786682205627
 20
133.6767066144554
 30
0.0
 11
75.70792907791565
 21
133.2198584699241
 31
0.0
1001
PHOENIX7010
1002
{
1070
    41
1040
0.5
1002
}
  0
LINE
  5
5A
330
18
100
AcDbEntity
  8
BZA45776
  6
Continuous
 62
     1
100
AcDbLine
 10
72.23786682205627
 20
133.6767066144554
 30
0.0
 11
80.23786682205628
 21
133.6767066144554
 31
0.0
1001
PHOENIX7010
1002
{
1070
    41
1040
0.5
1002
}
  0
LINE
  5
5B
330
18
100
AcDbEntity
  8
BZA45776
  6
Continuous
 62
     1
100
AcDbLine
 10
72.23786682205627
 20
133.6767066144554
 30
0.0
 11
75.70792907791565
 21
134.1335547589866
 31
0.0
1001
PHOENIX7010
1002
{
1070
    41
1040
0.5
1002
}
  0
LINE
  5
5D
330
18
100
AcDbEntity
  8
BZA45776
  6
Continuous
 62
     1
100
AcDbLine
 10
72.2378973396344
 20
123.6767066144554
 30
0.0
 11
93.0379461677594
 21
123.6767066144554
 31
0.0
1001
PHOENIX7010
1002
{
1070
    41
1040
0.5
1002
}
  0
LINE
  5
5E
330
18
100
AcDbEntity
  8
BZA45776
  6
Continuous
 62
     1
100
AcDbLine
 10
72.2378973396344
 20
133.6767066144554
 30
0.0
 11
72.2378973396344
 21
121.6767066144553
 31
0.0
1001
PHOENIX7010
1002
{
1070
    41
1040
0.5
1002
}
  0
LINE
  5
5F
330
18
100
AcDbEntity
  8
BZA45776
  6
Continuous
 62
     1
100
AcDbLine
 10
72.2378973396344
 20
123.6767066144554
 30
0.0
 11
75.70792907791565
 21
123.2198584699241
 31
0.0
1001
PHOENIX7010
1002
{
1070
    41
1040
0.5
1002
}
  0
LINE
  5
60
330
18
100
AcDbEntity
  8
BZA45776
  6
Continuous
 62
     1
100
AcDbLine
 10
72.2378973396344
 20
123.6767066144554
 30
0.0
 11
75.70792907791565
 21
124.1335547589866
 31
0.0
1001
PHOENIX7010
1002
{
1070
    41
1040
0.5
1002
}
  0
LINE
  5
61
330
18
100
AcDbEntity
  8
BZA45776
  6
Continuous
 62
     1
100
AcDbLine
 10
93.0379461677594
 20
123.6767066144554
 30
0.0
 11
89.56791442947816
 21
123.2198584699241
 31
0.0
1001
PHOENIX7010
1002
{
1070
    41
1040
0.5
1002
}
  0
LINE
  5
62
330
18
100
AcDbEntity
  8
BZA45776
  6
Continuous
 62
     1
100
AcDbLine
 10
93.0379461677594
 20
123.6767066144554
 30
0.0
 11
89.56791442947816
 21
124.1335547589866
 31
0.0
1001
PHOENIX7010
1002
{
1070
    41
1040
0.5
1002
}
  0
LINE
  5
63
330
18
100
AcDbEntity
  8
BZA45776
  6
Continuous
 62
     1
100
AcDbLine
 10
93.0379461677594
 20
152.8766577863304
 30
0.0
 11
93.0379461677594
 21
139.9124243878929
 31
0.0
1001
PHOENIX7010
1002
{
1070
    41
1040
0.5
1002
}
  0
LINE
  5
64
330
18
100
AcDbEntity
  8
BZA45776
  6
Continuous
 62
     1
100
AcDbLine
 10
93.0379461677594
 20
131.7525733136741
 30
0.0
 11
93.0379461677594
 21
121.6767066144553
 31
0.0
1001
PHOENIX7010
1002
{
1070
    41
1040
0.5
1002
}
  0
LINE
  5
66
330
18
100
AcDbEntity
  8
BZA45776
  6
Continuous
 62
     1
100
AcDbLine
 10
72.2378973396344
 20
113.6767066144554
 30
0.0
 11
123.2377752693219
 21
113.6767066144554
 31
0.0
1001
PHOENIX7010
1002
{
1070
    41
1040
0.5
1002
}
  0
LINE
  5
67
330
18
100
AcDbEntity
  8
BZA45776
  6
Continuous
 62
     1
100
AcDbLine
 10
72.2378973396344
 20
123.6767066144554
 30
0.0
 11
72.2378973396344
 21
111.6767066144554
 31
0.0
1001
PHOENIX7010
1002
{
1070
    41
1040
0.5
1002
}
  0
LINE
  5
68
330
18
100
AcDbEntity
  8
BZA45776
  6
Continuous
 62
     1
100
AcDbLine
 10
72.2378973396344
 20
113.6767066144554
 30
0.0
 11
75.70792907791565
 21
113.2198584699241
 31
0.0
1001
PHOENIX7010
1002
{
1070
    41
1040
0.5
1002
}
  0
LINE
  5
69
330
18
100
AcDbEntity
  8
BZA45776
  6
Continuous
 62
     1
100
AcDbLine
 10
72.2378973396344
 20
113.6767066144554
 30
0.0
 11
75.70792907791565
 21
114.1335547589866
 31
0.0
1001
PHOENIX7010
1002
{
1070
    41
1040
0.5
1002
}
  0
LINE
  5
6A
330
18
100
AcDbEntity
  8
BZA45776
  6
Continuous
 62
     1
100
AcDbLine
 10
123.2377752693219
 20
113.6767066144554
 30
0.0
 11
119.7677435310406
 21
113.2198584699241
 31
0.0
1001
PHOENIX7010
1002
{
1070
    41
1040
0.5
1002
}
  0
LINE
  5
6B
330
18
100
AcDbEntity
  8
BZA45776
  6
Continuous
 62
     1
100
AcDbLine
 10
123.2377752693219
 20
113.6767066144554
 30
0.0
 11
119.7677435310406
 21
114.1335547589866
 31
0.0
1001
PHOENIX7010
1002
{
1070
    41
1040
0.5
1002
}
  0
LINE
  5
6C
330
18
100
AcDbEntity
  8
BZA45776
  6
Continuous
 62
     1
100
AcDbLine
 10
123.2377752693219
 20
147.6228430890647
 30
0.0
 11
123.2377752693219
 21
111.6767066144554
 31
0.0
1001
PHOENIX7010
1002
{
1070
    41
1040
0.5
1002
}
  0
LINE
  5
6E
330
18
100
AcDbEntity
  8
BZA45776
  6
Continuous
 62
     1
100
AcDbLine
 10
72.23783630447815
 20
161.4210913800804
 30
0.0
 11
108.2378363044781
 21
161.4210913800804
 31
0.0
1001
PHOENIX7010
1002
{
1070
    41
1040
0.5
1002
}
  0
LINE
  5
6F
330
18
100
AcDbEntity
  8
BZA45776
  6
Continuous
 62
     1
100
AcDbLine
 10
72.23783630447815
 20
161.4210913800804
 30
0.0
 11
75.70792907791565
 21
160.9642432355491
 31
0.0
1001
PHOENIX7010
1002
{
1070
    41
1040
0.5
1002
}
  0
LINE
  5
70
330
18
100
AcDbEntity
  8
BZA45776
  6
Continuous
 62
     1
100
AcDbLine
 10
72.23783630447815
 20
161.4210913800804
 30
0.0
 11
75.70792907791565
 21
161.8779395246116
 31
0.0
1001
PHOENIX7010
1002
{
1070
    41
1040
0.5
1002
}
  0
LINE
  5
71
330
18
100
AcDbEntity
  8
BZA45776
  6
Continuous
 62
     1
100
AcDbLine
 10
72.23783630447815
 20
154.5214942121116
 30
0.0
 11
72.23783630447815
 21
163.4210913800804
 31
0.0
1001
PHOENIX7010
1002
{
1070
    41
1040
0.5
1002
}
  0
LINE
  5
72
330
18
100
AcDbEntity
  8
BZA45776
  6
Continuous
 62
     1
100
AcDbLine
 10
108.2378363044781
 20
163.2766516828147
 30
0.0
 11
108.2378363044781
 21
159.4210913800804
 31
0.0
1001
PHOENIX7010
1002
{
1070
    41
1040
0.5
1002
}
  0
LINE
  5
73
330
18
100
AcDbEntity
  8
BZA45776
  6
Continuous
 62
     1
100
AcDbLine
 10
108.2378363044781
 20
161.4210913800804
 30
0.0
 11
104.7677740486187
 21
160.9642432355491
 31
0.0
1001
PHOENIX7010
1002
{
1070
    41
1040
0.5
1002
}
  0
LINE
  5
74
330
18
100
AcDbEntity
  8
BZA45776
  6
Continuous
 62
     1
100
AcDbLine
 10
108.2378363044781
 20
161.4210913800804
 30
0.0
 11
104.7677740486187
 21
161.8779395246116
 31
0.0
1001
PHOENIX7010
1002
{
1070
    41
1040
0.5
1002
}
  0
LINE
  5
77
330
18
100
AcDbEntity
  8
29
  6
Continuous
 62
     7
100
AcDbLine
 10
72.23783630447815
 20
144.8766577863304
 30
0.0
 11
72.23783630447815
 21
155.0766089582054
 31
0.0
1001
PHOENIX7010
1002
{
1070
    41
1040
0.5
1002
}
  0
ARC
  5
79
330
18
100
AcDbEntity
  8
31
  6
Continuous
 62
     7
100
AcDbCircle
 10
71.83781189041565
 20
172.745218577346
 30
0.0
 40
0.8000040054321289
100
AcDbArc
 50
0.0003563090864925
 51
45.00036393848138
1001
PHOENIX7010
1002
{
1070
    41
1040
0.5
1002
}
  0
ARC
  5
7A
330
18
100
AcDbEntity
  8
31
  6
Continuous
 62
     7
100
AcDbCircle
 10
76.30656189041565
 20
172.4765418195335
 30
0.0
 40
0.8000440001487731
100
AcDbArc
 50
45.00112152099625
 51
90.00114440917966
1001
PHOENIX7010
1002
{
1070
    41
1040
0.5
1002
}
  0
ARC
  5
7B
330
18
100
AcDbEntity
  8
31
  6
Continuous
 62
     7
100
AcDbCircle
 10
79.76774353104065
 20
171.2779639386741
 30
0.0
 40
0.799996018409729
100
AcDbArc
 50
224.9996643066407
 51
270.0
1001
PHOENIX7010
1002
{
1070
    41
1040
0.5
1002
}
  0
ARC
  5
7C
330
18
100
AcDbEntity
  8
31
  6
Continuous
 62
     7
100
AcDbCircle
 10
109.6376165779156
 20
144.4765875959007
 30
0.0
 40
0.8000000119209289
100
AcDbArc
 50
270.0
 51
0.0
1001
PHOENIX7010
1002
{
1070
    41
1040
0.5
1002
}
  0
ARC
  5
7D
330
18
100
AcDbEntity
  8
31
  6
Continuous
 62
     7
100
AcDbCircle
 10
105.0378851326031
 20
167.2766059064475
 30
0.0
 40
3.200000047683715
100
AcDbArc
 50
0.0
 51
90.00000762939446
1001
PHOENIX7010
1002
{
1070
    41
1040
0.5
1002
}
  0
ARC
  5
7E
330
18
100
AcDbEntity
  8
31
  6
Continuous
 62
     7
100
AcDbCircle
 10
105.0378851326031
 20
159.4765875959007
 30
0.0
 40
3.200000047683715
100
AcDbArc
 50
270.0
 51
0.0
1001
PHOENIX7010
1002
{
1070
    41
1040
0.5
1002
}
  0
ARC
  5
7F
330
18
100
AcDbEntity
  8
31
  6
Continuous
 62
     7
100
AcDbCircle
 10
102.4379095466656
 20
180.8766120099632
 30
0.0
 40
0.8000000119209289
100
AcDbArc
 50
270.0
 51
0.0
1001
PHOENIX7010
1002
{
1070
    41
1040
0.5
1002
}
  0
ARC
  5
80
330
18
100
AcDbEntity
  8
31
  6
Continuous
 62
     7
100
AcDbCircle
 10
100.0378851326031
 20
180.8766120099632
 30
0.0
 40
0.8000040054321289
100
AcDbArc
 50
194.4776153564455
 51
270.0
1001
PHOENIX7010
1002
{
1070
    41
1040
0.5
1002
}
  0
ARC
  5
81
330
18
100
AcDbEntity
  8
31
  6
Continuous
 62
     7
100
AcDbCircle
 10
98.48869079666565
 20
180.4765723371116
 30
0.0
 40
0.8000040054321289
100
AcDbArc
 50
14.47762393951412
 51
90.00000858306881
1001
PHOENIX7010
1002
{
1070
    41
1040
0.5
1002
}
  0
ARC
  5
82
330
18
100
AcDbEntity
  8
31
  6
Continuous
 62
     7
100
AcDbCircle
 10
87.18717712479065
 20
180.4765723371116
 30
0.0
 40
0.8000040054321289
100
AcDbArc
 50
90.00000762939446
 51
165.5223693847659
1001
PHOENIX7010
1002
{
1070
    41
1040
0.5
1002
}
  0
ARC
  5
83
330
18
100
AcDbEntity
  8
31
  6
Continuous
 62
     7
100
AcDbCircle
 10
85.63786071854066
 20
180.8765967511741
 30
0.0
 40
0.8000040054321289
100
AcDbArc
 50
270.0
 51
345.5223693847659
1001
PHOENIX7010
1002
{
1070
    41
1040
0.5
1002
}
  0
ARC
  5
84
330
18
100
AcDbEntity
  8
31
  6
Continuous
 62
     7
100
AcDbCircle
 10
83.23783630447815
 20
180.8765967511741
 30
0.0
 40
0.8000000119209289
100
AcDbArc
 50
180.0
 51
270.0
1001
PHOENIX7010
1002
{
1070
    41
1040
0.5
1002
}
  0
ARC
  5
85
330
18
100
AcDbEntity
  8
31
  6
Continuous
 62
     7
100
AcDbCircle
 10
77.43790954666565
 20
182.8765967511741
 30
0.0
 40
0.8000000119209289
100
AcDbArc
 50
90.00000762939446
 51
180.0
1001
PHOENIX7010
1002
{
1070
    41
1040
0.5
1002
}
  0
ARC
  5
86
330
18
100
AcDbEntity
  8
31
  6
Continuous
 62
     7
100
AcDbCircle
 10
75.83781189041565
 20
181.6765845441429
 30
0.0
 40
0.8000000119209289
100
AcDbArc
 50
270.0
 51
0.0
1001
PHOENIX7010
1002
{
1070
    41
1040
0.5
1002
}
  0
ARC
  5
87
330
18
100
AcDbEntity
  8
31
  6
Continuous
 62
     7
100
AcDbCircle
 10
75.43790954666565
 20
181.6765845441429
 30
0.0
 40
0.8000000119209289
100
AcDbArc
 50
180.0
 51
270.0
1001
PHOENIX7010
1002
{
1070
    41
1040
0.5
1002
}
  0
ARC
  5
88
330
18
100
AcDbEntity
  8
31
  6
Continuous
 62
     7
100
AcDbCircle
 10
73.83781189041565
 20
182.0766089582054
 30
0.0
 40
0.8000000119209289
100
AcDbArc
 50
0.0
 51
90.00000762939446
1001
PHOENIX7010
1002
{
1070
    41
1040
0.5
1002
}
  0
ARC
  5
89
330
18
100
AcDbEntity
  8
31
  6
Continuous
 62
     7
100
AcDbCircle
 10
73.43790954666565
 20
182.0766089582054
 30
0.0
 40
0.8000000119209289
100
AcDbArc
 50
90.00000762939446
 51
180.0
1001
PHOENIX7010
1002
{
1070
    41
1040
0.5
1002
}
  0
ARC
  5
8A
330
18
100
AcDbEntity
  8
31
  6
Continuous
 62
     7
100
AcDbCircle
 10
73.43790954666565
 20
172.0763953351585
 30
0.0
 40
0.8000000119209289
100
AcDbArc
 50
180.0
 51
270.0
1001
PHOENIX7010
1002
{
1070
    41
1040
0.5
1002
}
  0
ARC
  5
8B
330
18
100
AcDbEntity
  8
31
  6
Continuous
 62
     7
100
AcDbCircle
 10
73.83781189041565
 20
172.0764868878928
 30
0.0
 40
0.8001080155372619
100
AcDbArc
 50
269.9991149902343
 51
359.9991455078125
1001
PHOENIX7010
1002
{
1070
    41
1040
0.5
1002
}
  0
ARC
  5
8C
330
18
100
AcDbEntity
  8
31
  6
Continuous
 62
     7
100
AcDbCircle
 10
75.43790954666565
 20
172.4766333722679
 30
0.0
 40
0.7999759912490845
100
AcDbArc
 50
90.00117492675773
 51
180.0011291503909
1001
PHOENIX7010
1002
{
1070
    41
1040
0.5
1002
}
  0
LINE
  5
8D
330
18
100
AcDbEntity
  8
31
  6
Continuous
 62
     7
100
AcDbLine
 10
72.63786071854065
 20
181.4080298566429
 30
0.0
 11
72.63786071854065
 21
182.0766699933616
 31
0.0
1001
PHOENIX7010
1002
{
1070
    41
1040
0.5
1002
}
  0
LINE
  5
8E
330
18
100
AcDbEntity
  8
31
  6
Continuous
 62
     7
100
AcDbLine
 10
72.23783630447815
 20
173.4766333722679
 30
0.0
 11
72.23783630447815
 21
180.676615061721
 31
0.0
1001
PHOENIX7010
1002
{
1070
    41
1040
0.5
1002
}
  0
LINE
  5
8F
330
18
100
AcDbEntity
  8
31
  6
Continuous
 62
     7
100
AcDbLine
 10
72.40348571854065
 20
173.3109839582054
 30
0.0
 11
72.23771423416565
 21
173.4766944074241
 31
0.0
1001
PHOENIX7010
1002
{
1070
    41
1040
0.5
1002
}
  0
LINE
  5
90
330
18
100
AcDbEntity
  8
31
  6
Continuous
 62
     7
100
AcDbLine
 10
72.63786071854065
 20
172.0764563703147
 30
0.0
 11
72.63786071854065
 21
172.7452796125022
 31
0.0
1001
PHOENIX7010
1002
{
1070
    41
1040
0.5
1002
}
  0
LINE
  5
91
330
18
100
AcDbEntity
  8
31
  6
Continuous
 62
     7
100
AcDbLine
 10
116.3046087654156
 20
148.8766577863304
 30
0.0
 11
110.4377874763531
 21
148.8766577863304
 31
0.0
1001
PHOENIX7010
1002
{
1070
    41
1040
0.5
1002
}
  0
LINE
  5
92
330
18
100
AcDbEntity
  8
31
  6
Continuous
 62
     7
100
AcDbLine
 10
79.20206970291565
 20
170.7123511457053
 30
0.0
 11
76.87211364822815
 21
173.0423072003929
 31
0.0
1001
PHOENIX7010
1002
{
1070
    41
1040
0.5
1002
}
  0
LINE
  5
93
330
18
100
AcDbEntity
  8
31
  6
Continuous
 62
     7
100
AcDbLine
 10
110.4376654060406
 20
148.8766577863304
 30
0.0
 11
110.4376654060406
 21
144.4766333722679
 31
0.0
1001
PHOENIX7010
1002
{
1070
    41
1040
0.5
1002
}
  0
LINE
  5
94
330
18
100
AcDbEntity
  8
31
  6
Continuous
 62
     7
100
AcDbLine
 10
109.6376165779156
 20
143.6767066144554
 30
0.0
 11
73.43778747635315
 21
143.6767066144554
 31
0.0
1001
PHOENIX7010
1002
{
1070
    41
1040
0.5
1002
}
  0
LINE
  5
95
330
18
100
AcDbEntity
  8
31
  6
Continuous
 62
     7
100
AcDbLine
 10
105.0378851326031
 20
170.4766333722679
 30
0.0
 11
101.8378118904156
 21
170.4766333722679
 31
0.0
1001
PHOENIX7010
1002
{
1070
    41
1040
0.5
1002
}
  0
LINE
  5
96
330
18
100
AcDbEntity
  8
31
  6
Continuous
 62
     7
100
AcDbLine
 10
108.2378363044781
 20
159.4766333722679
 30
0.0
 11
108.2378363044781
 21
167.2766516828147
 31
0.0
1001
PHOENIX7010
1002
{
1070
    41
1040
0.5
1002
}
  0
LINE
  5
97
330
18
100
AcDbEntity
  8
31
  6
Continuous
 62
     7
100
AcDbLine
 10
101.8378118904156
 20
156.2766211652366
 30
0.0
 11
105.0377630622906
 21
156.2766211652366
 31
0.0
1001
PHOENIX7010
1002
{
1070
    41
1040
0.5
1002
}
  0
LINE
  5
98
330
18
100
AcDbEntity
  8
31
  6
Continuous
 62
     7
100
AcDbLine
 10
101.8378118904156
 20
152.8766577863304
 30
0.0
 11
101.8378118904156
 21
156.2766211652366
 31
0.0
1001
PHOENIX7010
1002
{
1070
    41
1040
0.5
1002
}
  0
LINE
  5
99
330
18
100
AcDbEntity
  8
31
  6
Continuous
 62
     7
100
AcDbLine
 10
93.03788513260315
 20
152.8766577863304
 30
0.0
 11
101.8378118904156
 21
152.8766577863304
 31
0.0
1001
PHOENIX7010
1002
{
1070
    41
1040
0.5
1002
}
  0
LINE
  5
9A
330
18
100
AcDbEntity
  8
31
  6
Continuous
 62
     7
100
AcDbLine
 10
93.03788513260315
 20
156.2766211652366
 30
0.0
 11
93.03788513260315
 21
152.8766577863304
 31
0.0
1001
PHOENIX7010
1002
{
1070
    41
1040
0.5
1002
}
  0
LINE
  5
9B
330
18
100
AcDbEntity
  8
31
  6
Continuous
 62
     7
100
AcDbLine
 10
85.03776306229065
 20
156.2766211652366
 30
0.0
 11
93.03776306229066
 21
156.2766211652366
 31
0.0
1001
PHOENIX7010
1002
{
1070
    41
1040
0.5
1002
}
  0
LINE
  5
9C
330
18
100
AcDbEntity
  8
31
  6
Continuous
 62
     7
100
AcDbLine
 10
85.03776306229065
 20
152.8766577863304
 30
0.0
 11
85.03776306229065
 21
156.2766211652366
 31
0.0
1001
PHOENIX7010
1002
{
1070
    41
1040
0.5
1002
}
  0
LINE
  5
9D
330
18
100
AcDbEntity
  8
31
  6
Continuous
 62
     7
100
AcDbLine
 10
80.23783630447814
 20
152.8766577863304
 30
0.0
 11
85.03776306229065
 21
152.8766577863304
 31
0.0
1001
PHOENIX7010
1002
{
1070
    41
1040
0.5
1002
}
  0
LINE
  5
9E
330
18
100
AcDbEntity
  8
31
  6
Continuous
 62
     7
100
AcDbLine
 10
80.23783630447814
 20
156.2766211652366
 30
0.0
 11
80.23783630447814
 21
152.8766577863304
 31
0.0
1001
PHOENIX7010
1002
{
1070
    41
1040
0.5
1002
}
  0
LINE
  5
9F
330
18
100
AcDbEntity
  8
31
  6
Continuous
 62
     7
100
AcDbLine
 10
73.43790954666565
 20
156.2766211652366
 30
0.0
 11
80.23795837479065
 21
156.2766211652366
 31
0.0
1001
PHOENIX7010
1002
{
1070
    41
1040
0.5
1002
}
  0
LINE
  5
A0
330
18
100
AcDbEntity
  8
31
  6
Continuous
 62
     7
100
AcDbLine
 10
103.2378363044781
 20
183.6766455792991
 30
0.0
 11
107.4379095466656
 21
183.6766455792991
 31
0.0
1001
PHOENIX7010
1002
{
1070
    41
1040
0.5
1002
}
  0
LINE
  5
A1
330
18
100
AcDbEntity
  8
31
  6
Continuous
 62
     7
100
AcDbLine
 10
103.2378363044781
 20
180.8766577863304
 30
0.0
 11
103.2378363044781
 21
183.6766760968772
 31
0.0
1001
PHOENIX7010
1002
{
1070
    41
1040
0.5
1002
}
  0
LINE
  5
A2
330
18
100
AcDbEntity
  8
31
  6
Continuous
 62
     7
100
AcDbLine
 10
100.0378851326031
 20
180.0766699933616
 30
0.0
 11
102.4379095466656
 21
180.0766699933616
 31
0.0
1001
PHOENIX7010
1002
{
1070
    41
1040
0.5
1002
}
  0
LINE
  5
A3
330
18
100
AcDbEntity
  8
31
  6
Continuous
 62
     7
100
AcDbLine
 10
87.18717712479065
 20
181.2766516828147
 30
0.0
 11
98.48869079666565
 21
181.2766516828147
 31
0.0
1001
PHOENIX7010
1002
{
1070
    41
1040
0.5
1002
}
  0
LINE
  5
A4
330
18
100
AcDbEntity
  8
31
  6
Continuous
 62
     7
100
AcDbLine
 10
83.23783630447815
 20
180.0766699933616
 30
0.0
 11
85.63786071854066
 21
180.0766699933616
 31
0.0
1001
PHOENIX7010
1002
{
1070
    41
1040
0.5
1002
}
  0
LINE
  5
A5
330
18
100
AcDbEntity
  8
31
  6
Continuous
 62
     7
100
AcDbLine
 10
82.43790954666565
 20
183.6766455792991
 30
0.0
 11
82.43790954666565
 21
180.8766577863304
 31
0.0
1001
PHOENIX7010
1002
{
1070
    41
1040
0.5
1002
}
  0
LINE
  5
A6
330
18
100
AcDbEntity
  8
31
  6
Continuous
 62
     7
100
AcDbLine
 10
77.43790954666565
 20
183.6766455792991
 30
0.0
 11
82.43790954666565
 21
183.6766455792991
 31
0.0
1001
PHOENIX7010
1002
{
1070
    41
1040
0.5
1002
}
  0
LINE
  5
A7
330
18
100
AcDbEntity
  8
31
  6
Continuous
 62
     7
100
AcDbLine
 10
76.63786071854065
 20
181.6766455792991
 30
0.0
 11
76.63786071854065
 21
182.8766577863303
 31
0.0
1001
PHOENIX7010
1002
{
1070
    41
1040
0.5
1002
}
  0
LINE
  5
A8
330
18
100
AcDbEntity
  8
31
  6
Continuous
 62
     7
100
AcDbLine
 10
75.43790954666565
 20
180.8766577863304
 30
0.0
 11
75.83793396072815
 21
180.8766577863304
 31
0.0
1001
PHOENIX7010
1002
{
1070
    41
1040
0.5
1002
}
  0
LINE
  5
A9
330
18
100
AcDbEntity
  8
31
  6
Continuous
 62
     7
100
AcDbLine
 10
74.63786071854065
 20
182.0766699933616
 30
0.0
 11
74.63786071854065
 21
181.6766760968772
 31
0.0
1001
PHOENIX7010
1002
{
1070
    41
1040
0.5
1002
}
  0
LINE
  5
AA
330
18
100
AcDbEntity
  8
31
  6
Continuous
 62
     7
100
AcDbLine
 10
73.43790954666565
 20
182.8766577863303
 30
0.0
 11
73.83793396072815
 21
182.8766577863303
 31
0.0
1001
PHOENIX7010
1002
{
1070
    41
1040
0.5
1002
}
  0
LINE
  5
AB
330
18
100
AcDbEntity
  8
31
  6
Continuous
 62
     7
100
AcDbLine
 10
73.83781189041565
 20
171.2764380597679
 30
0.0
 11
73.43790954666565
 21
171.2764380597679
 31
0.0
1001
PHOENIX7010
1002
{
1070
    41
1040
0.5
1002
}
  0
LINE
  5
AC
330
18
100
AcDbEntity
  8
31
  6
Continuous
 62
     7
100
AcDbLine
 10
74.63786071854065
 20
172.476663889846
 30
0.0
 11
74.63786071854065
 21
172.0765479230491
 31
0.0
1001
PHOENIX7010
1002
{
1070
    41
1040
0.5
1002
}
  0
LINE
  5
AD
330
18
100
AcDbEntity
  8
31
  6
Continuous
 62
     7
100
AcDbLine
 10
76.30643982010315
 20
173.2766516828147
 30
0.0
 11
75.43790954666565
 21
173.2766516828147
 31
0.0
1001
PHOENIX7010
1002
{
1070
    41
1040
0.5
1002
}
  0
LINE
  5
AE
330
18
100
AcDbEntity
  8
31
  6
Continuous
 62
     7
100
AcDbLine
 10
80.23783630447814
 20
170.4780371808616
 30
0.0
 11
79.76774353104065
 21
170.4780371808616
 31
0.0
1001
PHOENIX7010
1002
{
1070
    41
1040
0.5
1002
}
  0
LINE
  5
AF
330
18
100
AcDbEntity
  8
31
  6
Continuous
 62
     7
100
AcDbLine
 10
80.23783630447814
 20
173.8766577863304
 30
0.0
 11
80.23783630447814
 21
170.4780371808616
 31
0.0
1001
PHOENIX7010
1002
{
1070
    41
1040
0.5
1002
}
  0
LINE
  5
B0
330
18
100
AcDbEntity
  8
31
  6
Continuous
 62
     7
100
AcDbLine
 10
85.03776306229065
 20
173.8766577863304
 30
0.0
 11
80.23771423416565
 21
173.8766577863304
 31
0.0
1001
PHOENIX7010
1002
{
1070
    41
1040
0.5
1002
}
  0
LINE
  5
B1
330
18
100
AcDbEntity
  8
31
  6
Continuous
 62
     7
100
AcDbLine
 10
85.03776306229065
 20
170.4766333722679
 30
0.0
 11
85.03776306229065
 21
173.8766272687522
 31
0.0
1001
PHOENIX7010
1002
{
1070
    41
1040
0.5
1002
}
  0
LINE
  5
B2
330
18
100
AcDbEntity
  8
31
  6
Continuous
 62
     7
100
AcDbLine
 10
93.03788513260315
 20
170.4766333722679
 30
0.0
 11
85.03776306229065
 21
170.4766333722679
 31
0.0
1001
PHOENIX7010
1002
{
1070
    41
1040
0.5
1002
}
  0
LINE
  5
B3
330
18
100
AcDbEntity
  8
31
  6
Continuous
 62
     7
100
AcDbLine
 10
93.03788513260315
 20
173.8766577863304
 30
0.0
 11
93.03788513260315
 21
170.4766333722679
 31
0.0
1001
PHOENIX7010
1002
{
1070
    41
1040
0.5
1002
}
  0
LINE
  5
B4
330
18
100
AcDbEntity
  8
31
  6
Continuous
 62
     7
100
AcDbLine
 10
101.8378118904156
 20
173.8766577863304
 30
0.0
 11
93.03776306229066
 21
173.8766577863304
 31
0.0
1001
PHOENIX7010
1002
{
1070
    41
1040
0.5
1002
}
  0
LINE
  5
B5
330
18
100
AcDbEntity
  8
31
  6
Continuous
 62
     7
100
AcDbLine
 10
101.8378118904156
 20
170.4766333722679
 30
0.0
 11
101.8378118904156
 21
173.8766272687522
 31
0.0
1001
PHOENIX7010
1002
{
1070
    41
1040
0.5
1002
}
  0
ARC
  5
B6
330
18
100
AcDbEntity
  8
31
  6
Continuous
 62
     7
100
AcDbCircle
 10
71.88273376541565
 20
144.1003516339866
 30
0.0
 40
0.8000000119209289
100
AcDbArc
 50
13.59999656677271
 51
44.99968719482394
1001
PHOENIX7010
1002
{
1070
    41
1040
0.5
1002
}
  0
ARC
  5
B7
330
18
100
AcDbEntity
  8
31
  6
Continuous
 62
     7
100
AcDbCircle
 10
73.43790954666565
 20
144.4766333722679
 30
0.0
 40
0.8000199794769287
100
AcDbArc
 50
193.6013641357421
 51
270.0010681152343
1001
PHOENIX7010
1002
{
1070
    41
1040
0.5
1002
}
  0
LINE
  5
B8
330
18
100
AcDbEntity
  8
31
  6
Continuous
 62
     7
100
AcDbLine
 10
72.44840759354065
 20
144.6660864972679
 30
0.0
 11
72.23783630447815
 21
144.8766577863304
 31
0.0
1001
PHOENIX7010
1002
{
1070
    41
1040
0.5
1002
}
  0
ARC
  5
B9
330
18
100
AcDbEntity
  8
31
  6
Continuous
 62
     7
100
AcDbCircle
 10
108.2378363044781
 20
178.0766242169944
 30
0.0
 40
0.8000000119209289
100
AcDbArc
 50
180.0
 51
270.0
1001
PHOENIX7010
1002
{
1070
    41
1040
0.5
1002
}
  0
LINE
  5
BA
330
18
100
AcDbEntity
  8
31
  6
Continuous
 62
     7
100
AcDbLine
 10
108.2378363044781
 20
177.2766516828147
 30
0.0
 11
113.0378851326031
 21
177.2766516828147
 31
0.0
1001
PHOENIX7010
1002
{
1070
    41
1040
0.5
1002
}
  0
LINE
  5
BB
330
18
100
AcDbEntity
  8
31
  6
Continuous
 62
     7
100
AcDbLine
 10
107.4379095466656
 20
183.6766455792991
 30
0.0
 11
107.4379095466656
 21
178.0766699933616
 31
0.0
1001
PHOENIX7010
1002
{
1070
    41
1040
0.5
1002
}
  0
ARC
  5
BC
330
18
100
AcDbEntity
  8
31
  6
Continuous
 62
     7
100
AcDbCircle
 10
73.43790954666565
 20
155.4765723371116
 30
0.0
 40
0.8000199794769287
100
AcDbArc
 50
89.99892425537103
 51
166.3986206054684
1001
PHOENIX7010
1002
{
1070
    41
1040
0.5
1002
}
  0
ARC
  5
BD
330
18
100
AcDbEntity
  8
31
  6
Continuous
 62
     7
100
AcDbCircle
 10
71.88273376541565
 20
155.8527930402366
 30
0.0
 40
0.8000000119209289
100
AcDbArc
 50
315.0003051757815
 51
346.3999938964847
1001
PHOENIX7010
1002
{
1070
    41
1040
0.5
1002
}
  0
ARC
  5
BE
330
18
100
AcDbEntity
  8
31
  6
Continuous
 62
     7
100
AcDbCircle
 10
71.83781189041565
 20
181.4079688214866
 30
0.0
 40
0.8000040054321289
100
AcDbArc
 50
314.9996337890623
 51
359.9996337890621
1001
PHOENIX7010
1002
{
1070
    41
1040
0.5
1002
}
  0
LINE
  5
BF
330
18
100
AcDbEntity
  8
31
  6
Continuous
 62
     7
100
AcDbLine
 10
72.23783630447815
 20
155.0766089582054
 30
0.0
 11
72.44840759354065
 21
155.2871802472679
 31
0.0
1001
PHOENIX7010
1002
{
1070
    41
1040
0.5
1002
}
  0
LINE
  5
C0
330
18
100
AcDbEntity
  8
31
  6
Continuous
 62
     7
100
AcDbLine
 10
72.23783630447815
 20
180.6766455792991
 30
0.0
 11
72.40348571854065
 21
180.8423560285179
 31
0.0
1001
PHOENIX7010
1002
{
1070
    41
1040
0.5
1002
}
  0
ARC
  5
C1
330
18
100
AcDbEntity
  8
31
  6
Continuous
 62
     7
100
AcDbCircle
 10
113.0378851326031
 20
178.0766242169944
 30
0.0
 40
0.8000000119209289
100
AcDbArc
 50
270.0
 51
0.0
1001
PHOENIX7010
1002
{
1070
    41
1040
0.5
1002
}
  0
LINE
  5
C2
330
18
100
AcDbEntity
  8
31
  6
Continuous
 62
     7
100
AcDbLine
 10
113.8378118904156
 20
183.6766455792991
 30
0.0
 11
129.4377874763531
 21
183.6766455792991
 31
0.0
1001
PHOENIX7010
1002
{
1070
    41
1040
0.5
1002
}
  0
LINE
  5
C3
330
18
100
AcDbEntity
  8
31
  6
Continuous
 62
     7
100
AcDbLine
 10
113.8378118904156
 20
178.0766699933616
 30
0.0
 11
113.8378118904156
 21
183.6766760968772
 31
0.0
1001
PHOENIX7010
1002
{
1070
    41
1040
0.5
1002
}
  0
ARC
  5
C4
330
18
100
AcDbEntity
  8
31
  6
Continuous
 62
     7
100
AcDbCircle
 10
120.9376654060406
 20
172.4765875959007
 30
0.0
 40
2.000020027160644
100
AcDbArc
 50
90.00000762939446
 51
142.7030334472656
1001
PHOENIX7010
1002
{
1070
    41
1040
0.5
1002
}
  0
ARC
  5
C5
330
18
100
AcDbEntity
  8
31
  6
Continuous
 62
     7
100
AcDbCircle
 10
125.5377630622906
 20
172.4765875959007
 30
0.0
 40
2.000008106231689
100
AcDbArc
 50
37.30351638793938
 51
90.00000762939446
1001
PHOENIX7010
1002
{
1070
    41
1040
0.5
1002
}
  0
ARC
  5
C6
330
18
100
AcDbEntity
  8
31
  6
Continuous
 62
     7
100
AcDbCircle
 10
116.3046087654156
 20
149.6766608380882
 30
0.0
 40
0.8000159859657287
100
AcDbArc
 50
269.999267578125
 51
329.999298095703
1001
PHOENIX7010
1002
{
1070
    41
1040
0.5
1002
}
  0
ARC
  5
C7
330
18
100
AcDbEntity
  8
31
  6
Continuous
 62
     7
100
AcDbCircle
 10
137.4379095466656
 20
172.0766242169944
 30
0.0
 40
3.200000047683715
100
AcDbArc
 50
90.00000762939446
 51
180.0
1001
PHOENIX7010
1002
{
1070
    41
1040
0.5
1002
}
  0
ARC
  5
C8
330
18
100
AcDbEntity
  8
31
  6
Continuous
 62
     7
100
AcDbCircle
 10
166.2378363044781
 20
172.0766242169944
 30
0.0
 40
3.200000047683715
100
AcDbArc
 50
180.0
 51
270.0
1001
PHOENIX7010
1002
{
1070
    41
1040
0.5
1002
}
  0
ARC
  5
C9
330
18
100
AcDbEntity
  8
31
  6
Continuous
 62
     7
100
AcDbCircle
 10
173.4379095466656
 20
169.6765998029319
 30
0.0
 40
0.8000000119209289
100
AcDbArc
 50
270.0
 51
0.0
1001
PHOENIX7010
1002
{
1070
    41
1040
0.5
1002
}
  0
ARC
  5
CA
330
18
100
AcDbEntity
  8
31
  6
Continuous
 62
     7
100
AcDbCircle
 10
173.4379095466656
 20
171.2766059064476
 30
0.0
 40
0.8000000119209289
100
AcDbArc
 50
0.0
 51
90.00000762939446
1001
PHOENIX7010
1002
{
1070
    41
1040
0.5
1002
}
  0
ARC
  5
CB
330
18
100
AcDbEntity
  8
31
  6
Continuous
 62
     7
100
AcDbCircle
 10
173.4379095466656
 20
178.8766120099632
 30
0.0
 40
0.8000000119209289
100
AcDbArc
 50
270.0
 51
0.0
1001
PHOENIX7010
1002
{
1070
    41
1040
0.5
1002
}
  0
ARC
  5
CC
330
18
100
AcDbEntity
  8
31
  6
Continuous
 62
     7
100
AcDbCircle
 10
173.4379095466656
 20
180.4765875959007
 30
0.0
 40
0.8000000119209289
100
AcDbArc
 50
0.0
 51
90.00000762939446
1001
PHOENIX7010
1002
{
1070
    41
1040
0.5
1002
}
  0
ARC
  5
CD
330
18
100
AcDbEntity
  8
31
  6
Continuous
 62
     7
100
AcDbCircle
 10
123.2377142341656
 20
164.4765875959007
 30
0.0
 40
5.0
100
AcDbArc
 50
317.7313537597655
 51
42.26863098144585
1001
PHOENIX7010
1002
{
1070
    41
1040
0.5
1002
}
  0
ARC
  5
CE
330
18
100
AcDbEntity
  8
31
  6
Continuous
 62
     7
100
AcDbCircle
 10
130.8636907966656
 20
148.4765875959007
 30
0.0
 40
0.7999839782714844
100
AcDbArc
 50
209.9992675781248
 51
269.999267578125
1001
PHOENIX7010
1002
{
1070
    41
1040
0.5
1002
}
  0
ARC
  5
CF
330
18
100
AcDbEntity
  8
31
  6
Continuous
 62
     7
100
AcDbCircle
 10
133.4379095466656
 20
148.4765875959007
 30
0.0
 40
0.8000000119209289
100
AcDbArc
 50
270.0
 51
0.0
1001
PHOENIX7010
1002
{
1070
    41
1040
0.5
1002
}
  0
LINE
  5
D0
330
18
100
AcDbEntity
  8
31
  6
Continuous
 62
     7
100
AcDbLine
 10
163.0378851326031
 20
172.0766699933616
 30
0.0
 11
163.0378851326031
 21
175.2766822003929
 31
0.0
1001
PHOENIX7010
1002
{
1070
    41
1040
0.5
1002
}
  0
LINE
  5
D1
330
18
100
AcDbEntity
  8
31
  6
Continuous
 62
     7
100
AcDbLine
 10
173.4379095466656
 20
168.8766577863304
 30
0.0
 11
166.2379583747906
 21
168.8766577863304
 31
0.0
1001
PHOENIX7010
1002
{
1070
    41
1040
0.5
1002
}
  0
LINE
  5
D2
330
18
100
AcDbEntity
  8
31
  6
Continuous
 62
     7
100
AcDbLine
 10
174.2378363044781
 20
171.2766516828147
 30
0.0
 11
174.2378363044781
 21
169.6766455792991
 31
0.0
1001
PHOENIX7010
1002
{
1070
    41
1040
0.5
1002
}
  0
LINE
  5
D3
330
18
100
AcDbEntity
  8
31
  6
Continuous
 62
     7
100
AcDbLine
 10
166.2378363044781
 20
172.0766699933616
 30
0.0
 11
173.4379095466656
 21
172.0766699933616
 31
0.0
1001
PHOENIX7010
1002
{
1070
    41
1040
0.5
1002
}
  0
LINE
  5
D4
330
18
100
AcDbEntity
  8
31
  6
Continuous
 62
     7
100
AcDbLine
 10
166.2378363044781
 20
178.0766699933616
 30
0.0
 11
166.2378363044781
 21
172.0766699933616
 31
0.0
1001
PHOENIX7010
1002
{
1070
    41
1040
0.5
1002
}
  0
LINE
  5
D5
330
18
100
AcDbEntity
  8
31
  6
Continuous
 62
     7
100
AcDbLine
 10
173.4379095466656
 20
178.0766699933616
 30
0.0
 11
166.2379583747906
 21
178.0766699933616
 31
0.0
1001
PHOENIX7010
1002
{
1070
    41
1040
0.5
1002
}
  0
LINE
  5
D6
330
18
100
AcDbEntity
  8
31
  6
Continuous
 62
     7
100
AcDbLine
 10
174.2378363044781
 20
180.4766333722679
 30
0.0
 11
174.2378363044781
 21
178.8765967511741
 31
0.0
1001
PHOENIX7010
1002
{
1070
    41
1040
0.5
1002
}
  0
LINE
  5
D7
330
18
100
AcDbEntity
  8
31
  6
Continuous
 62
     7
100
AcDbLine
 10
163.0378851326031
 20
175.2766516828147
 30
0.0
 11
137.4379095466656
 21
175.2766516828147
 31
0.0
1001
PHOENIX7010
1002
{
1070
    41
1040
0.5
1002
}
  0
LINE
  5
D8
330
18
100
AcDbEntity
  8
31
  6
Continuous
 62
     7
100
AcDbLine
 10
119.5377630622906
 20
155.1864112042991
 30
0.0
 11
119.5377630622906
 21
153.6765235089866
 31
0.0
1001
PHOENIX7010
1002
{
1070
    41
1040
0.5
1002
}
  0
LINE
  5
D9
330
18
100
AcDbEntity
  8
31
  6
Continuous
 62
     7
100
AcDbLine
 10
119.5377630622906
 20
159.2547095441429
 30
0.0
 11
119.5377630622906
 21
161.1136572980491
 31
0.0
1001
PHOENIX7010
1002
{
1070
    41
1040
0.5
1002
}
  0
LINE
  5
DA
330
18
100
AcDbEntity
  8
31
  6
Continuous
 62
     7
100
AcDbLine
 10
119.5377630622906
 20
155.1864112042991
 30
0.0
 11
119.5377630622906
 21
159.2547095441429
 31
0.0
1001
PHOENIX7010
1002
{
1070
    41
1040
0.5
1002
}
  0
LINE
  5
DB
330
18
100
AcDbEntity
  8
31
  6
Continuous
 62
     7
100
AcDbLine
 10
119.5377630622906
 20
169.6986182355491
 30
0.0
 11
119.5377630622906
 21
171.0484107160179
 31
0.0
1001
PHOENIX7010
1002
{
1070
    41
1040
0.5
1002
}
  0
LINE
  5
DC
330
18
100
AcDbEntity
  8
31
  6
Continuous
 62
     7
100
AcDbLine
 10
119.5377630622906
 20
167.8396704816428
 30
0.0
 11
119.5377630622906
 21
169.6985572003929
 31
0.0
1001
PHOENIX7010
1002
{
1070
    41
1040
0.5
1002
}
  0
LINE
  5
DD
330
18
100
AcDbEntity
  8
31
  6
Continuous
 62
     7
100
AcDbLine
 10
125.5377630622906
 20
174.4766333722679
 30
0.0
 11
120.9377874763531
 21
174.4766333722679
 31
0.0
1001
PHOENIX7010
1002
{
1070
    41
1040
0.5
1002
}
  0
LINE
  5
DE
330
18
100
AcDbEntity
  8
31
  6
Continuous
 62
     7
100
AcDbLine
 10
126.9376654060406
 20
171.0483496808616
 30
0.0
 11
126.9376654060406
 21
169.6988013410179
 31
0.0
1001
PHOENIX7010
1002
{
1070
    41
1040
0.5
1002
}
  0
LINE
  5
DF
330
18
100
AcDbEntity
  8
31
  6
Continuous
 62
     7
100
AcDbLine
 10
126.9376654060406
 20
169.698831858596
 30
0.0
 11
126.9376654060406
 21
167.8396704816428
 31
0.0
1001
PHOENIX7010
1002
{
1070
    41
1040
0.5
1002
}
  0
LINE
  5
E0
330
18
100
AcDbEntity
  8
31
  6
Continuous
 62
     7
100
AcDbLine
 10
126.9376654060406
 20
159.2544654035179
 30
0.0
 11
126.9376654060406
 21
155.1862891339866
 31
0.0
1001
PHOENIX7010
1002
{
1070
    41
1040
0.5
1002
}
  0
LINE
  5
E1
330
18
100
AcDbEntity
  8
31
  6
Continuous
 62
     7
100
AcDbLine
 10
126.9376654060406
 20
161.1135962628928
 30
0.0
 11
126.9376654060406
 21
159.2544348859397
 31
0.0
1001
PHOENIX7010
1002
{
1070
    41
1040
0.5
1002
}
  0
LINE
  5
E2
330
18
100
AcDbEntity
  8
31
  6
Continuous
 62
     7
100
AcDbLine
 10
126.9376654060406
 20
153.6757910871116
 30
0.0
 11
126.9376654060406
 21
155.1862891339866
 31
0.0
1001
PHOENIX7010
1002
{
1070
    41
1040
0.5
1002
}
  0
LINE
  5
E3
330
18
100
AcDbEntity
  8
31
  6
Continuous
 62
     7
100
AcDbLine
 10
119.5377630622906
 20
153.6764624738303
 30
0.0
 11
116.9974798591656
 21
149.2766211652366
 31
0.0
1001
PHOENIX7010
1002
{
1070
    41
1040
0.5
1002
}
  0
LINE
  5
E4
330
18
100
AcDbEntity
  8
31
  6
Continuous
 62
     7
100
AcDbLine
 10
130.1708197029156
 20
148.0766699933616
 30
0.0
 11
126.9376654060406
 21
153.6757910871116
 31
0.0
1001
PHOENIX7010
1002
{
1070
    41
1040
0.5
1002
}
  0
LINE
  5
E5
330
18
100
AcDbEntity
  8
31
  6
Continuous
 62
     7
100
AcDbLine
 10
133.4379095466656
 20
147.6766455792991
 30
0.0
 11
130.8636907966656
 21
147.6766455792991
 31
0.0
1001
PHOENIX7010
1002
{
1070
    41
1040
0.5
1002
}
  0
LINE
  5
E6
330
18
100
AcDbEntity
  8
31
  6
Continuous
 62
     7
100
AcDbLine
 10
134.2378363044781
 20
172.0766699933616
 30
0.0
 11
134.2378363044781
 21
148.4766944074241
 31
0.0
1001
PHOENIX7010
1002
{
1070
    41
1040
0.5
1002
}
  0
LINE
  5
E7
330
18
100
AcDbEntity
  8
31
  6
Continuous
 62
     7
100
AcDbLine
 10
129.4379095466656
 20
181.2766516828147
 30
0.0
 11
173.4379095466656
 21
181.2766516828147
 31
0.0
1001
PHOENIX7010
1002
{
1070
    41
1040
0.5
1002
}
  0
LINE
  5
E8
330
18
100
AcDbEntity
  8
31
  6
Continuous
 62
     7
100
AcDbLine
 10
129.4379095466656
 20
183.6766455792991
 30
0.0
 11
129.4379095466656
 21
181.2766516828147
 31
0.0
1001
PHOENIX7010
1002
{
1070
    41
1040
0.5
1002
}
  0
ARC
  5
E9
330
18
100
AcDbEntity
  8
31
  6
Continuous
 62
     7
100
AcDbCircle
 10
123.2377142341656
 20
164.4765875959007
 30
0.0
 40
5.0
100
AcDbArc
 50
137.7314453125002
 51
222.2685241699221
1001
PHOENIX7010
1002
{
1070
    41
1040
0.5
1002
}
  0
LINE
  5
EB
330
18
100
AcDbEntity
  8
BZA45776
  6
Continuous
 62
     1
100
AcDbLine
 10
72.2378973396344
 20
103.6767066144554
 30
0.0
 11
174.2378363044781
 21
103.6767066144554
 31
0.0
1001
PHOENIX7010
1002
{
1070
    41
1040
0.5
1002
}
  0
LINE
  5
EC
330
18
100
AcDbEntity
  8
BZA45776
  6
Continuous
 62
     1
100
AcDbLine
 10
72.2378973396344
 20
113.6767066144554
 30
0.0
 11
72.2378973396344
 21
101.6767066144554
 31
0.0
1001
PHOENIX7010
1002
{
1070
    41
1040
0.5
1002
}
  0
LINE
  5
ED
330
18
100
AcDbEntity
  8
BZA45776
  6
Continuous
 62
     1
100
AcDbLine
 10
72.2378973396344
 20
103.6767066144554
 30
0.0
 11
75.70795959549378
 21
104.1335547589866
 31
0.0
1001
PHOENIX7010
1002
{
1070
    41
1040
0.5
1002
}
  0
LINE
  5
EE
330
18
100
AcDbEntity
  8
BZA45776
  6
Continuous
 62
     1
100
AcDbLine
 10
72.2378973396344
 20
103.6767066144554
 30
0.0
 11
75.70795959549378
 21
103.2198584699241
 31
0.0
1001
PHOENIX7010
1002
{
1070
    41
1040
0.5
1002
}
  0
LINE
  5
EF
330
18
100
AcDbEntity
  8
BZA45776
  6
Continuous
 62
     1
100
AcDbLine
 10
174.2378363044781
 20
169.6766455792991
 30
0.0
 11
174.2378363044781
 21
101.6767066144554
 31
0.0
1001
PHOENIX7010
1002
{
1070
    41
1040
0.5
1002
}
  0
LINE
  5
F0
330
18
100
AcDbEntity
  8
BZA45776
  6
Continuous
 62
     1
100
AcDbLine
 10
174.2378363044781
 20
103.6767066144554
 30
0.0
 11
170.7677740486188
 21
104.1335547589866
 31
0.0
1001
PHOENIX7010
1002
{
1070
    41
1040
0.5
1002
}
  0
LINE
  5
F1
330
18
100
AcDbEntity
  8
BZA45776
  6
Continuous
 62
     1
100
AcDbLine
 10
174.2378363044781
 20
103.6767066144554
 30
0.0
 11
170.7677740486188
 21
103.2198584699241
 31
0.0
1001
PHOENIX7010
1002
{
1070
    41
1040
0.5
1002
}
  0
TEXT
  5
F2
330
18
100
AcDbEntity
  8
BZA45776
 62
     5
100
AcDbText
 10
119.0098184250189
 20
104.6767066144554
 30
0.0
 40
3.5
  1
25.5
 72
     1
 11
123.2378668220563
 21
104.6767066144554
 31
0.0
100
AcDbText
1001
PHOENIX7010
1002
{
1070
    41
1040
0.5
1002
}
  0
LINE
  5
F4
330
18
100
AcDbEntity
  8
BZA45776
  6
Continuous
 62
     1
100
AcDbLine
 10
123.2377142341656
 20
164.4766333722678
 30
0.0
 11
128.1037420661969
 21
133.6767066144554
 31
0.0
1001
PHOENIX7010
1002
{
1070
    41
1040
0.5
1002
}
  0
LINE
  5
F5
330
18
100
AcDbEntity
  8
BZA45776
  6
Continuous
 62
     1
100
AcDbLine
 10
128.1037420661969
 20
133.6767066144554
 30
0.0
 11
137.2430548103375
 21
133.6767066144554
 31
0.0
1001
PHOENIX7010
1002
{
1070
    41
1040
0.5
1002
}
  0
LINE
  5
F7
330
18
100
AcDbEntity
  8
BZA45776
  6
Continuous
 62
     1
100
AcDbLine
 10
194.2378668220563
 20
181.2766516828147
 30
0.0
 11
194.2378668220563
 21
168.8766577863304
 31
0.0
1001
PHOENIX7010
1002
{
1070
    41
1040
0.5
1002
}
  0
LINE
  5
F8
330
18
100
AcDbEntity
  8
BZA45776
  6
Continuous
 62
     1
100
AcDbLine
 10
173.4379400642438
 20
168.8766577863304
 30
0.0
 11
182.9611334236187
 21
168.8766577863304
 31
0.0
1001
PHOENIX7010
1002
{
1070
    41
1040
0.5
1002
}
  0
LINE
  5
F9
330
18
100
AcDbEntity
  8
BZA45776
  6
Continuous
 62
     1
100
AcDbLine
 10
194.2378668220563
 20
181.2766516828147
 30
0.0
 11
193.781018677525
 21
177.8065894269554
 31
0.0
1001
PHOENIX7010
1002
{
1070
    41
1040
0.5
1002
}
  0
LINE
  5
FA
330
18
100
AcDbEntity
  8
BZA45776
  6
Continuous
 62
     1
100
AcDbLine
 10
194.2378668220563
 20
181.2766516828147
 30
0.0
 11
194.6947149665875
 21
177.8065894269554
 31
0.0
1001
PHOENIX7010
1002
{
1070
    41
1040
0.5
1002
}
  0
LINE
  5
FB
330
18
100
AcDbEntity
  8
BZA45776
  6
Continuous
 62
     1
100
AcDbLine
 10
194.2378668220563
 20
168.8766577863304
 30
0.0
 11
193.781018677525
 21
172.3467200421897
 31
0.0
1001
PHOENIX7010
1002
{
1070
    41
1040
0.5
1002
}
  0
LINE
  5
FC
330
18
100
AcDbEntity
  8
BZA45776
  6
Continuous
 62
     1
100
AcDbLine
 10
194.2378668220563
 20
168.8766577863304
 30
0.0
 11
194.6947149665875
 21
172.3467200421897
 31
0.0
1001
PHOENIX7010
1002
{
1070
    41
1040
0.5
1002
}
  0
TEXT
  5
FD
330
18
100
AcDbEntity
  8
BZA45776
 62
     5
100
AcDbText
 10
193.2378668220563
 20
172.4515784406272
 30
0.0
 40
3.5
  1
3.1
 50
90.0
 72
     1
 11
193.2378668220563
 21
175.0765784406272
 31
0.0
100
AcDbText
1001
PHOENIX7010
1002
{
1070
    41
1040
0.5
1002
}
  0
LINE
  5
FE
330
18
100
AcDbEntity
  8
BZA45776
  6
Continuous
 62
     1
100
AcDbLine
 10
185.9446844490094
 20
168.8766577863304
 30
0.0
 11
196.2378668220562
 21
168.8766577863304
 31
0.0
1001
PHOENIX7010
1002
{
1070
    41
1040
0.5
1002
}
  0
LINE
  5
FF
330
18
100
AcDbEntity
  8
BZA45776
  6
Continuous
 62
     1
100
AcDbLine
 10
185.9643072517437
 20
181.2766516828147
 30
0.0
 11
196.2378668220562
 21
181.2766516828147
 31
0.0
1001
PHOENIX7010
1002
{
1070
    41
1040
0.5
1002
}
  0
LINE
  5
100
330
18
100
AcDbEntity
  8
BZA45776
  6
Continuous
 62
     1
100
AcDbLine
 10
173.4379095466656
 20
181.2766516828147
 30
0.0
 11
182.5246252449078
 21
181.2766516828147
 31
0.0
1001
PHOENIX7010
1002
{
1070
    41
1040
0.5
1002
}
  0
LINE
  5
102
330
18
100
AcDbEntity
  8
BZA45776
  6
Continuous
 62
     1
100
AcDbLine
 10
204.2378973396344
 20
181.2766516828147
 30
0.0
 11
204.2378973396344
 21
164.4766333722678
 31
0.0
1001
PHOENIX7010
1002
{
1070
    41
1040
0.5
1002
}
  0
LINE
  5
103
330
18
100
AcDbEntity
  8
BZA45776
  6
Continuous
 62
     1
100
AcDbLine
 10
194.2378973396344
 20
181.2766516828147
 30
0.0
 11
206.2378973396344
 21
181.2766516828147
 31
0.0
1001
PHOENIX7010
1002
{
1070
    41
1040
0.5
1002
}
  0
LINE
  5
104
330
18
100
AcDbEntity
  8
BZA45776
  6
Continuous
 62
     1
100
AcDbLine
 10
136.5474066169781
 20
164.4766333722678
 30
0.0
 11
206.2378973396344
 21
164.4766333722678
 31
0.0
1001
PHOENIX7010
1002
{
1070
    41
1040
0.5
1002
}
  0
LINE
  5
105
330
18
100
AcDbEntity
  8
BZA45776
  6
Continuous
 62
     1
100
AcDbLine
 10
204.2378973396344
 20
181.2766516828147
 30
0.0
 11
203.7810491951031
 21
177.8065894269554
 31
0.0
1001
PHOENIX7010
1002
{
1070
    41
1040
0.5
1002
}
  0
LINE
  5
106
330
18
100
AcDbEntity
  8
BZA45776
  6
Continuous
 62
     1
100
AcDbLine
 10
204.2378973396344
 20
181.2766516828147
 30
0.0
 11
204.6947454841657
 21
177.8065894269554
 31
0.0
1001
PHOENIX7010
1002
{
1070
    41
1040
0.5
1002
}
  0
LINE
  5
107
330
18
100
AcDbEntity
  8
BZA45776
  6
Continuous
 62
     1
100
AcDbLine
 10
204.2378973396344
 20
164.4766333722678
 30
0.0
 11
203.7810491951031
 21
167.9466956281272
 31
0.0
1001
PHOENIX7010
1002
{
1070
    41
1040
0.5
1002
}
  0
LINE
  5
108
330
18
100
AcDbEntity
  8
BZA45776
  6
Continuous
 62
     1
100
AcDbLine
 10
204.2378973396344
 20
164.4766333722678
 30
0.0
 11
204.6947454841657
 21
167.9466956281272
 31
0.0
1001
PHOENIX7010
1002
{
1070
    41
1040
0.5
1002
}
  0
TEXT
  5
109
330
18
100
AcDbEntity
  8
BZA45776
 62
     5
100
AcDbText
 10
203.2378973396344
 20
169.6214934047174
 30
0.0
 40
3.5
  1
4.2
 50
90.0
 72
     1
 11
203.2378973396344
 21
172.8765967511741
 31
0.0
100
AcDbText
1001
PHOENIX7010
1002
{
1070
    41
1040
0.5
1002
}
  0
TEXT
  5
10B
330
18
100
AcDbEntity
  8
BZA45776
 62
     5
100
AcDbText
 10
183.2063421638531
 20
173.0432837628929
 30
0.0
 40
3.5
  1
1.5
 50
90.0
100
AcDbText
1001
PHOENIX7010
1002
{
1070
    41
1040
0.5
1002
}
  0
LINE
  5
10D
330
18
100
AcDbEntity
  8
BZA45776
  6
Continuous
 62
     1
100
AcDbLine
 10
173.4379705818219
 20
178.0766699933616
 30
0.0
 11
186.2378973396344
 21
178.0766699933616
 31
0.0
1001
PHOENIX7010
1002
{
1070
    41
1040
0.5
1002
}
  0
LINE
  5
10E
330
18
100
AcDbEntity
  8
BZA45776
  6
Continuous
 62
     1
100
AcDbLine
 10
173.4379705818219
 20
172.0766699933616
 30
0.0
 11
186.2378973396344
 21
172.0766699933616
 31
0.0
1001
PHOENIX7010
1002
{
1070
    41
1040
0.5
1002
}
  0
LINE
  5
10F
330
18
100
AcDbEntity
  8
BZA45776
  6
Continuous
 62
     1
100
AcDbLine
 10
184.2378973396344
 20
178.0766699933616
 30
0.0
 11
183.7810491951031
 21
181.546732249221
 31
0.0
1001
PHOENIX7010
1002
{
1070
    41
1040
0.5
1002
}
  0
LINE
  5
110
330
18
100
AcDbEntity
  8
BZA45776
  6
Continuous
 62
     1
100
AcDbLine
 10
184.2378973396344
 20
178.0766699933616
 30
0.0
 11
184.6947454841656
 21
181.546732249221
 31
0.0
1001
PHOENIX7010
1002
{
1070
    41
1040
0.5
1002
}
  0
LINE
  5
111
330
18
100
AcDbEntity
  8
BZA45776
  6
Continuous
 62
     1
100
AcDbLine
 10
184.2378973396344
 20
172.0766699933616
 30
0.0
 11
183.7810491951031
 21
168.6066077375022
 31
0.0
1001
PHOENIX7010
1002
{
1070
    41
1040
0.5
1002
}
  0
LINE
  5
112
330
18
100
AcDbEntity
  8
BZA45776
  6
Continuous
 62
     1
100
AcDbLine
 10
184.2378973396344
 20
172.0766699933616
 30
0.0
 11
184.6947454841656
 21
168.6066077375022
 31
0.0
1001
PHOENIX7010
1002
{
1070
    41
1040
0.5
1002
}
  0
LINE
  5
113
330
18
100
AcDbEntity
  8
BZA45776
  6
Continuous
 62
     1
100
AcDbLine
 10
184.2378973396344
 20
184.8856909894554
 30
0.0
 11
184.2378973396344
 21
165.695413889846
 31
0.0
1001
PHOENIX7010
1002
{
1070
    41
1040
0.5
1002
}
  0
LINE
  5
115
330
18
100
AcDbEntity
  8
BZA45776
  6
Continuous
 62
     1
100
AcDbLine
 10
214.2378973396344
 20
181.2766516828147
 30
0.0
 11
214.2378973396344
 21
147.6766455792991
 31
0.0
1001
PHOENIX7010
1002
{
1070
    41
1040
0.5
1002
}
  0
LINE
  5
116
330
18
100
AcDbEntity
  8
BZA45776
  6
Continuous
 62
     1
100
AcDbLine
 10
204.2378973396344
 20
181.2766516828147
 30
0.0
 11
216.2378973396344
 21
181.2766516828147
 31
0.0
1001
PHOENIX7010
1002
{
1070
    41
1040
0.5
1002
}
  0
LINE
  5
117
330
18
100
AcDbEntity
  8
BZA45776
  6
Continuous
 62
     1
100
AcDbLine
 10
214.2378973396344
 20
181.2766516828147
 30
0.0
 11
213.7810491951031
 21
177.8065894269554
 31
0.0
1001
PHOENIX7010
1002
{
1070
    41
1040
0.5
1002
}
  0
LINE
  5
118
330
18
100
AcDbEntity
  8
BZA45776
  6
Continuous
 62
     1
100
AcDbLine
 10
214.2378973396344
 20
181.2766516828147
 30
0.0
 11
214.6947454841657
 21
177.8065894269554
 31
0.0
1001
PHOENIX7010
1002
{
1070
    41
1040
0.5
1002
}
  0
LINE
  5
119
330
18
100
AcDbEntity
  8
BZA45776
  6
Continuous
 62
     1
100
AcDbLine
 10
214.2378973396344
 20
147.6766455792991
 30
0.0
 11
213.7810491951031
 21
151.1467078351585
 31
0.0
1001
PHOENIX7010
1002
{
1070
    41
1040
0.5
1002
}
  0
LINE
  5
11A
330
18
100
AcDbEntity
  8
BZA45776
  6
Continuous
 62
     1
100
AcDbLine
 10
214.2378973396344
 20
147.6766455792991
 30
0.0
 11
214.6947454841657
 21
151.1467078351585
 31
0.0
1001
PHOENIX7010
1002
{
1070
    41
1040
0.5
1002
}
  0
TEXT
  5
11B
330
18
100
AcDbEntity
  8
BZA45776
 62
     5
100
AcDbText
 10
213.2378973396344
 20
159.9266028546897
 30
0.0
 40
3.5
  1
 8.4 
 50
90.0
 72
     1
 11
213.2378973396344
 21
164.4766028546897
 31
0.0
100
AcDbText
1001
PHOENIX7010
1002
{
1070
    41
1040
0.5
1002
}
  0
LINE
  5
11C
330
18
100
AcDbEntity
  8
BZA45776
  6
Continuous
 62
     1
100
AcDbLine
 10
133.4379705818219
 20
147.6766455792991
 30
0.0
 11
216.2378973396344
 21
147.6766455792991
 31
0.0
1001
PHOENIX7010
1002
{
1070
    41
1040
0.5
1002
}
  0
TEXT
  5
11E
330
18
100
AcDbEntity
  8
BZA45776
 62
     5
100
AcDbText
 10
213.2073797615094
 20
186.9484046125022
 30
0.0
 40
3.5
  1
0.6
 50
90.0
100
AcDbText
1001
PHOENIX7010
1002
{
1070
    41
1040
0.5
1002
}
  0
LINE
  5
120
330
18
100
AcDbEntity
  8
BZA45776
  6
Continuous
 62
     1
100
AcDbLine
 10
214.2378668220563
 20
183.6766455792991
 30
0.0
 11
213.781018677525
 21
187.1467078351585
 31
0.0
1001
PHOENIX7010
1002
{
1070
    41
1040
0.5
1002
}
  0
LINE
  5
121
330
18
100
AcDbEntity
  8
BZA45776
  6
Continuous
 62
     1
100
AcDbLine
 10
214.2378668220563
 20
183.6766455792991
 30
0.0
 11
214.6947149665875
 21
187.1467078351585
 31
0.0
1001
PHOENIX7010
1002
{
1070
    41
1040
0.5
1002
}
  0
LINE
  5
122
330
18
100
AcDbEntity
  8
BZA45776
  6
Continuous
 62
     1
100
AcDbLine
 10
214.2378668220563
 20
181.2766516828147
 30
0.0
 11
213.781018677525
 21
177.8065894269554
 31
0.0
1001
PHOENIX7010
1002
{
1070
    41
1040
0.5
1002
}
  0
LINE
  5
123
330
18
100
AcDbEntity
  8
BZA45776
  6
Continuous
 62
     1
100
AcDbLine
 10
214.2378668220563
 20
181.2766516828147
 30
0.0
 11
214.6947149665875
 21
177.8065894269554
 31
0.0
1001
PHOENIX7010
1002
{
1070
    41
1040
0.5
1002
}
  0
LINE
  5
124
330
18
100
AcDbEntity
  8
BZA45776
  6
Continuous
 62
     1
100
AcDbLine
 10
214.2378668220563
 20
193.1782324933616
 30
0.0
 11
214.2378668220563
 21
166.7766822003929
 31
0.0
1001
PHOENIX7010
1002
{
1070
    41
1040
0.5
1002
}
  0
LINE
  5
125
330
18
100
AcDbEntity
  8
BZA45776
  6
Continuous
 62
     1
100
AcDbLine
 10
129.4377874763531
 20
183.6766455792991
 30
0.0
 11
146.8860906990094
 21
183.6766455792991
 31
0.0
1001
PHOENIX7010
1002
{
1070
    41
1040
0.5
1002
}
  0
LINE
  5
126
330
18
100
AcDbEntity
  8
BZA45776
  6
Continuous
 62
     1
100
AcDbLine
 10
155.7824682624859
 20
183.6766455792991
 30
0.0
 11
182.5379156501812
 21
183.6766455792991
 31
0.0
1001
PHOENIX7010
1002
{
1070
    41
1040
0.5
1002
}
  0
LINE
  5
127
330
18
100
AcDbEntity
  8
BZA45776
  6
Continuous
 62
     1
100
AcDbLine
 10
185.7284368904156
 20
183.6766455792991
 30
0.0
 11
216.2378668220563
 21
183.6766455792991
 31
0.0
1001
PHOENIX7010
1002
{
1070
    41
1040
0.5
1002
}
  0
LINE
  5
129
330
18
100
AcDbEntity
  8
BZA45776
  6
Continuous
 62
     1
100
AcDbLine
 10
174.2379583747906
 20
144.4766944074241
 30
0.0
 11
174.2379583747906
 21
131.6767066144554
 31
0.0
1001
PHOENIX7010
1002
{
1070
    41
1040
0.5
1002
}
  0
LINE
  5
12A
330
18
100
AcDbEntity
  8
BZA45776
  6
Continuous
 62
     1
100
AcDbLine
 10
166.2378973396344
 20
133.6767066144554
 30
0.0
 11
162.767835083775
 21
133.2198584699241
 31
0.0
1001
PHOENIX7010
1002
{
1070
    41
1040
0.5
1002
}
  0
LINE
  5
12B
330
18
100
AcDbEntity
  8
BZA45776
  6
Continuous
 62
     1
100
AcDbLine
 10
166.2378973396344
 20
133.6767066144554
 30
0.0
 11
162.767835083775
 21
134.1335547589866
 31
0.0
1001
PHOENIX7010
1002
{
1070
    41
1040
0.5
1002
}
  0
LINE
  5
12C
330
18
100
AcDbEntity
  8
BZA45776
  6
Continuous
 62
     1
100
AcDbLine
 10
174.2379583747906
 20
133.6767066144554
 30
0.0
 11
177.70802063065
 21
133.2198584699241
 31
0.0
1001
PHOENIX7010
1002
{
1070
    41
1040
0.5
1002
}
  0
LINE
  5
12D
330
18
100
AcDbEntity
  8
BZA45776
  6
Continuous
 62
     1
100
AcDbLine
 10
174.2379583747906
 20
133.6767066144554
 30
0.0
 11
177.70802063065
 21
134.1335547589866
 31
0.0
1001
PHOENIX7010
1002
{
1070
    41
1040
0.5
1002
}
  0
LINE
  5
12E
330
18
100
AcDbEntity
  8
BZA45776
  6
Continuous
 62
     1
100
AcDbLine
 10
166.2378973396344
 20
172.0766699933616
 30
0.0
 11
166.2378973396344
 21
131.6767066144554
 31
0.0
1001
PHOENIX7010
1002
{
1070
    41
1040
0.5
1002
}
  0
LINE
  5
12F
330
18
100
AcDbEntity
  8
BZA45776
  6
Continuous
 62
     1
100
AcDbLine
 10
159.2378973396344
 20
133.6767066144554
 30
0.0
 11
181.5143865974469
 21
133.6767066144554
 31
0.0
1001
PHOENIX7010
1002
{
1070
    41
1040
0.5
1002
}
  0
LINE
  5
131
330
18
100
AcDbEntity
  8
BZA45776
  6
Continuous
 62
     1
100
AcDbLine
 10
93.03785461502503
 20
123.6767066144554
 30
0.0
 11
89.56779235916565
 21
124.1335547589866
 31
0.0
1001
PHOENIX7010
1002
{
1070
    41
1040
0.5
1002
}
  0
LINE
  5
132
330
18
100
AcDbEntity
  8
BZA45776
  6
Continuous
 62
     1
100
AcDbLine
 10
93.03785461502503
 20
123.6767066144554
 30
0.0
 11
89.56779235916565
 21
123.2198584699241
 31
0.0
1001
PHOENIX7010
1002
{
1070
    41
1040
0.5
1002
}
  0
LINE
  5
133
330
18
100
AcDbEntity
  8
BZA45776
  6
Continuous
 62
     1
100
AcDbLine
 10
86.03785461502502
 20
123.6767066144554
 30
0.0
 11
108.3808111579938
 21
123.6767066144554
 31
0.0
1001
PHOENIX7010
1002
{
1070
    41
1040
0.5
1002
}
  0
LINE
  5
134
330
18
100
AcDbEntity
  8
BZA45776
  6
Continuous
 62
     1
100
AcDbLine
 10
101.8378118904156
 20
152.8766577863304
 30
0.0
 11
101.8378118904156
 21
121.6767066144553
 31
0.0
1001
PHOENIX7010
1002
{
1070
    41
1040
0.5
1002
}
  0
LINE
  5
135
330
18
100
AcDbEntity
  8
BZA45776
  6
Continuous
 62
     1
100
AcDbLine
 10
101.8378118904156
 20
123.6767066144554
 30
0.0
 11
105.307874146275
 21
124.1335547589866
 31
0.0
1001
PHOENIX7010
1002
{
1070
    41
1040
0.5
1002
}
  0
LINE
  5
136
330
18
100
AcDbEntity
  8
BZA45776
  6
Continuous
 62
     1
100
AcDbLine
 10
101.8378118904156
 20
123.6767066144554
 30
0.0
 11
105.307874146275
 21
123.2198584699241
 31
0.0
1001
PHOENIX7010
1002
{
1070
    41
1040
0.5
1002
}
  0
LINE
  5
138
330
18
100
AcDbEntity
  8
BZA45776
  6
Continuous
 62
     1
100
AcDbLine
 10
153.0379309089703
 20
175.2766516828147
 30
0.0
 11
151.0378851326031
 21
175.2766516828147
 31
0.0
1001
PHOENIX7010
1002
{
1070
    41
1040
0.5
1002
}
  0
LINE
  5
139
330
18
100
AcDbEntity
  8
BZA45776
  6
Continuous
 62
     1
100
AcDbLine
 10
153.0378851326031
 20
175.2766516828147
 30
0.0
 11
152.5810369880719
 21
171.8065894269554
 31
0.0
1001
PHOENIX7010
1002
{
1070
    41
1040
0.5
1002
}
  0
LINE
  5
13A
330
18
100
AcDbEntity
  8
BZA45776
  6
Continuous
 62
     1
100
AcDbLine
 10
153.0378851326031
 20
175.2766516828147
 30
0.0
 11
153.4947332771344
 21
171.8065894269554
 31
0.0
1001
PHOENIX7010
1002
{
1070
    41
1040
0.5
1002
}
  0
LINE
  5
13B
330
18
100
AcDbEntity
  8
BZA45776
  6
Continuous
 62
     1
100
AcDbLine
 10
153.0378851326031
 20
181.2766516828147
 30
0.0
 11
152.5810369880719
 21
184.7467139386741
 31
0.0
1001
PHOENIX7010
1002
{
1070
    41
1040
0.5
1002
}
  0
LINE
  5
13C
330
18
100
AcDbEntity
  8
BZA45776
  6
Continuous
 62
     1
100
AcDbLine
 10
153.0378851326031
 20
181.2766516828147
 30
0.0
 11
153.4947332771344
 21
184.7467139386741
 31
0.0
1001
PHOENIX7010
1002
{
1070
    41
1040
0.5
1002
}
  0
TEXT
  5
13D
330
18
100
AcDbEntity
  8
BZA45776
 62
     5
100
AcDbText
 10
152.0378851326031
 20
186.2766516828147
 30
0.0
 40
3.5
  1
1.5
 50
90.0
100
AcDbText
1001
PHOENIX7010
1002
{
1070
    41
1040
0.5
1002
}
  0
LINE
  5
13E
330
18
100
AcDbEntity
  8
BZA45776
  6
Continuous
 62
     1
100
AcDbLine
 10
153.0378851326031
 20
168.2766516828147
 30
0.0
 11
153.0378851326031
 21
192.7649329328147
 31
0.0
1001
PHOENIX7010
1002
{
1070
    41
1040
0.5
1002
}
  0
LINE
  5
1E8
330
18
100
AcDbEntity
  8
31
  6
Continuous
 62
     7
100
AcDbLine
 10
119.5377630622906
 20
171.0483496808616
 30
0.0
 11
119.4591497810406
 21
171.1299536847679
 31
0.0
1001
PHOENIX7010
1002
{
1070
    41
1040
0.5
1002
}
  0
ARC
  5
1E9
330
18
100
AcDbEntity
  8
31
  6
Continuous
 62
     7
100
AcDbCircle
 10
120.9535345466656
 20
172.4906867169944
 30
0.0
 40
2.02111792564392
100
AcDbArc
 50
219.1194305419925
 51
222.3211212158204
1001
PHOENIX7010
1002
{
1070
    41
1040
0.5
1002
}
  0
ARC
  5
1EA
330
18
100
AcDbEntity
  8
31
  6
Continuous
 62
     7
100
AcDbCircle
 10
120.9446234138531
 20
172.4803107404319
 30
0.0
 40
2.007619380950927
100
AcDbArc
 50
215.8240051269531
 51
219.0509185791016
1001
PHOENIX7010
1002
{
1070
    41
1040
0.5
1002
}
  0
ARC
  5
1EB
330
18
100
AcDbEntity
  8
31
  6
Continuous
 62
     7
100
AcDbCircle
 10
120.9486517341656
 20
172.4856207990257
 30
0.0
 40
2.014023780822753
100
AcDbArc
 50
212.6585540771484
 51
215.8783721923831
1001
PHOENIX7010
1002
{
1070
    41
1040
0.5
1002
}
  0
ARC
  5
1EC
330
18
100
AcDbEntity
  8
31
  6
Continuous
 62
     7
100
AcDbCircle
 10
120.9547552497906
 20
172.4851325177757
 30
0.0
 40
2.018840789794921
100
AcDbArc
 50
209.3405151367189
 51
212.5543670654292
1001
PHOENIX7010
1002
{
1070
    41
1040
0.5
1002
}
  0
ARC
  5
1ED
330
18
100
AcDbEntity
  8
31
  6
Continuous
 62
     7
100
AcDbCircle
 10
120.9554876716656
 20
172.4884589337913
 30
0.0
 40
2.021070003509521
100
AcDbArc
 50
206.1974487304691
 51
209.4138183593748
1001
PHOENIX7010
1002
{
1070
    41
1040
0.5
1002
}
  0
ARC
  5
1EE
330
18
100
AcDbEntity
  8
31
  6
Continuous
 62
     7
100
AcDbCircle
 10
120.9579290779156
 20
172.4857733869163
 30
0.0
 40
2.022163391113281
100
AcDbArc
 50
202.8764953613284
 51
206.0979156494138
1001
PHOENIX7010
1002
{
1070
    41
1040
0.5
1002
}
  0
ARC
  5
1EF
330
18
100
AcDbEntity
  8
31
  6
Continuous
 62
     7
100
AcDbCircle
 10
120.9569525154156
 20
172.48620063301
 30
0.0
 40
2.021373033523559
100
AcDbArc
 50
199.6671142578128
 51
202.8990478515624
1001
PHOENIX7010
1002
{
1070
    41
1040
0.5
1002
}
  0
ARC
  5
1F0
330
18
100
AcDbEntity
  8
31
  6
Continuous
 62
     7
100
AcDbCircle
 10
120.9508489997906
 20
172.4797003888694
 30
0.0
 40
2.013499736785888
100
AcDbArc
 50
196.2942504882812
 51
199.551177978516
1001
PHOENIX7010
1002
{
1070
    41
1040
0.5
1002
}
  0
ARC
  5
1F1
330
18
100
AcDbEntity
  8
31
  6
Continuous
 62
     7
100
AcDbCircle
 10
120.9546331794781
 20
172.4836066388694
 30
0.0
 40
2.018237590789794
100
AcDbArc
 50
193.107864379883
 51
196.3705444335934
1001
PHOENIX7010
1002
{
1070
    41
1040
0.5
1002
}
  0
ARC
  5
1F2
330
18
100
AcDbEntity
  8
31
  6
Continuous
 62
     7
100
AcDbCircle
 10
120.9662298591656
 20
172.4823249005882
 30
0.0
 40
2.029174327850341
100
AcDbArc
 50
189.7369842529294
 51
192.9987487792972
1001
PHOENIX7010
1002
{
1070
    41
1040
0.5
1002
}
  0
ARC
  5
1F3
330
18
100
AcDbEntity
  8
31
  6
Continuous
 62
     7
100
AcDbCircle
 10
120.9490179451031
 20
172.4784186505882
 30
0.0
 40
2.011615514755249
100
AcDbArc
 50
186.3955383300779
 51
189.709533691406
1001
PHOENIX7010
1002
{
1070
    41
1040
0.5
1002
}
  0
ARC
  5
1F4
330
18
100
AcDbEntity
  8
31
  6
Continuous
 62
     7
100
AcDbCircle
 10
120.9014105232281
 20
172.4689582013694
 30
0.0
 40
1.963252425193786
100
AcDbArc
 50
182.8494415283202
 51
186.2759094238282
1001
PHOENIX7010
1002
{
1070
    41
1040
0.5
1002
}
  0
ARC
  5
1F5
330
18
100
AcDbEntity
  8
31
  6
Continuous
 62
     7
100
AcDbCircle
 10
120.9708685310406
 20
172.4797614240257
 30
0.0
 40
2.033078432083129
100
AcDbArc
 50
179.7329254150391
 51
183.0558319091799
1001
PHOENIX7010
1002
{
1070
    41
1040
0.5
1002
}
  0
ARC
  5
1F6
330
18
100
AcDbEntity
  8
31
  6
Continuous
 62
     7
100
AcDbCircle
 10
121.1471380622906
 20
172.4777472638694
 30
0.0
 40
2.209394216537475
100
AcDbArc
 50
176.6329956054689
 51
179.7020263671876
1001
PHOENIX7010
1002
{
1070
    41
1040
0.5
1002
}
  0
ARC
  5
1F7
330
18
100
AcDbEntity
  8
31
  6
Continuous
 62
     7
100
AcDbCircle
 10
120.9381536872906
 20
172.4675543927757
 30
0.0
 40
2.001621007919311
100
AcDbArc
 50
172.5044555664063
 51
175.9914550781245
1001
PHOENIX7010
1002
{
1070
    41
1040
0.5
1002
}
  0
ARC
  5
1F8
330
18
100
AcDbEntity
  8
31
  6
Continuous
 62
     7
100
AcDbCircle
 10
120.6110052497906
 20
172.5050604962913
 30
0.0
 40
1.672334909439086
100
AcDbArc
 50
167.9665985107418
 51
172.315521240234
1001
PHOENIX7010
1002
{
1070
    41
1040
0.5
1002
}
  0
ARC
  5
1F9
330
18
100
AcDbEntity
  8
31
  6
Continuous
 62
     7
100
AcDbCircle
 10
121.1219915779156
 20
172.4685919904319
 30
0.0
 40
2.180839776992797
100
AcDbArc
 50
166.6498413085939
 51
169.8286437988279
1001
PHOENIX7010
1002
{
1070
    41
1040
0.5
1002
}
  0
LINE
  5
1FA
330
18
100
AcDbEntity
  8
31
  6
Continuous
 62
     7
100
AcDbLine
 10
119.0001654060406
 20
172.9721778058616
 30
0.0
 11
119.0262884529156
 21
173.0801489972679
 31
0.0
1001
PHOENIX7010
1002
{
1070
    41
1040
0.5
1002
}
  0
ARC
  5
1FB
330
18
100
AcDbEntity
  8
31
  6
Continuous
 62
     7
100
AcDbCircle
 10
120.6529974372906
 20
172.5212653302757
 30
0.0
 40
1.720085144042968
100
AcDbArc
 50
156.1636657714847
 51
161.0410919189448
1001
PHOENIX7010
1002
{
1070
    41
1040
0.5
1002
}
  0
ARC
  5
1FC
330
18
100
AcDbEntity
  8
31
  6
Continuous
 62
     7
100
AcDbCircle
 10
120.4689154060406
 20
172.6125739240257
 30
0.0
 40
1.514926195144653
100
AcDbArc
 50
147.7087707519535
 51
156.5112609863278
1001
PHOENIX7010
1002
{
1070
    41
1040
0.5
1002
}
  0
ARC
  5
1FD
330
18
100
AcDbEntity
  8
31
  6
Continuous
 62
     7
100
AcDbCircle
 10
122.9900335701031
 20
171.3432868146507
 30
0.0
 40
4.332829475402832
100
AcDbArc
 50
147.2309265136721
 51
151.3319549560542
1001
PHOENIX7010
1002
{
1070
    41
1040
0.5
1002
}
  0
LINE
  5
1FF
330
18
100
AcDbEntity
  8
31
  6
Continuous
 62
     7
100
AcDbLine
 10
127.1285833747906
 20
173.6887305402366
 30
0.0
 11
127.1953558357281
 21
173.5953467511741
 31
0.0
1001
PHOENIX7010
1002
{
1070
    41
1040
0.5
1002
}
  0
ARC
  5
200
330
18
100
AcDbEntity
  8
31
  6
Continuous
 62
     7
100
AcDbCircle
 10
125.5426458747906
 20
172.4827216291038
 30
0.0
 40
1.9922776222229
100
AcDbArc
 50
30.64882278442397
 51
33.94747161865286
1001
PHOENIX7010
1002
{
1070
    41
1040
0.5
1002
}
  0
ARC
  5
201
330
18
100
AcDbEntity
  8
31
  6
Continuous
 62
     7
100
AcDbCircle
 10
125.5467962654156
 20
172.4882147931663
 30
0.0
 40
1.985885977745056
100
AcDbArc
 50
27.25612449646034
 51
30.57444953918489
1001
PHOENIX7010
1002
{
1070
    41
1040
0.5
1002
}
  0
ARC
  5
202
330
18
100
AcDbEntity
  8
31
  6
Continuous
 62
     7
100
AcDbCircle
 10
125.5319036872906
 20
172.4771063947288
 30
0.0
 40
2.004325866699218
100
AcDbArc
 50
24.04549026489303
 51
27.34184837341344
1001
PHOENIX7010
1002
{
1070
    41
1040
0.5
1002
}
  0
ARC
  5
203
330
18
100
AcDbEntity
  8
31
  6
Continuous
 62
     7
100
AcDbCircle
 10
125.5138372810406
 20
172.4711554669944
 30
0.0
 40
2.023183107376098
100
AcDbArc
 50
20.71867752075227
 51
23.99120521545415
1001
PHOENIX7010
1002
{
1070
    41
1040
0.5
1002
}
  0
ARC
  5
204
330
18
100
AcDbEntity
  8
31
  6
Continuous
 62
     7
100
AcDbCircle
 10
125.5045599372906
 20
172.4668830060569
 30
0.0
 40
2.033299207687377
100
AcDbArc
 50
17.47667312622094
 51
20.73979568481429
1001
PHOENIX7010
1002
{
1070
    41
1040
0.5
1002
}
  0
ARC
  5
205
330
18
100
AcDbEntity
  8
31
  6
Continuous
 62
     7
100
AcDbCircle
 10
125.4962591560406
 20
172.4672186994163
 30
0.0
 40
2.041128396987915
100
AcDbArc
 50
14.13762187957754
 51
17.39775848388682
1001
PHOENIX7010
1002
{
1070
    41
1040
0.5
1002
}
  0
ARC
  5
206
330
18
100
AcDbEntity
  8
31
  6
Continuous
 62
     7
100
AcDbCircle
 10
125.4933294685406
 20
172.4645636701194
 30
0.0
 40
2.044744253158569
100
AcDbArc
 50
10.92372608184837
 51
14.18889617919913
1001
PHOENIX7010
1002
{
1070
    41
1040
0.5
1002
}
  0
ARC
  5
207
330
18
100
AcDbEntity
  8
31
  6
Continuous
 62
     7
100
AcDbCircle
 10
125.4987005622906
 20
172.4699347638694
 30
0.0
 40
2.038424015045166
100
AcDbArc
 50
7.517842292785529
 51
10.80479907989474
1001
PHOENIX7010
1002
{
1070
    41
1040
0.5
1002
}
  0
ARC
  5
208
330
18
100
AcDbEntity
  8
31
  6
Continuous
 62
     7
100
AcDbCircle
 10
125.4960150154156
 20
172.4681647443382
 30
0.0
 40
2.041317701339721
100
AcDbArc
 50
4.261619091034287
 51
7.556814193725716
1001
PHOENIX7010
1002
{
1070
    41
1040
0.5
1002
}
  0
ARC
  5
209
330
18
100
AcDbEntity
  8
31
  6
Continuous
 62
     7
100
AcDbCircle
 10
125.4908880622906
 20
172.4709723615257
 30
0.0
 40
2.046234607696533
100
AcDbArc
 50
0.8707177042964431
 51
4.172780454158734
1001
PHOENIX7010
1002
{
1070
    41
1040
0.5
1002
}
  0
ARC
  5
20A
330
18
100
AcDbEntity
  8
31
  6
Continuous
 62
     7
100
AcDbCircle
 10
125.5120062263531
 20
172.4729254865257
 30
0.0
 40
2.025063037872314
100
AcDbArc
 50
357.4667053222654
 51
0.8237512111661102
1001
PHOENIX7010
1002
{
1070
    41
1040
0.5
1002
}
  0
ARC
  5
20B
330
18
100
AcDbEntity
  8
31
  6
Continuous
 62
     7
100
AcDbCircle
 10
125.5613226326031
 20
172.4750006818382
 30
0.0
 40
1.975861072540283
100
AcDbArc
 50
353.8751525878908
 51
357.3433532714842
1001
PHOENIX7010
1002
{
1070
    41
1040
0.5
1002
}
  0
ARC
  5
20C
330
18
100
AcDbEntity
  8
31
  6
Continuous
 62
     7
100
AcDbCircle
 10
125.5109075935406
 20
172.4735968732444
 30
0.0
 40
2.025918006896972
100
AcDbArc
 50
350.6738891601563
 51
354.0678405761719
1001
PHOENIX7010
1002
{
1070
    41
1040
0.5
1002
}
  0
ARC
  5
20D
330
18
100
AcDbEntity
  8
31
  6
Continuous
 62
     7
100
AcDbCircle
 10
125.3802923591656
 20
172.4987433576194
 30
0.0
 40
2.158802986145019
100
AcDbArc
 50
347.3817749023439
 51
350.576812744141
1001
PHOENIX7010
1002
{
1070
    41
1040
0.5
1002
}
  0
ARC
  5
20E
330
18
100
AcDbEntity
  8
31
  6
Continuous
 62
     7
100
AcDbCircle
 10
125.5590032966656
 20
172.47741157051
 30
0.0
 40
1.979932308197021
100
AcDbArc
 50
343.2824096679689
 51
346.8544006347652
1001
PHOENIX7010
1002
{
1070
    41
1040
0.5
1002
}
  0
ARC
  5
20F
330
18
100
AcDbEntity
  8
31
  6
Continuous
 62
     7
100
AcDbCircle
 10
125.8368353279156
 20
172.3997443341819
 30
0.0
 40
1.691409707069396
100
AcDbArc
 50
338.7640075683598
 51
343.0932006835939
1001
PHOENIX7010
1002
{
1070
    41
1040
0.5
1002
}
  0
ARC
  5
210
330
18
100
AcDbEntity
  8
31
  6
Continuous
 62
     7
100
AcDbCircle
 10
125.4050726326031
 20
172.5003913068382
 30
0.0
 40
2.131231069564819
100
AcDbArc
 50
337.1785278320311
 51
340.4478149414065
1001
PHOENIX7010
1002
{
1070
    41
1040
0.5
1002
}
  0
LINE
  5
211
330
18
100
AcDbEntity
  8
31
  6
Continuous
 62
     7
100
AcDbLine
 10
127.3695501716656
 20
171.6737769269554
 30
0.0
 11
127.3256048591656
 21
171.5714820050804
 31
0.0
1001
PHOENIX7010
1002
{
1070
    41
1040
0.5
1002
}
  0
ARC
  5
212
330
18
100
AcDbEntity
  8
31
  6
Continuous
 62
     7
100
AcDbCircle
 10
125.7860540779156
 20
172.3951666974632
 30
0.0
 40
1.746058702468872
100
AcDbArc
 50
327.172790527344
 51
331.85205078125
1001
PHOENIX7010
1002
{
1070
    41
1040
0.5
1002
}
  0
ARC
  5
213
330
18
100
AcDbEntity
  8
31
  6
Continuous
 62
     7
100
AcDbCircle
 10
125.9519476326031
 20
172.28014594551
 30
0.0
 40
1.544319748878479
100
AcDbArc
 50
319.2499389648439
 51
327.4216613769532
1001
PHOENIX7010
1002
{
1070
    41
1040
0.5
1002
}
  0
ARC
  5
214
330
18
100
AcDbEntity
  8
31
  6
Continuous
 62
     7
100
AcDbCircle
 10
123.8224310310406
 20
173.8001349591819
 30
0.0
 40
4.156609535217285
100
AcDbArc
 50
318.5453796386716
 51
322.5403442382809
1001
PHOENIX7010
1002
{
1070
    41
1040
0.5
1002
}
  0
LINE
  5
4F0
102
{ACAD_REACTORS
330
4FF
102
}
330
18
100
AcDbEntity
  8
0
  6
Continuous
 62
     1
100
AcDbLine
 10
230.0
 20
5.000000000000113
 30
0.0
 11
230.0
 21
1.000000000000113
 31
0.0
1001
PHOENIX7010
1002
{
1070
    62
1070
     1
1070
    41
1040
1.0
1002
}
  0
LINE
  5
4F1
102
{ACAD_REACTORS
330
4FF
102
}
330
18
100
AcDbEntity
  8
0
  6
Continuous
 62
     3
100
AcDbLine
 10
415.0
 20
5.000000000000113
 30
0.0
 11
20.0
 21
5.000000000000113
 31
0.0
1001
PHOENIX7010
1002
{
1070
    62
1070
     3
1070
    41
1040
1.0
1002
}
  0
LINE
  5
4F2
102
{ACAD_REACTORS
330
4FF
102
}
330
18
100
AcDbEntity
  8
0
  6
Continuous
 62
     1
100
AcDbLine
 10
125.0
 20
296.0000000000001
 30
0.0
 11
125.0
 21
292.0000000000001
 31
0.0
1001
PHOENIX7010
1002
{
1070
    62
1070
     1
1070
    41
1040
1.0
1002
}
  0
LINE
  5
4F3
102
{ACAD_REACTORS
330
4FF
102
}
330
18
100
AcDbEntity
  8
0
  6
Continuous
 62
     1
100
AcDbLine
 10
230.0
 20
296.0000000000001
 30
0.0
 11
230.0
 21
292.0000000000001
 31
0.0
1001
PHOENIX7010
1002
{
1070
    62
1070
     1
1070
    41
1040
1.0
1002
}
  0
LINE
  5
4F4
102
{ACAD_REACTORS
330
4FF
102
}
330
18
100
AcDbEntity
  8
0
  6
Continuous
 62
     1
100
AcDbLine
 10
125.0
 20
5.000000000000113
 30
0.0
 11
125.0
 21
1.000000000000113
 31
0.0
1001
PHOENIX7010
1002
{
1070
    62
1070
     1
1070
    41
1040
1.0
1002
}
  0
LINE
  5
4F5
102
{ACAD_REACTORS
330
4FF
102
}
330
18
100
AcDbEntity
  8
0
  6
Continuous
 62
     1
100
AcDbLine
 10
419.0
 20
1.000000000000113
 30
0.0
 11
1.0
 21
1.000000000000113
 31
0.0
1001
PHOENIX7010
1002
{
1070
    62
1070
     1
1070
    41
1040
1.0
1002
}
  0
LINE
  5
4F6
102
{ACAD_REACTORS
330
4FF
102
}
330
18
100
AcDbEntity
  8
0
  6
Continuous
 62
     1
100
AcDbLine
 10
1.0
 20
1.000000000000113
 30
0.0
 11
1.0
 21
296.0000000000001
 31
0.0
1001
PHOENIX7010
1002
{
1070
    62
1070
     1
1070
    41
1040
1.0
1002
}
  0
LINE
  5
4F7
102
{ACAD_REACTORS
330
4FF
102
}
330
18
100
AcDbEntity
  8
0
  6
Continuous
 62
     1
100
AcDbLine
 10
1.0
 20
296.0000000000001
 30
0.0
 11
419.0
 21
296.0000000000001
 31
0.0
1001
PHOENIX7010
1002
{
1070
    62
1070
     1
1070
    41
1040
1.0
1002
}
  0
LINE
  5
4F8
102
{ACAD_REACTORS
330
4FF
102
}
330
18
100
AcDbEntity
  8
0
  6
Continuous
 62
     1
100
AcDbLine
 10
419.0
 20
296.0000000000001
 30
0.0
 11
419.0
 21
1.000000000000113
 31
0.0
1001
PHOENIX7010
1002
{
1070
    62
1070
     1
1070
    41
1040
1.0
1002
}
  0
LINE
  5
4F9
102
{ACAD_REACTORS
330
4FF
102
}
330
18
100
AcDbEntity
  8
0
  6
Continuous
 62
     3
100
AcDbLine
 10
20.0
 20
5.000000000000113
 30
0.0
 11
20.0
 21
292.0000000000001
 31
0.0
1001
PHOENIX7010
1002
{
1070
    62
1070
     3
1070
    41
1040
1.0
1002
}
  0
LINE
  5
4FA
102
{ACAD_REACTORS
330
4FF
102
}
330
18
100
AcDbEntity
  8
0
  6
Continuous
 62
     3
100
AcDbLine
 10
20.0
 20
292.0000000000001
 30
0.0
 11
415.0
 21
292.0000000000001
 31
0.0
1001
PHOENIX7010
1002
{
1070
    62
1070
     3
1070
    41
1040
1.0
1002
}
  0
LINE
  5
4FB
102
{ACAD_REACTORS
330
4FF
102
}
330
18
100
AcDbEntity
  8
0
  6
Continuous
 62
     3
100
AcDbLine
 10
415.0
 20
292.0000000000001
 30
0.0
 11
415.0
 21
5.000000000000113
 31
0.0
1001
PHOENIX7010
1002
{
1070
    62
1070
     3
1070
    41
1040
1.0
1002
}
  0
MTEXT
  5
4FC
102
{ACAD_REACTORS
330
4FF
102
}
330
18
100
AcDbEntity
  8
0
  6
Continuous
 62
     7
370
    50
100
AcDbMText
 10
19.70248718641096
 20
55.39351207913341
 30
0.0
 40
2.0
 41
0.0
 71
     7
 72
     5
  1
{\T1.1;\C1;"Schutzvermerk nach DIN ISO 16016 beachten" \Q20;"Please pay attention to copyright note DIN ISO 16016"}
 11
0.0000000000000002
 21
1.0
 31
0.0
 73
     1
 44
1.0
1001
PHOENIX7010
1002
{
1070
    41
1040
1.0
1002
}
1001
ACAD
1000
MTEXTBEGIN
1070
    73
1070
     1
1070
    44
1040
1.0
1070
    74
1070
     0
1000
MTEXTEND
  0
INSERT
  5
4FD
102
{ACAD_REACTORS
330
4FF
102
}
330
18
100
AcDbEntity
  8
0
  6
Continuous
 62
     1
100
AcDbBlockReference
  2
PH_GRPBLK
 10
230.0
 20
5.000000000000113
 30
0.0
1001
PHOENIX7010
1002
{
1070
    41
1040
1.0
1002
}
  0
HATCH
  5
504
102
{ACAD_REACTORS
330
54C
102
}
330
18
100
AcDbEntity
  8
0
  6
Continuous
 62
     1
370
    25
100
AcDbHatch
 10
0.0
 20
0.0
 30
0.0
210
0.0
220
0.0
230
1.0
  2
_U
 70
     0
 71
     1
 91
        1
 92
        0
 93
        5
 72
     1
 10
407.4334749940253
 20
35.16453811398049
 11
400.7334749940254
 21
27.36453811398042
 72
     1
 10
400.7334749940254
 20
27.36453811398042
 11
412.7334749940255
 21
27.36453811398042
 72
     1
 10
412.7334749940255
 20
27.36453811398042
 11
412.7334749940255
 21
35.16453811398049
 72
     1
 10
412.7334749940255
 20
35.16453811398037
 11
407.4334749940253
 21
28.26453811398051
 72
     1
 10
407.4334749940253
 20
28.26453811398051
 11
407.4334749940253
 21
35.16453811398049
 97
        1
330
547
 75
     0
 76
     0
 52
45.0
 41
0.1
 77
     0
 78
     1
 53
45.0
 43
0.0
 44
-32.08885297207042
 45
-0.0707106781186548
 46
0.0707106781186548
 79
     0
 98
        1
 10
0.0
 20
-32.08885297207042
1001
PHOENIX7010
1002
{
1070
    41
1040
1.0
1002
}
  0
HATCH
  5
505
102
{ACAD_REACTORS
330
54C
102
}
330
18
100
AcDbEntity
  8
0
  6
Continuous
 62
     1
370
    25
100
AcDbHatch
 10
0.0
 20
0.0
 30
0.0
210
0.0
220
0.0
230
1.0
  2
_U
 70
     0
 71
     1
 91
        1
 92
        0
 93
        3
 72
     1
 10
399.8834749940256
 20
27.36453811398042
 11
399.8834749940256
 21
31.51453811398039
 72
     1
 10
399.8834749940256
 20
31.51453811398039
 11
404.0334749940257
 21
31.51453811398039
 72
     2
 10
399.8834749940256
 20
31.51453811398039
 40
4.149999999999977
 50
0.0000000000001962
 51
270.0
 73
     1
 97
        1
330
548
 75
     0
 76
     0
 52
45.0
 41
0.65
 77
     0
 78
     1
 53
45.0
 43
0.0
 44
-32.08885297207042
 45
-0.4596194077712559
 46
0.459619407771256
 79
     0
 98
        1
 10
0.0
 20
-32.08885297207042
1001
PHOENIX7010
1002
{
1070
    41
1040
1.0
1002
}
  0
LINE
  5
506
102
{ACAD_REACTORS
330
54C
102
}
330
18
100
AcDbEntity
  8
0
  6
Continuous
 62
     7
370
    50
100
AcDbLine
 10
400.7334749940254
 20
27.36453811398042
 30
0.0
 11
412.7334749940255
 21
27.36453811398042
 31
0.0
1001
PHOENIX7010
1002
{
1070
    41
1040
1.0
1002
}
  0
LINE
  5
507
102
{ACAD_REACTORS
330
54C
102
}
330
18
100
AcDbEntity
  8
0
  6
Continuous
 62
     7
370
    50
100
AcDbLine
 10
412.7334749940255
 20
27.36453811398042
 30
0.0
 11
412.7334749940255
 21
35.16453811398037
 31
0.0
1001
PHOENIX7010
1002
{
1070
    41
1040
1.0
1002
}
  0
LINE
  5
508
102
{ACAD_REACTORS
330
54C
102
}
330
18
100
AcDbEntity
  8
0
  6
Continuous
 62
     7
370
    50
100
AcDbLine
 10
407.4334749940253
 20
28.26453811398039
 30
0.0
 11
407.4334749940253
 21
35.16453811398037
 31
0.0
1001
PHOENIX7010
1002
{
1070
    41
1040
1.0
1002
}
  0
LINE
  5
509
102
{ACAD_REACTORS
330
54C
102
}
330
18
100
AcDbEntity
  8
0
  6
Continuous
 62
     7
370
    50
100
AcDbLine
 10
407.4334749940253
 20
35.16453811398037
 30
0.0
 11
400.7334749940254
 21
27.36453811398042
 31
0.0
1001
PHOENIX7010
1002
{
1070
    41
1040
1.0
1002
}
  0
LINE
  5
50A
102
{ACAD_REACTORS
330
54C
102
}
330
18
100
AcDbEntity
  8
0
  6
Continuous
 62
     7
370
    50
100
AcDbLine
 10
412.7334749940255
 20
35.16453811398037
 30
0.0
 11
407.4334749940253
 21
28.26453811398039
 31
0.0
1001
PHOENIX7010
1002
{
1070
    41
1040
1.0
1002
}
  0
INSERT
  5
50B
102
{ACAD_REACTORS
330
54C
102
}
330
18
100
AcDbEntity
  8
0
  6
Continuous
 62
     1
370
    25
100
AcDbBlockReference
  2
PH_GRPBLK
 10
400.7334749940254
 20
27.36453811398042
 30
0.0
1001
PHOENIX7010
1002
{
1070
    41
1040
1.0
1002
}
  0
MTEXT
  5
50C
102
{ACAD_REACTORS
330
54D
102
}
330
18
100
AcDbEntity
  8
0
  6
Continuous
 62
     7
370
    50
100
AcDbMText
 10
381.0842366554657
 20
17.88346060003152
 30
0.0
 40
1.6
 41
0.0
 71
     7
 72
     5
  1
{\fArial|b0|i0|c0|p34;\W1.1;\C1;A Phoenix Mecano Company}
 73
     1
 44
1.0
1001
PHOENIX7010
1002
{
1070
    41
1040
1.0
1002
}
1001
ACAD
1000
MTEXTBEGIN
1070
    73
1070
     1
1070
    44
1040
1.0
1070
    74
1070
     0
1000
MTEXTEND
  0
MTEXT
  5
50D
102
{ACAD_XDICTIONARY
360
9B8
102
}
102
{ACAD_REACTORS
330
54D
102
}
330
18
100
AcDbEntity
  8
0
  6
Continuous
 62
     7
370
    50
100
AcDbMText
 10
393.565880717586
 20
21.46517927327739
 30
0.0
 40
3.7
 41
0.0
 71
     7
 72
     5
  1
{\fArial|b1|i0|c0|p34;\W1.1;BOPLA}
 73
     1
 44
1.135135135135135
1001
PHOENIX7010
1002
{
1070
    41
1040
1.0
1002
}
1001
ACAD
1000
MTEXTBEGIN
1070
    73
1070
     1
1070
    44
1040
1.135135135135135
1070
    74
1070
     0
1000
MTEXTEND
  0
INSERT
  5
50E
102
{ACAD_REACTORS
330
54D
102
}
330
18
100
AcDbEntity
  8
0
  6
Continuous
 62
     7
370
    50
100
AcDbBlockReference
  2
PH_GRPBLK
 10
400.7334749940254
 20
27.36453811398042
 30
0.0
1001
PHOENIX7010
1002
{
1070
    41
1040
1.0
1002
}
  0
MTEXT
  5
50F
102
{ACAD_REACTORS
330
54E
102
}
330
18
100
AcDbEntity
  8
0
  6
Continuous
 62
     5
370
    35
100
AcDbMText
 10
318.9304981780733
 20
52.18090043987126
 30
0.0
 40
3.5
 41
0.0
 71
     7
 72
     5
  1
{\C7;Katalogzeichnung/\Q20;Catalogue drawing}
 73
     1
 44
1.0
1001
PHOENIX7010
1002
{
1070
    41
1040
1.0
1002
}
1001
ACAD
1000
MTEXTBEGIN
1070
    73
1070
     1
1070
    44
1040
1.0
1070
    74
1070
     0
1000
MTEXTEND
  0
MTEXT
  5
510
102
{ACAD_REACTORS
330
54E
102
}
330
18
100
AcDbEntity
  8
0
  6
Continuous
 62
     5
370
    35
100
AcDbMText
 10
318.9304981780733
 20
59.18090043987127
 30
0.0
 40
4.0
 41
0.0
 71
     7
 72
     5
  1
{\C7;PF/M 000 . . - OD}
 73
     1
 44
1.0
1001
PHOENIX7010
1002
{
1070
    41
1040
1.0
1002
}
1001
ACAD
1000
MTEXTBEGIN
1070
    73
1070
     1
1070
    44
1040
1.0
1070
    74
1070
     0
1000
MTEXTEND
  0
MTEXT
  5
511
102
{ACAD_REACTORS
330
54E
102
}
330
18
100
AcDbEntity
  8
0
  6
Continuous
 62
     5
370
    35
100
AcDbMText
 10
318.9304981780733
 20
66.18090043987127
 30
0.0
 40
4.0
 41
0.0
 71
     7
 72
     5
  1
{\C7;Interzoll Modul}
 73
     1
 44
1.0
1001
PHOENIX7010
1002
{
1070
    41
1040
1.0
1002
}
1001
ACAD
1000
MTEXTBEGIN
1070
    73
1070
     1
1070
    44
1040
1.0
1070
    74
1070
     0
1000
MTEXTEND
  0
MTEXT
  5
512
102
{ACAD_REACTORS
330
54E
102
}
330
18
100
AcDbEntity
  8
0
  6
Continuous
 62
     5
370
    35
100
AcDbMText
 10
340.3074630969177
 20
95.1987580068237
 30
0.0
 40
4.0
 41
0.0
 71
     7
 72
     5
  1
{\C7;2:1}
 73
     1
 44
1.0
1001
PHOENIX7010
1002
{
1070
    41
1040
1.0
1002
}
1001
ACAD
1000
MTEXTBEGIN
1070
    73
1070
     1
1070
    44
1040
1.0
1070
    74
1070
     0
1000
MTEXTEND
  0
MTEXT
  5
513
102
{ACAD_REACTORS
330
54E
102
}
330
18
100
AcDbEntity
  8
0
  6
Continuous
 62
     5
370
    35
100
AcDbMText
 10
319.2942762589885
 20
94.24669079255114
 30
0.0
 40
2.5
 41
0.0
 71
     7
 72
     5
  1
{\C1;Maßstab/\P\Q20;Scale:}
 73
     1
 44
1.0
1001
PHOENIX7010
1002
{
1070
    41
1040
1.0
1002
}
1001
ACAD
1000
MTEXTBEGIN
1070
    73
1070
     1
1070
    44
1040
1.0
1070
    74
1070
     0
1000
MTEXTEND
  0
MTEXT
  5
514
102
{ACAD_REACTORS
330
54E
102
}
330
18
100
AcDbEntity
  8
0
  6
Continuous
 62
     5
370
    35
100
AcDbMText
 10
319.5702130763932
 20
86.578461793006
 30
0.0
 40
3.0
 41
0.0
 71
     7
 72
     5
  1
Zeichnungs-Nr. / {\Q20;Drawing-No.:}
 73
     1
 44
1.0
1001
PHOENIX7010
1002
{
1070
    41
1040
1.0
1002
}
1001
ACAD
1000
MTEXTBEGIN
1070
    73
1070
     1
1070
    44
1040
1.0
1070
    74
1070
     0
1000
MTEXTEND
  0
MTEXT
  5
515
102
{ACAD_REACTORS
330
54E
102
}
330
18
100
AcDbEntity
  8
0
  6
Continuous
 62
     5
370
    35
100
AcDbMText
 10
340.681094216935
 20
80.43630467405568
 30
0.0
 40
4.0
 41
0.0
 71
     7
 72
     5
  1
{\C7;3K 5315.021.02}
 73
     1
 44
1.0
1001
PHOENIX7010
1002
{
1070
    41
1040
1.0
1002
}
1001
ACAD
1000
MTEXTBEGIN
1070
    73
1070
     1
1070
    44
1040
1.0
1070
    74
1070
     0
1000
MTEXTEND
  0
MTEXT
  5
516
102
{ACAD_REACTORS
330
54E
102
}
330
18
100
AcDbEntity
  8
0
  6
Continuous
 62
     5
370
    35
100
AcDbMText
 10
318.8800602381664
 20
72.42896167163713
 30
0.0
 40
4.0
 41
0.0
 71
     7
 72
     5
  1
{\C7;Artikel / \Q20;Article:}
 73
     1
 44
1.0
1001
PHOENIX7010
1002
{
1070
    41
1040
1.0
1002
}
1001
ACAD
1000
MTEXTBEGIN
1070
    73
1070
     1
1070
    44
1040
1.0
1070
    74
1070
     0
1000
MTEXTEND
  0
MTEXT
  5
517
102
{ACAD_REACTORS
330
54E
102
}
330
18
100
AcDbEntity
  8
0
  6
Continuous
 62
     5
370
    35
100
AcDbMText
 10
329.5918340418984
 20
15.32304279191089
 30
0.0
 40
2.0
 41
0.0
 71
     7
 72
     5
  1
{\C1;Datum/\P\Q20;Date:}
 73
     1
 44
1.0
1001
PHOENIX7010
1002
{
1070
    41
1040
1.0
1002
}
1001
ACAD
1000
MTEXTBEGIN
1070
    73
1070
     1
1070
    44
1040
1.0
1070
    74
1070
     0
1000
MTEXTEND
  0
MTEXT
  5
518
102
{ACAD_REACTORS
330
54E
102
}
330
18
100
AcDbEntity
  8
0
  6
Continuous
 62
     5
370
    35
100
AcDbMText
 10
316.167758256943
 20
15.32303913053624
 30
0.0
 40
2.0
 41
0.0
 71
     7
 72
     5
  1
{\C1;Ä.Nr/\P\Q20;Alt-No.:}
 73
     1
 44
1.0
1001
PHOENIX7010
1002
{
1070
    41
1040
1.0
1002
}
1001
ACAD
1000
MTEXTBEGIN
1070
    73
1070
     1
1070
    44
1040
1.0
1070
    74
1070
     0
1000
MTEXTEND
  0
MTEXT
  5
519
102
{ACAD_REACTORS
330
54E
102
}
330
18
100
AcDbEntity
  8
0
  6
Continuous
 62
     5
370
    35
100
AcDbMText
 10
342.2178658257171
 20
10.60592166613935
 30
0.0
 40
2.5
 41
0.0
 71
     7
 72
     5
  1
2 901 831
 73
     1
 44
1.0
1001
PHOENIX7010
1002
{
1070
    41
1040
1.0
1002
}
1001
ACAD
1000
MTEXTBEGIN
1070
    73
1070
     1
1070
    44
1040
1.0
1070
    74
1070
     0
1000
MTEXTEND
  0
MTEXT
  5
51A
102
{ACAD_REACTORS
330
54E
102
}
330
18
100
AcDbEntity
  8
0
  6
Continuous
 62
     5
370
    35
100
AcDbMText
 10
316.5289912646938
 20
10.49475527098116
 30
0.0
 40
2.5
 41
0.0
 71
     7
 72
     5
  1
DISK:
 73
     1
 44
1.0
1001
PHOENIX7010
1002
{
1070
    41
1040
1.0
1002
}
1001
ACAD
1000
MTEXTBEGIN
1070
    73
1070
     1
1070
    44
1040
1.0
1070
    74
1070
     0
1000
MTEXTEND
  0
MTEXT
  5
51B
102
{ACAD_REACTORS
330
54E
102
}
330
18
100
AcDbEntity
  8
0
  6
Continuous
 62
     5
370
    35
100
AcDbMText
 10
342.2178658257171
 20
6.248887523187704
 30
0.0
 40
2.5
 41
0.0
 71
     7
 72
     5
  1
18.06.99 HR
 73
     1
 44
1.0
1001
PHOENIX7010
1002
{
1070
    41
1040
1.0
1002
}
1001
ACAD
1000
MTEXTBEGIN
1070
    73
1070
     1
1070
    44
1040
1.0
1070
    74
1070
     0
1000
MTEXTEND
  0
MTEXT
  5
51C
102
{ACAD_REACTORS
330
54E
102
}
330
18
100
AcDbEntity
  8
0
  6
Continuous
 62
     5
370
    35
100
AcDbMText
 10
316.5289912646938
 20
6.248887523187704
 30
0.0
 40
2.5
 41
0.0
 71
     7
 72
     5
  1
Datum/{\Q20;Date:}
 73
     1
 44
1.0
1001
PHOENIX7010
1002
{
1070
    41
1040
1.0
1002
}
1001
ACAD
1000
MTEXTBEGIN
1070
    73
1070
     1
1070
    44
1040
1.0
1070
    74
1070
     0
1000
MTEXTEND
  0
LINE
  5
51D
102
{ACAD_REACTORS
330
54E
102
}
330
18
100
AcDbEntity
  8
0
  6
Continuous
 62
     5
370
    35
100
AcDbLine
 10
314.9999999999998
 20
14.50000000000023
 30
0.0
 11
415.0
 21
14.50000000000023
 31
0.0
1001
PHOENIX7010
1002
{
1070
    41
1040
1.0
1002
}
  0
LINE
  5
51E
102
{ACAD_REACTORS
330
54E
102
}
330
18
100
AcDbEntity
  8
0
  6
Continuous
 62
     5
100
AcDbLine
 10
405.4999999999999
 20
92.50000000000012
 30
0.0
 11
405.4999999999999
 21
99.50000000000011
 31
0.0
1001
PHOENIX7010
1002
{
1070
    62
1070
     5
1070
    41
1040
1.0
1002
}
  0
LINE
  5
51F
102
{ACAD_REACTORS
330
54E
102
}
330
18
100
AcDbEntity
  8
0
  6
ACAD_ISO04W100
 62
     1
 48
0.1451612903225806
100
AcDbLine
 10
410.5
 20
91.50000000000011
 30
0.0
 11
410.5
 21
100.5000000000001
 31
0.0
1001
PHOENIX7010
1002
{
1070
    62
1070
     1
1070
    41
1040
1.0
1002
}
  0
CIRCLE
  5
520
102
{ACAD_REACTORS
330
54E
102
}
330
18
100
AcDbEntity
  8
0
  6
Continuous
 62
     5
100
AcDbCircle
 10
410.5
 20
96.00000000000012
 30
0.0
 40
1.75
1001
PHOENIX7010
1002
{
1070
    62
1070
     5
1070
    41
1040
1.0
1002
}
  0
CIRCLE
  5
521
102
{ACAD_REACTORS
330
54E
102
}
330
18
100
AcDbEntity
  8
0
  6
Continuous
 62
     5
100
AcDbCircle
 10
410.5
 20
96.00000000000012
 30
0.0
 40
3.5
1001
PHOENIX7010
1002
{
1070
    62
1070
     5
1070
    41
1040
1.0
1002
}
  0
LINE
  5
522
102
{ACAD_REACTORS
330
54E
102
}
330
18
100
AcDbEntity
  8
0
  6
Continuous
 62
     5
100
AcDbLine
 10
398.5
 20
94.25000000000011
 30
0.0
 11
398.5
 21
97.75000000000012
 31
0.0
1001
PHOENIX7010
1002
{
1070
    62
1070
     5
1070
    41
1040
1.0
1002
}
  0
LINE
  5
523
102
{ACAD_REACTORS
330
54E
102
}
330
18
100
AcDbEntity
  8
0
  6
ACAD_ISO04W100
 62
     1
 48
0.282258064516129
100
AcDbLine
 10
415.0
 20
96.00000000000012
 30
0.0
 11
397.5
 21
96.00000000000012
 31
0.0
1001
PHOENIX7010
1002
{
1070
    62
1070
     1
1070
    41
1040
1.0
1002
}
  0
LINE
  5
524
102
{ACAD_REACTORS
330
54E
102
}
330
18
100
AcDbEntity
  8
0
  6
Continuous
 62
     5
100
AcDbLine
 10
405.4999999999999
 20
92.50000000000012
 30
0.0
 11
398.5
 21
94.25000000000011
 31
0.0
1001
PHOENIX7010
1002
{
1070
    62
1070
     5
1070
    41
1040
1.0
1002
}
  0
LINE
  5
525
102
{ACAD_REACTORS
330
54E
102
}
330
18
100
AcDbEntity
  8
0
  6
Continuous
 62
     5
100
AcDbLine
 10
405.4999999999999
 20
99.50000000000011
 30
0.0
 11
398.5
 21
97.75000000000012
 31
0.0
1001
PHOENIX7010
1002
{
1070
    62
1070
     5
1070
    41
1040
1.0
1002
}
  0
ARC
  5
526
102
{ACAD_REACTORS
330
54E
102
}
330
18
100
AcDbEntity
  8
0
  6
Continuous
 62
     5
100
AcDbCircle
 10
317.4999999999998
 20
89.00000000000011
 30
0.0
 40
2.5
100
AcDbArc
 50
90.0
 51
180.0
1001
PHOENIX7010
1002
{
1070
    62
1070
     5
1070
    41
1040
1.0
1002
}
  0
ARC
  5
527
102
{ACAD_REACTORS
330
54E
102
}
330
18
100
AcDbEntity
  8
0
  6
Continuous
 62
     5
100
AcDbCircle
 10
317.4999999999998
 20
100.0000000000001
 30
0.0
 40
2.5
100
AcDbArc
 50
90.0
 51
180.0
1001
PHOENIX7010
1002
{
1070
    62
1070
     5
1070
    41
1040
1.0
1002
}
  0
LINE
  5
528
102
{ACAD_REACTORS
330
54E
102
}
330
18
100
AcDbEntity
  8
0
  6
Continuous
 62
     5
100
AcDbLine
 10
415.0
 20
91.50000000000011
 30
0.0
 11
317.4999999999998
 21
91.50000000000011
 31
0.0
1001
PHOENIX7010
1002
{
1070
    62
1070
     5
1070
    41
1040
1.0
1002
}
  0
LINE
  5
529
102
{ACAD_REACTORS
330
54E
102
}
330
18
100
AcDbEntity
  8
0
  6
Continuous
 62
     5
100
AcDbLine
 10
415.0
 20
102.5000000000001
 30
0.0
 11
317.4999999999998
 21
102.5000000000001
 31
0.0
1001
PHOENIX7010
1002
{
1070
    62
1070
     5
1070
    41
1040
1.0
1002
}
  0
LINE
  5
52A
102
{ACAD_REACTORS
330
54E
102
}
330
18
100
AcDbEntity
  8
0
  6
Continuous
 62
     5
100
AcDbLine
 10
350.0
 20
48.00000000000022
 30
0.0
 11
350.0
 21
14.50000000000023
 31
0.0
1001
PHOENIX7010
1002
{
1070
    62
1070
     5
1070
    41
1040
1.0
1002
}
  0
TEXT
  5
52B
102
{ACAD_REACTORS
330
54E
102
}
330
18
100
AcDbEntity
  8
0
  6
Continuous
 62
     1
100
AcDbText
 10
328.9999996997321
 20
42.74999981501366
 30
0.0
 40
2.0
  1
-
 41
1.5
100
AcDbText
1001
PHOENIX7010
1002
{
1070
    62
1070
     1
1070
    41
1040
1.0
1002
}
  0
TEXT
  5
52C
102
{ACAD_REACTORS
330
54E
102
}
330
18
100
AcDbEntity
  8
0
  6
Continuous
 62
     1
100
AcDbText
 10
328.9999996997321
 20
40.24999981501366
 30
0.0
 40
2.0
  1
-
 41
1.5
100
AcDbText
1001
PHOENIX7010
1002
{
1070
    62
1070
     1
1070
    41
1040
1.0
1002
}
  0
TEXT
  5
52D
102
{ACAD_REACTORS
330
54E
102
}
330
18
100
AcDbEntity
  8
0
  6
Continuous
 62
     1
100
AcDbText
 10
328.9999996997321
 20
45.24999981501366
 30
0.0
 40
2.0
  1
-
 41
1.5
100
AcDbText
1001
PHOENIX7010
1002
{
1070
    62
1070
     1
1070
    41
1040
1.0
1002
}
  0
TEXT
  5
52E
102
{ACAD_REACTORS
330
54E
102
}
330
18
100
AcDbEntity
  8
0
  6
Continuous
 62
     1
100
AcDbText
 10
315.9999996997324
 20
42.74999981501366
 30
0.0
 40
2.0
  1
-
 41
1.5
100
AcDbText
1001
PHOENIX7010
1002
{
1070
    62
1070
     1
1070
    41
1040
1.0
1002
}
  0
TEXT
  5
52F
102
{ACAD_REACTORS
330
54E
102
}
330
18
100
AcDbEntity
  8
0
  6
Continuous
 62
     1
100
AcDbText
 10
315.9999996997324
 20
40.24999981501366
 30
0.0
 40
2.0
  1
-
 41
1.5
100
AcDbText
1001
PHOENIX7010
1002
{
1070
    62
1070
     1
1070
    41
1040
1.0
1002
}
  0
TEXT
  5
530
102
{ACAD_REACTORS
330
54E
102
}
330
18
100
AcDbEntity
  8
0
  6
Continuous
 62
     1
100
AcDbText
 10
315.9999996997324
 20
45.24999981501366
 30
0.0
 40
2.0
  1
-
 41
1.5
100
AcDbText
1001
PHOENIX7010
1002
{
1070
    62
1070
     1
1070
    41
1040
1.0
1002
}
  0
ARC
  5
531
102
{ACAD_REACTORS
330
54E
102
}
330
18
100
AcDbEntity
  8
0
  6
Continuous
 62
     5
100
AcDbCircle
 10
317.4999999999998
 20
45.50000000000022
 30
0.0
 40
2.5
100
AcDbArc
 50
90.0
 51
180.0
1001
PHOENIX7010
1002
{
1070
    62
1070
     5
1070
    41
1040
1.0
1002
}
  0
ARC
  5
532
102
{ACAD_REACTORS
330
54E
102
}
330
18
100
AcDbEntity
  8
0
  6
Continuous
 62
     5
100
AcDbCircle
 10
317.4999999999998
 20
76.00000000000022
 30
0.0
 40
2.5
100
AcDbArc
 50
90.0
 51
180.0
1001
PHOENIX7010
1002
{
1070
    62
1070
     5
1070
    41
1040
1.0
1002
}
  0
TEXT
  5
533
102
{ACAD_REACTORS
330
54E
102
}
330
18
100
AcDbEntity
  8
0
  6
Continuous
 62
     1
100
AcDbText
 10
328.9999996997321
 20
25.24999981501367
 30
0.0
 40
2.0
  1
-
 41
1.5
100
AcDbText
1001
PHOENIX7010
1002
{
1070
    62
1070
     1
1070
    41
1040
1.0
1002
}
  0
TEXT
  5
534
102
{ACAD_REACTORS
330
54E
102
}
330
18
100
AcDbEntity
  8
0
  6
Continuous
 62
     1
100
AcDbText
 10
328.9999996997321
 20
22.74999981501367
 30
0.0
 40
2.0
  1
07.03.2014
 41
1.5
100
AcDbText
1001
PHOENIX7010
1002
{
1070
    62
1070
     1
1070
    41
1040
1.0
1002
}
  0
TEXT
  5
535
102
{ACAD_REACTORS
330
54E
102
}
330
18
100
AcDbEntity
  8
0
  6
Continuous
 62
     1
100
AcDbText
 10
328.9999996997321
 20
30.24999981501367
 30
0.0
 40
2.0
  1
-
 41
1.5
100
AcDbText
1001
PHOENIX7010
1002
{
1070
    62
1070
     1
1070
    41
1040
1.0
1002
}
  0
TEXT
  5
536
102
{ACAD_REACTORS
330
54E
102
}
330
18
100
AcDbEntity
  8
0
  6
Continuous
 62
     1
100
AcDbText
 10
328.9999996997321
 20
27.74999981501367
 30
0.0
 40
2.0
  1
-
 41
1.5
100
AcDbText
1001
PHOENIX7010
1002
{
1070
    62
1070
     1
1070
    41
1040
1.0
1002
}
  0
TEXT
  5
537
102
{ACAD_REACTORS
330
54E
102
}
330
18
100
AcDbEntity
  8
0
  6
Continuous
 62
     1
100
AcDbText
 10
328.9999996997321
 20
32.74999981501367
 30
0.0
 40
2.0
  1
-
 41
1.5
100
AcDbText
1001
PHOENIX7010
1002
{
1070
    62
1070
     1
1070
    41
1040
1.0
1002
}
  0
TEXT
  5
538
102
{ACAD_REACTORS
330
54E
102
}
330
18
100
AcDbEntity
  8
0
  6
Continuous
 62
     1
100
AcDbText
 10
328.9999996997321
 20
35.24999981501367
 30
0.0
 40
2.0
  1
-
 41
1.5
100
AcDbText
1001
PHOENIX7010
1002
{
1070
    62
1070
     1
1070
    41
1040
1.0
1002
}
  0
TEXT
  5
539
102
{ACAD_REACTORS
330
54E
102
}
330
18
100
AcDbEntity
  8
0
  6
Continuous
 62
     1
100
AcDbText
 10
328.9999996997321
 20
37.74999981501367
 30
0.0
 40
2.0
  1
-
 41
1.5
100
AcDbText
1001
PHOENIX7010
1002
{
1070
    62
1070
     1
1070
    41
1040
1.0
1002
}
  0
TEXT
  5
53A
102
{ACAD_REACTORS
330
54E
102
}
330
18
100
AcDbEntity
  8
0
  6
Continuous
 62
     1
100
AcDbText
 10
315.9999996997324
 20
25.24999981501367
 30
0.0
 40
2.0
  1
-
 41
1.5
100
AcDbText
1001
PHOENIX7010
1002
{
1070
    62
1070
     1
1070
    41
1040
1.0
1002
}
  0
TEXT
  5
53B
102
{ACAD_REACTORS
330
54E
102
}
330
18
100
AcDbEntity
  8
0
  6
Continuous
 62
     1
100
AcDbText
 10
315.9999996997324
 20
22.74999981501367
 30
0.0
 40
2.0
  1
4086
 41
1.5
100
AcDbText
1001
PHOENIX7010
1002
{
1070
    62
1070
     1
1070
    41
1040
1.0
1002
}
  0
TEXT
  5
53C
102
{ACAD_REACTORS
330
54E
102
}
330
18
100
AcDbEntity
  8
0
  6
Continuous
 62
     1
100
AcDbText
 10
315.9999996997324
 20
30.24999981501367
 30
0.0
 40
2.0
  1
-
 41
1.5
100
AcDbText
1001
PHOENIX7010
1002
{
1070
    62
1070
     1
1070
    41
1040
1.0
1002
}
  0
TEXT
  5
53D
102
{ACAD_REACTORS
330
54E
102
}
330
18
100
AcDbEntity
  8
0
  6
Continuous
 62
     1
100
AcDbText
 10
315.9999996997324
 20
27.74999981501367
 30
0.0
 40
2.0
  1
-
 41
1.5
100
AcDbText
1001
PHOENIX7010
1002
{
1070
    62
1070
     1
1070
    41
1040
1.0
1002
}
  0
TEXT
  5
53E
102
{ACAD_REACTORS
330
54E
102
}
330
18
100
AcDbEntity
  8
0
  6
Continuous
 62
     1
100
AcDbText
 10
315.9999996997324
 20
32.74999981501367
 30
0.0
 40
2.0
  1
-
 41
1.5
100
AcDbText
1001
PHOENIX7010
1002
{
1070
    62
1070
     1
1070
    41
1040
1.0
1002
}
  0
TEXT
  5
53F
102
{ACAD_REACTORS
330
54E
102
}
330
18
100
AcDbEntity
  8
0
  6
Continuous
 62
     1
100
AcDbText
 10
315.9999996997324
 20
35.24999981501367
 30
0.0
 40
2.0
  1
-
 41
1.5
100
AcDbText
1001
PHOENIX7010
1002
{
1070
    62
1070
     1
1070
    41
1040
1.0
1002
}
  0
TEXT
  5
540
102
{ACAD_REACTORS
330
54E
102
}
330
18
100
AcDbEntity
  8
0
  6
Continuous
 62
     1
100
AcDbText
 10
315.9999996997324
 20
37.74999981501367
 30
0.0
 40
2.0
  1
-
 41
1.5
100
AcDbText
1001
PHOENIX7010
1002
{
1070
    62
1070
     1
1070
    41
1040
1.0
1002
}
  0
LINE
  5
541
102
{ACAD_REACTORS
330
54E
102
}
330
18
100
AcDbEntity
  8
0
  6
Continuous
 62
     1
100
AcDbLine
 10
328.0
 20
48.00000000000022
 30
0.0
 11
328.0
 21
14.50000000000023
 31
0.0
1001
PHOENIX7010
1002
{
1070
    62
1070
     1
1070
    41
1040
1.0
1002
}
  0
LINE
  5
542
102
{ACAD_REACTORS
330
54E
102
}
330
18
100
AcDbEntity
  8
0
  6
Continuous
 62
     1
100
AcDbLine
 10
314.9999999999998
 20
21.50000000000023
 30
0.0
 11
350.0
 21
21.50000000000023
 31
0.0
1001
PHOENIX7010
1002
{
1070
    62
1070
     1
1070
    41
1040
1.0
1002
}
  0
LINE
  5
543
102
{ACAD_REACTORS
330
54E
102
}
330
18
100
AcDbEntity
  8
0
  6
Continuous
 62
     5
100
AcDbLine
 10
415.0
 20
78.50000000000022
 30
0.0
 11
317.4999999999998
 21
78.50000000000022
 31
0.0
1001
PHOENIX7010
1002
{
1070
    62
1070
     5
1070
    41
1040
1.0
1002
}
  0
LINE
  5
544
102
{ACAD_REACTORS
330
54E
102
}
330
18
100
AcDbEntity
  8
0
  6
Continuous
 62
     5
100
AcDbLine
 10
415.0
 20
48.00000000000022
 30
0.0
 11
317.4999999999998
 21
48.00000000000022
 31
0.0
1001
PHOENIX7010
1002
{
1070
    62
1070
     5
1070
    41
1040
1.0
1002
}
  0
LINE
  5
545
102
{ACAD_REACTORS
330
54E
102
}
330
18
100
AcDbEntity
  8
0
  6
Continuous
 62
     5
100
AcDbLine
 10
314.9999999999998
 20
100.0000000000001
 30
0.0
 11
314.9999999999998
 21
5.000000000000227
 31
0.0
1001
PHOENIX7010
1002
{
1070
    62
1070
     5
1070
    41
1040
1.0
1002
}
  0
INSERT
  5
546
102
{ACAD_REACTORS
330
54E
102
}
330
18
100
AcDbEntity
  8
0
  6
Continuous
 62
     5
370
    35
100
AcDbBlockReference
  2
PH_GRPBLK
 10
314.9999999999998
 20
14.50000000000023
 30
0.0
1001
PHOENIX7010
1002
{
1070
    41
1040
1.0
1002
}
  0
LWPOLYLINE
  5
547
102
{ACAD_REACTORS
330
504
102
}
330
18
100
AcDbEntity
  8
0
  6
Continuous
 62
     7
 60
     1
370
    50
100
AcDbPolyline
 90
        5
 70
     1
 43
0.0
 10
407.4334749940253
 20
35.16453811398049
 10
400.7334749940254
 20
27.36453811398042
 10
412.7334749940255
 20
27.36453811398042
 10
412.7334749940255
 20
35.16453811398037
 10
407.4334749940253
 20
28.26453811398051
1001
PHOENIX7010
1002
{
1070
    41
1040
1.0
1002
}
  0
LWPOLYLINE
  5
548
102
{ACAD_REACTORS
330
505
102
}
330
18
100
AcDbEntity
  8
0
  6
Continuous
 62
     7
 60
     1
370
    50
100
AcDbPolyline
 90
        3
 70
     1
 43
0.0
 10
399.8834749940256
 20
27.36453811398042
 10
399.8834749940256
 20
31.51453811398039
 10
404.0334749940257
 20
31.51453811398039
 42
2.414213562373094
1001
PHOENIX7010
1002
{
1070
    41
1040
1.0
1002
}
  0
LINE
  5
764
102
{ACAD_REACTORS
330
76F
102
}
330
18
100
AcDbEntity
  8
0
  6
Continuous
 62
     1
100
AcDbLine
 10
28.74333880214022
 20
20.93675935878525
 30
0.0
 11
160.6753181688307
 21
20.93675935878525
 31
0.0
1001
PHOENIX7010
1002
{
1070
    41
1040
1.0
1070
    62
1070
     1
1002
}
  0
LINE
  5
765
102
{ACAD_REACTORS
330
76F
102
}
330
18
100
AcDbEntity
  8
0
  6
Continuous
 62
     1
100
AcDbLine
 10
28.74333880214022
 20
12.60675935878544
 30
0.0
 11
160.6753181688307
 21
12.60675935878544
 31
0.0
1001
PHOENIX7010
1002
{
1070
    41
1040
1.0
1070
    62
1070
     1
1002
}
  0
LINE
  5
766
102
{ACAD_REACTORS
330
76F
102
}
330
18
100
AcDbEntity
  8
0
  6
Continuous
 62
     1
100
AcDbLine
 10
28.74333880214022
 20
29.2667593587853
 30
0.0
 11
160.6753181688307
 21
29.2667593587853
 31
0.0
1001
PHOENIX7010
1002
{
1070
    41
1040
1.0
1070
    62
1070
     1
1002
}
  0
LINE
  5
767
102
{ACAD_REACTORS
330
76F
102
}
330
18
100
AcDbEntity
  8
0
  6
Continuous
 62
     1
100
AcDbLine
 10
28.74333880214022
 20
37.59675935878522
 30
0.0
 11
160.6753181688307
 21
37.59675935878522
 31
0.0
1001
PHOENIX7010
1002
{
1070
    41
1040
1.0
1070
    62
1070
     1
1002
}
  0
MTEXT
  5
768
102
{ACAD_REACTORS
330
76F
102
}
330
18
100
AcDbEntity
  8
0
  6
Continuous
 62
     5
100
AcDbMText
 10
31.36119002026726
 20
44.66978808453132
 30
0.0
 40
5.0
 41
86.59961566179914
 71
     1
 72
     5
  1
Modell\PPF/M 00042-OD\PPF/M 00063-OD\PPF/M 00084-OD
 73
     1
 44
1.0
1001
PHOENIX7010
1002
{
1070
    41
1040
1.0
1070
    62
1070
     5
1002
}
1001
ACAD
1000
MTEXTBEGIN
1070
    73
1070
     1
1070
    44
1040
1.0
1070
    74
1070
     0
1000
MTEXTEND
  0
MTEXT
  5
769
102
{ACAD_REACTORS
330
76F
102
}
330
18
100
AcDbEntity
  8
0
  6
Continuous
 62
     5
100
AcDbMText
 10
99.86995592338031
 20
44.66978808453132
 30
0.0
 40
5.0
 41
55.0
 71
     1
 72
     5
  1
TE\P42\P63\P84
 73
     1
 44
1.0
1001
PHOENIX7010
1002
{
1070
    41
1040
1.0
1070
    62
1070
     5
1002
}
1001
ACAD
1000
MTEXTBEGIN
1070
    73
1070
     1
1070
    44
1040
1.0
1070
    74
1070
     0
1000
MTEXTEND
  0
MTEXT
  5
76A
102
{ACAD_REACTORS
330
76F
102
}
330
18
100
AcDbEntity
  8
0
  6
Continuous
 62
     5
100
AcDbMText
 10
119.6800048490806
 20
44.66978808453132
 30
0.0
 40
5.0
 41
55.0
 71
     1
 72
     5
  1
Länge/Length\P218,44\P325,12\P431,80
 73
     1
 44
1.0
1001
PHOENIX7010
1002
{
1070
    41
1040
1.0
1070
    62
1070
     5
1002
}
1001
ACAD
1000
MTEXTBEGIN
1070
    73
1070
     1
1070
    44
1040
1.0
1070
    74
1070
     0
1000
MTEXTEND
  0
LINE
  5
76B
102
{ACAD_REACTORS
330
76F
102
}
330
18
100
AcDbEntity
  8
0
  6
Continuous
 62
     1
100
AcDbLine
 10
117.0621536309536
 20
12.60675935878544
 30
0.0
 11
117.0621536309536
 21
45.63262278445074
 31
0.0
1001
PHOENIX7010
1002
{
1070
    41
1040
1.0
1070
    62
1070
     1
1002
}
  0
LINE
  5
76C
102
{ACAD_REACTORS
330
76F
102
}
330
18
100
AcDbEntity
  8
0
  6
Continuous
 62
     1
100
AcDbLine
 10
92.82091072613821
 20
12.60675935878544
 30
0.0
 11
92.82091072613821
 21
45.63262278445074
 31
0.0
1001
PHOENIX7010
1002
{
1070
    41
1040
1.0
1070
    62
1070
     1
1002
}
  0
INSERT
  5
76D
102
{ACAD_REACTORS
330
76F
102
}
330
18
100
AcDbEntity
  8
0
  6
Continuous
 62
     1
100
AcDbBlockReference
  2
PH_GRPBLK
 10
28.74333880214022
 20
20.93675935878525
 30
0.0
1001
PHOENIX7010
1002
{
1070
    41
1040
1.0
1002
}
  0
PDFUNDERLAY
  5
97F
330
18
100
AcDbEntity
  8
0
  6
ACAD_ISO05W100
 62
     7
 92
        8
310
0800000000000000
370
    50
100
AcDbUnderlayReference
340
97E
 10
262.0269717969313
 20
119.784651655028
 30
0.0
 41
9.0
 42
9.0
 43
9.0
281
   100
282
     0
  0
ENDSEC
  0
SECTION
  2
OBJECTS
  0
DICTIONARY
  5
C
330
0
100
AcDbDictionary
281
     1
  3
ACAD_COLOR
350
4D2
  3
ACAD_GROUP
350
D
  3
ACAD_LAYOUT
350
4E9
  3
ACAD_MATERIAL
350
4A5
  3
ACAD_MLEADERSTYLE
350
4E7
  3
ACAD_MLINESTYLE
350
1B
  3
ACAD_PDFDEFINITIONS
350
628
  3
ACAD_PLOTSETTINGS
350
4EA
  3
ACAD_PLOTSTYLENAME
350
4A3
  3
ACAD_SCALELIST
350
4D5
  3
ACAD_TABLESTYLE
350
4D3
  3
ACAD_VISUALSTYLE
350
4BE
  3
ACDB_RECOMPOSE_DATA
350
9BA
  3
AcDbVariableDictionary
350
6ED
  3
AEC_PROPERTY_SET_DEFS
350
500
  3
DWGPROPS
350
9BB
  3
PH_OBJREACTOR_DICT
350
229
  3
PH_ROOTGROUP_DICT
350
21F
  3
PH_VARS
350
21E
  0
DICTIONARY
  5
6BC
330
8
100
AcDbDictionary
280
     1
281
     1
  0
DICTIONARY
  5
502
330
2
100
AcDbDictionary
280
     1
281
     1
  3
ACAD_LAYERSTATES
360
503
  0
DICTIONARY
  5
5D9
330
E
100
AcDbDictionary
280
     1
281
     1
  3
ADSK_XREC_LAYER_RECONCILED
360
5DA
  0
DICTIONARY
  5
5DB
330
21
100
AcDbDictionary
280
     1
281
     1
  3
ADSK_XREC_LAYER_RECONCILED
360
5DC
  0
DICTIONARY
  5
5DD
330
76
100
AcDbDictionary
280
     1
281
     1
  3
ADSK_XREC_LAYER_RECONCILED
360
5DE
  0
DICTIONARY
  5
5DF
330
78
100
AcDbDictionary
280
     1
281
     1
  3
ADSK_XREC_LAYER_RECONCILED
360
5E0
  0
DICTIONARY
  5
5E1
330
141
100
AcDbDictionary
280
     1
281
     1
  3
ADSK_XREC_LAYER_RECONCILED
360
5E2
  0
DICTIONARY
  5
5E3
330
1BD
100
AcDbDictionary
280
     1
281
     1
  3
ADSK_XREC_LAYER_RECONCILED
360
5E4
  0
DICTIONARY
  5
5E5
330
245
100
AcDbDictionary
280
     1
281
     1
  3
ADSK_XREC_LAYER_RECONCILED
360
5E6
  0
DICTIONARY
  5
9B8
330
50D
100
AcDbDictionary
280
     1
281
     1
  3
ACAD_MTEXT_2008_RT
360
9B9
  0
DICTIONARY
  5
4D2
102
{ACAD_REACTORS
330
C
102
}
330
C
100
AcDbDictionary
281
     1
  0
DICTIONARY
  5
D
102
{ACAD_REACTORS
330
C
102
}
330
C
100
AcDbDictionary
281
     1
  3
$$$$$$$$_BZA45776
350
137
  3
$$$$$$$$_RAHMEN
350
14F
  3
_GF_XXXX_2KOPF
350
1E7
  3
_GF_XXXX_BZA45776
350
EA
  3
_GF_XXXX_RAHMEN
350
190
  3
_MD_XXXX_BZA45776
350
13F
  3
_VV_XXXX_RAHMEN
350
14B
  3
_ZU_XXXX_RAHMEN
350
1BC
  3
DINA4H_BZA45776
350
20
  3
POLYLINE_31
350
216
  0
DICTIONARY
  5
4E9
102
{ACAD_REACTORS
330
C
102
}
330
C
100
AcDbDictionary
281
     1
  3
Layout1
350
4EC
  3
Model
350
4EB
  0
DICTIONARY
  5
4A5
102
{ACAD_REACTORS
330
C
102
}
330
C
100
AcDbDictionary
281
     1
  3
ByBlock
350
4AE
  3
ByLayer
350
4A6
  3
Global
350
4B6
  0
DICTIONARY
  5
4E7
102
{ACAD_REACTORS
330
C
102
}
330
C
100
AcDbDictionary
281
     1
  3
Standard
350
4E8
  0
DICTIONARY
  5
1B
102
{ACAD_REACTORS
330
C
102
}
330
C
100
AcDbDictionary
281
     1
  3
STANDARD
350
1C
  0
DICTIONARY
  5
628
102
{ACAD_REACTORS
330
C
102
}
330
C
100
AcDbDictionary
281
     1
  3
2901831 - 1
350
97E
  3
86542310_PF-M_IZM_OD-RED BOOK - 1
350
62A
  0
DICTIONARY
  5
4EA
102
{ACAD_REACTORS
330
C
102
}
330
C
100
AcDbDictionary
281
     1
  0
ACDBDICTIONARYWDFLT
  5
4A3
102
{ACAD_REACTORS
330
C
102
}
330
C
100
AcDbDictionary
281
     1
  3
Normal
350
4A4
100
AcDbDictionaryWithDefault
340
4A4
  0
DICTIONARY
  5
4D5
102
{ACAD_REACTORS
330
C
102
}
330
C
100
AcDbDictionary
281
     1
  3
A0
350
4D6
  3
A1
350
4D7
  3
A2
350
4D8
  3
A3
350
4D9
  3
A4
350
4DA
  3
A5
350
4DB
  3
A6
350
4DC
  3
A7
350
4DD
  3
A8
350
4DE
  3
A9
350
4DF
  3
B0
350
4E0
  3
B1
350
4E1
  3
B2
350
4E2
  3
B3
350
4E3
  3
B4
350
4E4
  3
B5
350
4E5
  3
B6
350
4E6
  0
DICTIONARY
  5
4D3
102
{ACAD_REACTORS
330
C
102
}
330
C
100
AcDbDictionary
281
     1
  3
Standard
350
4D4
  0
DICTIONARY
  5
4BE
102
{ACAD_REACTORS
330
C
102
}
330
C
100
AcDbDictionary
281
     1
  3
2dWireframe
350
4C4
  3
3D Hidden
350
4C6
  3
3dWireframe
350
4C5
  3
Basic
350
4C3
  3
Brighten
350
4CA
  3
ColorChange
350
4CE
  3
Conceptual
350
4C7
  3
Dim
350
4C9
  3
EdgeColorOff
350
4D1
  3
Facepattern
350
4CD
  3
Flat
350
4BF
  3
FlatWithEdges
350
4C0
  3
Gouraud
350
4C1
  3
GouraudWithEdges
350
4C2
  3
JitterOff
350
4CF
  3
Linepattern
350
4CC
  3
OverhangOff
350
4D0
  3
Realistic
350
4C8
  3
Thicken
350
4CB
  0
XRECORD
  5
9BA
102
{ACAD_REACTORS
330
C
102
}
330
C
100
AcDbXrecord
280
     1
 90
        1
330
4D4
330
50D
  0
DICTIONARY
  5
6ED
102
{ACAD_REACTORS
330
C
102
}
330
C
100
AcDbDictionary
281
     1
  3
CANNOSCALE
350
6F0
  3
CMLEADERSTYLE
350
6EF
  3
CTABLESTYLE
350
6EE
  3
DIMASSOC
350
6F3
  3
INDEXCTL
350
6F2
  3
SORTENTS
350
6F1
  3
XCLIPFRAME
350
9B6
  0
DICTIONARY
  5
500
102
{ACAD_REACTORS
330
C
102
}
330
C
100
AcDbDictionary
281
     1
  0
XRECORD
  5
9BB
102
{ACAD_REACTORS
330
C
102
}
330
C
100
AcDbXrecord
280
     1
  1
DWGPROPS COOKIE
  2

  3

  4

  6

  7

  8
nowak
  9

300
=
301
=
302
=
303
=
304
=
305
=
306
=
307
=
308
=
309
=
 40
0.0489179050925926
 41
2451306.659226227
 42
2456784.307532569
  1

 90
        0
  0
DICTIONARY
  5
229
102
{ACAD_REACTORS
330
C
102
}
330
C
100
AcDbDictionary
281
     1
  0
DICTIONARY
  5
21F
102
{ACAD_REACTORS
330
C
102
}
330
C
100
AcDbDictionary
281
     1
  3
$PH$AAAD3H
350
4FE
  3
$PH$AAAECandP
350
549
  3
$PH$AAAFwer
350
76E
  0
PH_VARS
  5
21E
102
{ACAD_REACTORS
330
C
102
}
330
C
  0
DICTIONARY
  5
503
102
{ACAD_REACTORS
330
502
102
}
330
502
100
AcDbDictionary
281
     1
  0
XRECORD
  5
5DA
102
{ACAD_REACTORS
330
5D9
102
}
330
5D9
100
AcDbXrecord
280
     1
290
     1
  0
XRECORD
  5
5DC
102
{ACAD_REACTORS
330
5DB
102
}
330
5DB
100
AcDbXrecord
280
     1
290
     1
  0
XRECORD
  5
5DE
102
{ACAD_REACTORS
330
5DD
102
}
330
5DD
100
AcDbXrecord
280
     1
290
     1
  0
XRECORD
  5
5E0
102
{ACAD_REACTORS
330
5DF
102
}
330
5DF
100
AcDbXrecord
280
     1
290
     1
  0
XRECORD
  5
5E2
102
{ACAD_REACTORS
330
5E1
102
}
330
5E1
100
AcDbXrecord
280
     1
290
     1
  0
XRECORD
  5
5E4
102
{ACAD_REACTORS
330
5E3
102
}
330
5E3
100
AcDbXrecord
280
     1
290
     1
  0
XRECORD
  5
5E6
102
{ACAD_REACTORS
330
5E5
102
}
330
5E5
100
AcDbXrecord
280
     1
290
     1
  0
XRECORD
  5
9B9
102
{ACAD_REACTORS
330
9B8
102
}
330
9B8
100
AcDbXrecord
280
     1
 40
46997.0
  1
\pxql;{\fArial|b1|i0|c0|p34;\W1.1;BOPLA}
  0
GROUP
  5
137
102
{ACAD_REACTORS
330
D
102
}
330
D
100
AcDbGroup
300
V11:16009:********
 70
     0
 71
     1
  0
GROUP
  5
14F
102
{ACAD_REACTORS
330
D
102
}
330
D
100
AcDbGroup
300
V11:16022:********
 70
     0
 71
     1
  0
GROUP
  5
1E7
102
{ACAD_REACTORS
330
D
102
}
330
D
100
AcDbGroup
300
V11:16035:_GF_XXXX
 70
     0
 71
     1
  0
GROUP
  5
EA
102
{ACAD_REACTORS
330
D
102
}
330
D
100
AcDbGroup
300
V11:15994:_GF_XXXX
 70
     0
 71
     1
  0
GROUP
  5
190
102
{ACAD_REACTORS
330
D
102
}
330
D
100
AcDbGroup
300
V11:16028:_GF_XXXX
 70
     0
 71
     1
  0
GROUP
  5
13F
102
{ACAD_REACTORS
330
D
102
}
330
D
100
AcDbGroup
300
V11:16010:_MD_XXXX
 70
     0
 71
     1
  0
GROUP
  5
14B
102
{ACAD_REACTORS
330
D
102
}
330
D
100
AcDbGroup
300
V11:16016:_VV_XXXX
 70
     0
 71
     1
  0
GROUP
  5
1BC
102
{ACAD_REACTORS
330
D
102
}
330
D
100
AcDbGroup
300
V11:16032:_ZU_XXXX
 70
     0
 71
     1
  0
GROUP
  5
20
102
{ACAD_REACTORS
330
D
102
}
330
D
100
AcDbGroup
300
V11:15957:DINA4H
 70
     0
 71
     1
  0
GROUP
  5
216
102
{ACAD_REACTORS
330
D
102
}
330
D
100
AcDbGroup
300
V11:16037:POLYLINE
 70
     0
 71
     1
  0
LAYOUT
  5
4EC
102
{ACAD_XDICTIONARY
360
9E8
102
}
102
{ACAD_REACTORS
330
4E9
102
}
330
4E9
100
AcDbPlotSettings
  1

  2
RICOH Aficio MP W2400 RPCS
  4

  6

 40
0.0
 41
0.0
 42
0.0
 43
0.0
 44
0.0
 45
0.0
 46
0.0
 47
0.0
 48
0.0
 49
0.0
140
0.0
141
0.0
142
1.0
143
1.0
 70
   688
 72
     0
 73
     0
 74
     5
  7
HP_Farbe_Dünn.ctb
 75
    16
147
1.0
148
0.0
149
0.0
100
AcDbLayout
  1
Layout1
 70
     1
 71
     1
 10
0.0
 20
0.0
 11
420.0
 21
297.0
 12
0.0
 22
0.0
 32
0.0
 14
1.000000000000000E+20
 24
1.000000000000000E+20
 34
1.000000000000000E+20
 15
-1.000000000000000E+20
 25
-1.000000000000000E+20
 35
-1.000000000000000E+20
146
0.0
 13
0.0
 23
0.0
 33
0.0
 16
1.0
 26
0.0
 36
0.0
 17
0.0
 27
1.0
 37
0.0
 76
     0
330
15
  0
LAYOUT
  5
4EB
102
{ACAD_XDICTIONARY
360
9E6
102
}
102
{ACAD_REACTORS
330
4E9
102
}
330
4E9
100
AcDbPlotSettings
  1

  2
RICOH Aficio MP W2400 RPCS
  4
A4
  6

 40
5.027082920074462
 41
5.027099609375
 42
5.027069091796875
 43
5.027069091796875
 44
209.9733276367187
 45
296.9259948730469
 46
0.0
 47
0.0
 48
0.0
 49
0.0
140
0.0
141
0.0
142
1.0
143
2.719903076873245
 70
 11952
 72
     1
 73
     1
 74
     0
  7
HP_Farbe_Dünn.ctb
 75
     0
147
0.3676601598427482
148
84.08962515564667
149
49.96805271271444
100
AcDbLayout
  1
Model
 70
     1
 71
     0
 10
0.0
 20
0.0
 11
12.0
 21
9.0
 12
0.0
 22
0.0
 32
0.0
 14
0.0
 24
0.0
 34
0.0
 15
0.0
 25
0.0
 35
0.0
146
0.0
 13
0.0
 23
0.0
 33
0.0
 16
1.0
 26
0.0
 36
0.0
 17
0.0
 27
1.0
 37
0.0
 76
     0
330
18
331
4A1
1001
ACAD_PSEXT
1000
RICOH Aficio MP W2400 RPCS
1000
RICOH Aficio MP W2400 RPCS
1000
192.168.49.64
1000

1070
     0
  0
MATERIAL
  5
4AE
102
{ACAD_XDICTIONARY
360
4AF
102
}
102
{ACAD_REACTORS
330
4A5
102
}
330
4A5
100
AcDbMaterial
  1
ByBlock
 72
     0
 43
0.0208333333333333
 43
0.0
 43
0.0
 43
0.0
 43
0.0
 43
0.0208333333333333
 43
0.0
 43
0.0
 43
0.0
 43
0.0
 43
1.0
 43
0.0
 43
0.0
 43
0.0
 43
0.0
 43
1.0
 77
     0
 47
0.0208333333333333
 47
0.0
 47
0.0
 47
0.0
 47
0.0
 47
0.0208333333333333
 47
0.0
 47
0.0
 47
0.0
 47
0.0
 47
1.0
 47
0.0
 47
0.0
 47
0.0
 47
0.0
 47
1.0
171
     0
 49
0.0208333333333333
 49
0.0
 49
0.0
 49
0.0
 49
0.0
 49
0.0208333333333333
 49
0.0
 49
0.0
 49
0.0
 49
0.0
 49
1.0
 49
0.0
 49
0.0
 49
0.0
 49
0.0
 49
1.0
175
     0
142
0.0208333333333333
142
0.0
142
0.0
142
0.0
142
0.0
142
0.0208333333333333
142
0.0
142
0.0
142
0.0
142
0.0
142
1.0
142
0.0
142
0.0
142
0.0
142
0.0
142
1.0
179
     0
144
0.0208333333333333
144
0.0
144
0.0
144
0.0
144
0.0
144
0.0208333333333333
144
0.0
144
0.0
144
0.0
144
0.0
144
1.0
144
0.0
144
0.0
144
0.0
144
0.0
144
1.0
147
0.0208333333333333
147
0.0
147
0.0
147
0.0
147
0.0
147
0.0208333333333333
147
0.0
147
0.0
147
0.0
147
0.0
147
1.0
147
0.0
147
0.0
147
0.0
147
0.0
147
1.0
  0
MATERIAL
  5
4A6
102
{ACAD_XDICTIONARY
360
4A7
102
}
102
{ACAD_REACTORS
330
4A5
102
}
330
4A5
100
AcDbMaterial
  1
ByLayer
 72
     0
 43
0.0208333333333333
 43
0.0
 43
0.0
 43
0.0
 43
0.0
 43
0.0208333333333333
 43
0.0
 43
0.0
 43
0.0
 43
0.0
 43
1.0
 43
0.0
 43
0.0
 43
0.0
 43
0.0
 43
1.0
 77
     0
 47
0.0208333333333333
 47
0.0
 47
0.0
 47
0.0
 47
0.0
 47
0.0208333333333333
 47
0.0
 47
0.0
 47
0.0
 47
0.0
 47
1.0
 47
0.0
 47
0.0
 47
0.0
 47
0.0
 47
1.0
171
     0
 49
0.0208333333333333
 49
0.0
 49
0.0
 49
0.0
 49
0.0
 49
0.0208333333333333
 49
0.0
 49
0.0
 49
0.0
 49
0.0
 49
1.0
 49
0.0
 49
0.0
 49
0.0
 49
0.0
 49
1.0
175
     0
142
0.0208333333333333
142
0.0
142
0.0
142
0.0
142
0.0
142
0.0208333333333333
142
0.0
142
0.0
142
0.0
142
0.0
142
1.0
142
0.0
142
0.0
142
0.0
142
0.0
142
1.0
179
     0
144
0.0208333333333333
144
0.0
144
0.0
144
0.0
144
0.0
144
0.0208333333333333
144
0.0
144
0.0
144
0.0
144
0.0
144
1.0
144
0.0
144
0.0
144
0.0
144
0.0
144
1.0
147
0.0208333333333333
147
0.0
147
0.0
147
0.0
147
0.0
147
0.0208333333333333
147
0.0
147
0.0
147
0.0
147
0.0
147
1.0
147
0.0
147
0.0
147
0.0
147
0.0
147
1.0
  0
MATERIAL
  5
4B6
102
{ACAD_XDICTIONARY
360
4B7
102
}
102
{ACAD_REACTORS
330
4A5
102
}
330
4A5
100
AcDbMaterial
  1
Global
 72
     0
 43
0.0208333333333333
 43
0.0
 43
0.0
 43
0.0
 43
0.0
 43
0.0208333333333333
 43
0.0
 43
0.0
 43
0.0
 43
0.0
 43
1.0
 43
0.0
 43
0.0
 43
0.0
 43
0.0
 43
1.0
 77
     0
 47
0.0208333333333333
 47
0.0
 47
0.0
 47
0.0
 47
0.0
 47
0.0208333333333333
 47
0.0
 47
0.0
 47
0.0
 47
0.0
 47
1.0
 47
0.0
 47
0.0
 47
0.0
 47
0.0
 47
1.0
171
     0
 49
0.0208333333333333
 49
0.0
 49
0.0
 49
0.0
 49
0.0
 49
0.0208333333333333
 49
0.0
 49
0.0
 49
0.0
 49
0.0
 49
1.0
 49
0.0
 49
0.0
 49
0.0
 49
0.0
 49
1.0
175
     0
142
0.0208333333333333
142
0.0
142
0.0
142
0.0
142
0.0
142
0.0208333333333333
142
0.0
142
0.0
142
0.0
142
0.0
142
1.0
142
0.0
142
0.0
142
0.0
142
0.0
142
1.0
179
     0
144
0.0208333333333333
144
0.0
144
0.0
144
0.0
144
0.0
144
0.0208333333333333
144
0.0
144
0.0
144
0.0
144
0.0
144
1.0
144
0.0
144
0.0
144
0.0
144
0.0
144
1.0
147
0.0208333333333333
147
0.0
147
0.0
147
0.0
147
0.0
147
0.0208333333333333
147
0.0
147
0.0
147
0.0
147
0.0
147
1.0
147
0.0
147
0.0
147
0.0
147
0.0
147
1.0
  0
MLEADERSTYLE
  5
4E8
102
{ACAD_REACTORS
330
4E7
102
}
330
4E7
100
AcDbMLeaderStyle
170
     2
171
     1
172
     0
 90
        2
 40
0.0
 41
0.0
173
     1
 91
-1056964608
340
12
 92
       -2
290
     1
 42
2.0
291
     1
 43
0.36
  3
Standard
 44
4.0
300

342
F
174
     1
178
     6
175
     1
176
     0
 93
-1056964608
 45
4.0
292
     0
297
     0
 46
4.0
 94
-1056964608
 47
1.0
 49
1.0
140
1.0
293
     1
141
0.0
294
     1
177
     0
142
1.0
295
     0
296
     0
143
0.125
1001
ACAD_MLEADERVER
1070
     2
  0
MLINESTYLE
  5
1C
102
{ACAD_REACTORS
330
1B
102
}
330
1B
100
AcDbMlineStyle
  2
STANDARD
 70
     0
  3

 62
   256
 51
90.0
 52
90.0
 71
     2
 49
0.5
 62
   256
  6
BYLAYER
 49
-0.5
 62
   256
  6
BYLAYER
  0
PDFDEFINITION
  5
97E
102
{ACAD_REACTORS
330
628
330
97F
102
}
330
628
100
AcDbUnderlayDefinition
  1
F:\User\Daten\DWG\nc2\nc29\2901831.pdf
  2
1
  0
PDFDEFINITION
  5
62A
102
{ACAD_REACTORS
330
628
330
62B
102
}
330
628
100
AcDbUnderlayDefinition
  1
F:\User\Daten\DWG\Anw\RN\NEUE KATALOGZG\Interzoll Modul\NEUE NC2-KatalogZG\86542310_PF-M_IZM_OD-RED BOOK.pdf
  2
1
  0
ACDBPLACEHOLDER
  5
4A4
102
{ACAD_REACTORS
330
4A3
102
}
330
4A3
  0
SCALE
  5
4D6
102
{ACAD_REACTORS
330
4D5
102
}
330
4D5
100
AcDbScale
 70
     0
300
1:1
140
1.0
141
1.0
290
     1
  0
SCALE
  5
4D7
102
{ACAD_REACTORS
330
4D5
102
}
330
4D5
100
AcDbScale
 70
     0
300
1:2
140
1.0
141
2.0
290
     0
  0
SCALE
  5
4D8
102
{ACAD_REACTORS
330
4D5
102
}
330
4D5
100
AcDbScale
 70
     0
300
1:4
140
1.0
141
4.0
290
     0
  0
SCALE
  5
4D9
102
{ACAD_REACTORS
330
4D5
102
}
330
4D5
100
AcDbScale
 70
     0
300
1:5
140
1.0
141
5.0
290
     0
  0
SCALE
  5
4DA
102
{ACAD_REACTORS
330
4D5
102
}
330
4D5
100
AcDbScale
 70
     0
300
1:8
140
1.0
141
8.0
290
     0
  0
SCALE
  5
4DB
102
{ACAD_REACTORS
330
4D5
102
}
330
4D5
100
AcDbScale
 70
     0
300
1:10
140
1.0
141
10.0
290
     0
  0
SCALE
  5
4DC
102
{ACAD_REACTORS
330
4D5
102
}
330
4D5
100
AcDbScale
 70
     0
300
1:16
140
1.0
141
16.0
290
     0
  0
SCALE
  5
4DD
102
{ACAD_REACTORS
330
4D5
102
}
330
4D5
100
AcDbScale
 70
     0
300
1:20
140
1.0
141
20.0
290
     0
  0
SCALE
  5
4DE
102
{ACAD_REACTORS
330
4D5
102
}
330
4D5
100
AcDbScale
 70
     0
300
1:30
140
1.0
141
30.0
290
     0
  0
SCALE
  5
4DF
102
{ACAD_REACTORS
330
4D5
102
}
330
4D5
100
AcDbScale
 70
     0
300
1:40
140
1.0
141
40.0
290
     0
  0
SCALE
  5
4E0
102
{ACAD_REACTORS
330
4D5
102
}
330
4D5
100
AcDbScale
 70
     0
300
1:50
140
1.0
141
50.0
290
     0
  0
SCALE
  5
4E1
102
{ACAD_REACTORS
330
4D5
102
}
330
4D5
100
AcDbScale
 70
     0
300
1:100
140
1.0
141
100.0
290
     0
  0
SCALE
  5
4E2
102
{ACAD_REACTORS
330
4D5
102
}
330
4D5
100
AcDbScale
 70
     0
300
2:1
140
2.0
141
1.0
290
     0
  0
SCALE
  5
4E3
102
{ACAD_REACTORS
330
4D5
102
}
330
4D5
100
AcDbScale
 70
     0
300
4:1
140
4.0
141
1.0
290
     0
  0
SCALE
  5
4E4
102
{ACAD_REACTORS
330
4D5
102
}
330
4D5
100
AcDbScale
 70
     0
300
8:1
140
8.0
141
1.0
290
     0
  0
SCALE
  5
4E5
102
{ACAD_REACTORS
330
4D5
102
}
330
4D5
100
AcDbScale
 70
     0
300
10:1
140
10.0
141
1.0
290
     0
  0
SCALE
  5
4E6
102
{ACAD_REACTORS
330
4D5
102
}
330
4D5
100
AcDbScale
 70
     0
300
100:1
140
100.0
141
1.0
290
     0
  0
TABLESTYLE
  5
4D4
102
{ACAD_XDICTIONARY
360
6B6
102
}
102
{ACAD_REACTORS
330
4D3
102
}
330
4D3
100
AcDbTableStyle
  3
Standard
 70
     0
 71
     0
 40
1.5
 41
1.5
280
     0
281
     0
  7
STANDARD
140
4.5
170
     2
 62
     0
 63
     7
283
     0
274
    -2
284
     1
 64
     0
275
    -2
285
     1
 65
     0
276
    -2
286
     1
 66
     0
277
    -2
287
     1
 67
     0
278
    -2
288
     1
 68
     0
279
    -2
289
     1
 69
     0
  7
STANDARD
140
6.0
170
     5
 62
     0
 63
     7
283
     0
274
    -2
284
     1
 64
     0
275
    -2
285
     1
 65
     0
276
    -2
286
     1
 66
     0
277
    -2
287
     1
 67
     0
278
    -2
288
     1
 68
     0
279
    -2
289
     1
 69
     0
  7
STANDARD
140
4.5
170
     5
 62
     0
 63
     7
283
     0
274
    -2
284
     1
 64
     0
275
    -2
285
     1
 65
     0
276
    -2
286
     1
 66
     0
277
    -2
287
     1
 67
     0
278
    -2
288
     1
 68
     0
279
    -2
289
     1
 69
     0
  0
VISUALSTYLE
  5
4C4
102
{ACAD_XDICTIONARY
360
9C9
102
}
102
{ACAD_REACTORS
330
4BE
102
}
330
4BE
100
AcDbVisualStyle
  2
2dWireframe
 70
     4
 71
     0
 72
     2
 73
     0
 90
        0
 40
-0.6
 41
-30.0
 62
     5
 63
     7
 74
     1
 91
        4
 64
     7
 65
   257
 75
     1
175
     1
 42
1.0
 92
        0
 66
   257
 43
1.0
 76
     1
 77
     6
 78
     2
 67
     7
 79
     5
170
     0
171
     0
290
     0
174
     0
 93
        1
 44
0.0
173
     0
291
     0
 45
0.0
1001
ACAD
1000
AcDbSavedByObjectVersion
1070
     0
  0
VISUALSTYLE
  5
4C6
102
{ACAD_XDICTIONARY
360
9CD
102
}
102
{ACAD_REACTORS
330
4BE
102
}
330
4BE
100
AcDbVisualStyle
  2
3D Hidden
 70
     6
 71
     1
 72
     2
 73
     2
 90
        0
 40
-0.6
 41
-30.0
 62
     5
 63
     7
 74
     2
 91
        2
 64
     7
 65
   257
 75
     2
175
     1
 42
179.0
 92
        0
 66
   257
 43
1.0
 76
     1
 77
     6
 78
     2
 67
     7
 79
     3
170
     0
171
     0
290
     0
174
     0
 93
        1
 44
0.0
173
     0
291
     0
 45
0.0
1001
ACAD
1000
AcDbSavedByObjectVersion
1070
     0
  0
VISUALSTYLE
  5
4C5
102
{ACAD_XDICTIONARY
360
9CB
102
}
102
{ACAD_REACTORS
330
4BE
102
}
330
4BE
100
AcDbVisualStyle
  2
3dWireframe
 70
     5
 71
     0
 72
     2
 73
     0
 90
        0
 40
-0.6
 41
-30.0
 62
     5
 63
     7
 74
     1
 91
        4
 64
     7
 65
   257
 75
     1
175
     1
 42
1.0
 92
        0
 66
   257
 43
1.0
 76
     1
 77
     6
 78
     2
 67
     7
 79
     5
170
     0
171
     0
290
     0
174
     0
 93
        1
 44
0.0
173
     0
291
     0
 45
0.0
1001
ACAD
1000
AcDbSavedByObjectVersion
1070
     0
  0
VISUALSTYLE
  5
4C3
102
{ACAD_XDICTIONARY
360
9C7
102
}
102
{ACAD_REACTORS
330
4BE
102
}
330
4BE
100
AcDbVisualStyle
  2
Basic
 70
     7
 71
     1
 72
     0
 73
     1
 90
        0
 40
-0.6
 41
-30.0
 62
     5
 63
     7
 74
     0
 91
        4
 64
     7
 65
   257
 75
     1
175
     1
 42
1.0
 92
        8
 66
     7
 43
1.0
 76
     1
 77
     6
 78
     2
 67
     7
 79
     5
170
     0
171
     0
290
     0
174
     0
 93
        1
 44
0.0
173
     0
291
     1
 45
0.0
1001
ACAD
1000
AcDbSavedByObjectVersion
1070
     0
  0
VISUALSTYLE
  5
4CA
102
{ACAD_XDICTIONARY
360
9D5
102
}
102
{ACAD_REACTORS
330
4BE
102
}
330
4BE
100
AcDbVisualStyle
  2
Brighten
 70
    12
 71
     2
 72
     2
 73
     0
 90
        0
 40
-0.6
 41
-30.0
 62
     5
 63
     7
 74
     1
 91
        4
 64
     7
 65
   257
 75
     1
175
     1
 42
1.0
 92
        8
 66
     7
 43
1.0
 76
     1
 77
     6
 78
     2
 67
     7
 79
     5
170
     0
171
     0
290
     0
174
     0
 93
        1
 44
50.0
173
     0
291
     1
 45
0.0
1001
ACAD
1000
AcDbSavedByObjectVersion
1070
     0
  0
VISUALSTYLE
  5
4CE
102
{ACAD_XDICTIONARY
360
9DD
102
}
102
{ACAD_REACTORS
330
4BE
102
}
330
4BE
100
AcDbVisualStyle
  2
ColorChange
 70
    16
 71
     2
 72
     2
 73
     3
 90
        0
 40
-0.6
 41
-30.0
 62
     5
 63
     8
 74
     1
 91
        4
 64
     7
 65
   257
 75
     1
175
     1
 42
1.0
 92
        8
 66
     8
 43
1.0
 76
     1
 77
     6
 78
     2
 67
     7
 79
     5
170
     0
171
     0
290
     0
174
     0
 93
        1
 44
0.0
173
     0
291
     1
 45
0.0
1001
ACAD
1000
AcDbSavedByObjectVersion
1070
     0
  0
VISUALSTYLE
  5
4C7
102
{ACAD_XDICTIONARY
360
9CF
102
}
102
{ACAD_REACTORS
330
4BE
102
}
330
4BE
100
AcDbVisualStyle
  2
Conceptual
 70
     9
 71
     3
 72
     2
 73
     0
 90
        0
 40
-0.6
 41
-30.0
 62
     5
 63
     7
 74
     2
 91
        2
 64
     7
 65
   257
 75
     1
175
     1
 42
179.0
 92
        8
 66
     7
 43
1.0
 76
     1
 77
     6
 78
     2
 67
     7
 79
     3
170
     0
171
     0
290
     0
174
     0
 93
        1
 44
0.0
173
     0
291
     0
 45
0.0
1001
ACAD
1000
AcDbSavedByObjectVersion
1070
     0
  0
VISUALSTYLE
  5
4C9
102
{ACAD_XDICTIONARY
360
9D3
102
}
102
{ACAD_REACTORS
330
4BE
102
}
330
4BE
100
AcDbVisualStyle
  2
Dim
 70
    11
 71
     2
 72
     2
 73
     0
 90
        0
 40
-0.6
 41
-30.0
 62
     5
 63
     7
 74
     1
 91
        4
 64
     7
 65
   257
 75
     1
175
     1
 42
1.0
 92
        8
 66
     7
 43
1.0
 76
     1
 77
     6
 78
     2
 67
     7
 79
     5
170
     0
171
     0
290
     0
174
     0
 93
        1
 44
-50.0
173
     0
291
     1
 45
0.0
1001
ACAD
1000
AcDbSavedByObjectVersion
1070
     0
  0
VISUALSTYLE
  5
4D1
102
{ACAD_XDICTIONARY
360
9E3
102
}
102
{ACAD_REACTORS
330
4BE
102
}
330
4BE
100
AcDbVisualStyle
  2
EdgeColorOff
 70
    22
 71
     2
 72
     2
 73
     0
 90
        0
 40
-0.6
 41
-30.0
 62
     5
 63
     7
 74
     1
 91
        4
 64
     7
 65
   257
 75
     1
175
     1
 42
1.0
 92
        8
 66
     7
 43
1.0
 76
     1
 77
     6
 78
     2
 67
     7
 79
     5
170
     0
171
     0
290
     0
174
     0
 93
        1
 44
0.0
173
     0
291
     1
 45
0.0
1001
ACAD
1000
AcDbSavedByObjectVersion
1070
     0
  0
VISUALSTYLE
  5
4CD
102
{ACAD_XDICTIONARY
360
9DB
102
}
102
{ACAD_REACTORS
330
4BE
102
}
330
4BE
100
AcDbVisualStyle
  2
Facepattern
 70
    15
 71
     2
 72
     2
 73
     0
 90
        0
 40
-0.6
 41
-30.0
 62
     5
 63
     7
 74
     1
 91
        4
 64
     7
 65
   257
 75
     1
175
     1
 42
1.0
 92
        8
 66
     7
 43
1.0
 76
     1
 77
     6
 78
     2
 67
     7
 79
     5
170
     0
171
     0
290
     0
174
     0
 93
        1
 44
0.0
173
     0
291
     1
 45
0.0
1001
ACAD
1000
AcDbSavedByObjectVersion
1070
     0
  0
VISUALSTYLE
  5
4BF
102
{ACAD_XDICTIONARY
360
9BF
102
}
102
{ACAD_REACTORS
330
4BE
102
}
330
4BE
100
AcDbVisualStyle
  2
Flat
 70
     0
 71
     2
 72
     1
 73
     1
 90
        2
 40
-0.6
 41
30.0
 62
     5
 63
     7
 74
     0
 91
        4
 64
     7
 65
   257
 75
     1
175
     1
 42
1.0
 92
        8
 66
     7
 43
1.0
 76
     1
 77
     6
 78
     2
 67
     7
 79
     5
170
     0
171
     0
290
     0
174
     0
 93
       13
 44
0.0
173
     0
291
     1
 45
0.0
1001
ACAD
1000
AcDbSavedByObjectVersion
1070
     0
  0
VISUALSTYLE
  5
4C0
102
{ACAD_XDICTIONARY
360
9C1
102
}
102
{ACAD_REACTORS
330
4BE
102
}
330
4BE
100
AcDbVisualStyle
  2
FlatWithEdges
 70
     1
 71
     2
 72
     1
 73
     1
 90
        2
 40
-0.6
 41
30.0
 62
     5
 63
     7
 74
     1
 91
        4
 64
     7
 65
   257
 75
     1
175
     1
 42
1.0
 92
        0
 66
   257
 43
1.0
 76
     1
 77
     6
 78
     2
 67
     7
 79
     5
170
     0
171
     0
290
     0
174
     0
 93
       13
 44
0.0
173
     0
291
     1
 45
0.0
1001
ACAD
1000
AcDbSavedByObjectVersion
1070
     0
  0
VISUALSTYLE
  5
4C1
102
{ACAD_XDICTIONARY
360
9C3
102
}
102
{ACAD_REACTORS
330
4BE
102
}
330
4BE
100
AcDbVisualStyle
  2
Gouraud
 70
     2
 71
     2
 72
     2
 73
     1
 90
        2
 40
-0.6
 41
30.0
 62
     5
 63
     7
 74
     0
 91
        4
 64
     7
 65
   257
 75
     1
175
     1
 42
1.0
 92
        0
 66
     7
 43
1.0
 76
     1
 77
     6
 78
     2
 67
     7
 79
     5
170
     0
171
     0
290
     0
174
     0
 93
       13
 44
0.0
173
     0
291
     1
 45
0.0
1001
ACAD
1000
AcDbSavedByObjectVersion
1070
     0
  0
VISUALSTYLE
  5
4C2
102
{ACAD_XDICTIONARY
360
9C5
102
}
102
{ACAD_REACTORS
330
4BE
102
}
330
4BE
100
AcDbVisualStyle
  2
GouraudWithEdges
 70
     3
 71
     2
 72
     2
 73
     1
 90
        2
 40
-0.6
 41
30.0
 62
     5
 63
     7
 74
     1
 91
        4
 64
     7
 65
   257
 75
     1
175
     1
 42
1.0
 92
        0
 66
   257
 43
1.0
 76
     1
 77
     6
 78
     2
 67
     7
 79
     5
170
     0
171
     0
290
     0
174
     0
 93
       13
 44
0.0
173
     0
291
     1
 45
0.0
1001
ACAD
1000
AcDbSavedByObjectVersion
1070
     0
  0
VISUALSTYLE
  5
4CF
102
{ACAD_XDICTIONARY
360
9DF
102
}
102
{ACAD_REACTORS
330
4BE
102
}
330
4BE
100
AcDbVisualStyle
  2
JitterOff
 70
    20
 71
     2
 72
     2
 73
     0
 90
        0
 40
-0.6
 41
-30.0
 62
     5
 63
     7
 74
     1
 91
        4
 64
     7
 65
   257
 75
     1
175
     1
 42
1.0
 92
       10
 66
     7
 43
1.0
 76
     1
 77
     6
 78
     2
 67
     7
 79
     5
170
     0
171
     0
290
     0
174
     0
 93
        1
 44
0.0
173
     0
291
     1
 45
0.0
1001
ACAD
1000
AcDbSavedByObjectVersion
1070
     0
  0
VISUALSTYLE
  5
4CC
102
{ACAD_XDICTIONARY
360
9D9
102
}
102
{ACAD_REACTORS
330
4BE
102
}
330
4BE
100
AcDbVisualStyle
  2
Linepattern
 70
    14
 71
     2
 72
     2
 73
     0
 90
        0
 40
-0.6
 41
-30.0
 62
     5
 63
     7
 74
     1
 91
        4
 64
     7
 65
   257
 75
     7
175
     7
 42
1.0
 92
        8
 66
     7
 43
1.0
 76
     1
 77
     6
 78
     2
 67
     7
 79
     5
170
     0
171
     0
290
     0
174
     0
 93
        1
 44
0.0
173
     0
291
     1
 45
0.0
1001
ACAD
1000
AcDbSavedByObjectVersion
1070
     0
  0
VISUALSTYLE
  5
4D0
102
{ACAD_XDICTIONARY
360
9E1
102
}
102
{ACAD_REACTORS
330
4BE
102
}
330
4BE
100
AcDbVisualStyle
  2
OverhangOff
 70
    21
 71
     2
 72
     2
 73
     0
 90
        0
 40
-0.6
 41
-30.0
 62
     5
 63
     7
 74
     1
 91
        4
 64
     7
 65
   257
 75
     1
175
     1
 42
1.0
 92
        9
 66
     7
 43
1.0
 76
     1
 77
     6
 78
     2
 67
     7
 79
     5
170
     0
171
     0
290
     0
174
     0
 93
        1
 44
0.0
173
     0
291
     1
 45
0.0
1001
ACAD
1000
AcDbSavedByObjectVersion
1070
     0
  0
VISUALSTYLE
  5
4C8
102
{ACAD_XDICTIONARY
360
9D1
102
}
102
{ACAD_REACTORS
330
4BE
102
}
330
4BE
100
AcDbVisualStyle
  2
Realistic
 70
     8
 71
     2
 72
     2
 73
     0
 90
        0
 40
-0.6
 41
-30.0
 62
     5
 63
     7
 74
     1
 91
        0
 64
     7
 65
   257
 75
     1
175
     1
 42
1.0
 92
        8
 66
     8
 43
1.0
 76
     1
 77
     6
 78
     2
 67
     7
 79
     5
170
     0
171
     0
290
     0
174
     0
 93
       13
 44
0.0
173
     0
291
     0
 45
0.0
1001
ACAD
1000
AcDbSavedByObjectVersion
1070
     0
  0
VISUALSTYLE
  5
4CB
102
{ACAD_XDICTIONARY
360
9D7
102
}
102
{ACAD_REACTORS
330
4BE
102
}
330
4BE
100
AcDbVisualStyle
  2
Thicken
 70
    13
 71
     2
 72
     2
 73
     0
 90
        0
 40
-0.6
 41
-30.0
 62
     5
 63
     7
 74
     1
 91
        4
 64
     7
 65
   257
 75
     1
175
     1
 42
1.0
 92
       12
 66
     7
 43
1.0
 76
     1
 77
     6
 78
     2
 67
     7
 79
     5
170
     0
171
     0
290
     0
174
     0
 93
        1
 44
0.0
173
     0
291
     1
 45
0.0
1001
ACAD
1000
AcDbSavedByObjectVersion
1070
     0
  0
DICTIONARYVAR
  5
6F0
102
{ACAD_REACTORS
330
6ED
102
}
330
6ED
100
DictionaryVariables
280
     0
  1
1:1
  0
DICTIONARYVAR
  5
6EF
102
{ACAD_REACTORS
330
6ED
102
}
330
6ED
100
DictionaryVariables
280
     0
  1
STANDARD
  0
DICTIONARYVAR
  5
6EE
102
{ACAD_REACTORS
330
6ED
102
}
330
6ED
100
DictionaryVariables
280
     0
  1
STANDARD
  0
DICTIONARYVAR
  5
6F3
102
{ACAD_REACTORS
330
6ED
102
}
330
6ED
100
DictionaryVariables
280
     0
  1
1
  0
DICTIONARYVAR
  5
6F2
102
{ACAD_REACTORS
330
6ED
102
}
330
6ED
100
DictionaryVariables
280
     0
  1
0
  0
DICTIONARYVAR
  5
6F1
102
{ACAD_REACTORS
330
6ED
102
}
330
6ED
100
DictionaryVariables
280
     0
  1
127
  0
DICTIONARYVAR
  5
9B6
102
{ACAD_REACTORS
330
6ED
102
}
330
6ED
100
DictionaryVariables
280
     0
  1
2
  0
DICTIONARY
  5
4FE
102
{ACAD_REACTORS
330
21F
102
}
330
21F
100
AcDbDictionary
281
     1
  3
PH_GRPMEMBERS
350
4FF
  0
DICTIONARY
  5
549
102
{ACAD_REACTORS
330
21F
102
}
330
21F
100
AcDbDictionary
281
     1
  3
$PH$AAAA
350
54A
  3
PH_GRPMEMBERS
350
54E
  0
DICTIONARY
  5
76E
102
{ACAD_REACTORS
330
21F
102
}
330
21F
100
AcDbDictionary
281
     1
  3
PH_GRPMEMBERS
350
76F
  0
DICTIONARY
  5
9E8
330
4EC
100
AcDbDictionary
280
     1
281
     1
  3
ACAD_XREC_ROUNDTRIP
360
9E9
  0
DICTIONARY
  5
9E6
330
4EB
100
AcDbDictionary
280
     1
281
     1
  3
ACAD_XREC_ROUNDTRIP
360
9E7
  0
DICTIONARY
  5
4AF
330
4AE
100
AcDbDictionary
280
     1
281
     1
  3
ACAD_XREC_ROUNDTRIP
360
9BD
  3
BUMPTILE
360
4B1
  3
DIFFUSETILE
360
4B0
  3
OPACITYTILE
360
4B4
  3
REFLECTIONTILE
360
4B3
  3
REFRACTIONTILE
360
4B5
  3
SPECULARTILE
360
4B2
  0
DICTIONARY
  5
4A7
330
4A6
100
AcDbDictionary
280
     1
281
     1
  3
ACAD_XREC_ROUNDTRIP
360
9BC
  3
BUMPTILE
360
4A9
  3
DIFFUSETILE
360
4A8
  3
OPACITYTILE
360
4AC
  3
REFLECTIONTILE
360
4AB
  3
REFRACTIONTILE
360
4AD
  3
SPECULARTILE
360
4AA
  0
DICTIONARY
  5
4B7
330
4B6
100
AcDbDictionary
280
     1
281
     1
  3
ACAD_XREC_ROUNDTRIP
360
9BE
  3
BUMPTILE
360
4B9
  3
DIFFUSETILE
360
4B8
  3
OPACITYTILE
360
4BC
  3
REFLECTIONTILE
360
4BB
  3
REFRACTIONTILE
360
4BD
  3
SPECULARTILE
360
4BA
  0
DICTIONARY
  5
6B6
330
4D4
100
AcDbDictionary
280
     1
281
     1
  3
ACAD_ROUNDTRIP_2008_TABLESTYLE_CELLSTYLEMAP
360
9B7
  3
ACAD_XREC_ROUNDTRIP
360
9E5
  0
DICTIONARY
  5
9C9
330
4C4
100
AcDbDictionary
280
     1
281
     1
  3
ACAD_XREC_ROUNDTRIP
360
9CA
  0
DICTIONARY
  5
9CD
330
4C6
100
AcDbDictionary
280
     1
281
     1
  3
ACAD_XREC_ROUNDTRIP
360
9CE
  0
DICTIONARY
  5
9CB
330
4C5
100
AcDbDictionary
280
     1
281
     1
  3
ACAD_XREC_ROUNDTRIP
360
9CC
  0
DICTIONARY
  5
9C7
330
4C3
100
AcDbDictionary
280
     1
281
     1
  3
ACAD_XREC_ROUNDTRIP
360
9C8
  0
DICTIONARY
  5
9D5
330
4CA
100
AcDbDictionary
280
     1
281
     1
  3
ACAD_XREC_ROUNDTRIP
360
9D6
  0
DICTIONARY
  5
9DD
330
4CE
100
AcDbDictionary
280
     1
281
     1
  3
ACAD_XREC_ROUNDTRIP
360
9DE
  0
DICTIONARY
  5
9CF
330
4C7
100
AcDbDictionary
280
     1
281
     1
  3
ACAD_XREC_ROUNDTRIP
360
9D0
  0
DICTIONARY
  5
9D3
330
4C9
100
AcDbDictionary
280
     1
281
     1
  3
ACAD_XREC_ROUNDTRIP
360
9D4
  0
DICTIONARY
  5
9E3
330
4D1
100
AcDbDictionary
280
     1
281
     1
  3
ACAD_XREC_ROUNDTRIP
360
9E4
  0
DICTIONARY
  5
9DB
330
4CD
100
AcDbDictionary
280
     1
281
     1
  3
ACAD_XREC_ROUNDTRIP
360
9DC
  0
DICTIONARY
  5
9BF
330
4BF
100
AcDbDictionary
280
     1
281
     1
  3
ACAD_XREC_ROUNDTRIP
360
9C0
  0
DICTIONARY
  5
9C1
330
4C0
100
AcDbDictionary
280
     1
281
     1
  3
ACAD_XREC_ROUNDTRIP
360
9C2
  0
DICTIONARY
  5
9C3
330
4C1
100
AcDbDictionary
280
     1
281
     1
  3
ACAD_XREC_ROUNDTRIP
360
9C4
  0
DICTIONARY
  5
9C5
330
4C2
100
AcDbDictionary
280
     1
281
     1
  3
ACAD_XREC_ROUNDTRIP
360
9C6
  0
DICTIONARY
  5
9DF
330
4CF
100
AcDbDictionary
280
     1
281
     1
  3
ACAD_XREC_ROUNDTRIP
360
9E0
  0
DICTIONARY
  5
9D9
330
4CC
100
AcDbDictionary
280
     1
281
     1
  3
ACAD_XREC_ROUNDTRIP
360
9DA
  0
DICTIONARY
  5
9E1
330
4D0
100
AcDbDictionary
280
     1
281
     1
  3
ACAD_XREC_ROUNDTRIP
360
9E2
  0
DICTIONARY
  5
9D1
330
4C8
100
AcDbDictionary
280
     1
281
     1
  3
ACAD_XREC_ROUNDTRIP
360
9D2
  0
DICTIONARY
  5
9D7
330
4CB
100
AcDbDictionary
280
     1
281
     1
  3
ACAD_XREC_ROUNDTRIP
360
9D8
  0
PH_GROUP
  5
4FF
102
{ACAD_REACTORS
330
4FE
102
}
330
4FE
  0
DICTIONARY
  5
54A
102
{ACAD_REACTORS
330
549
102
}
330
549
100
AcDbDictionary
281
     1
  3
$PH$AAAA
350
54B
  3
PH_GRPMEMBERS
350
54D
  0
PH_GROUP
  5
54E
102
{ACAD_REACTORS
330
549
102
}
330
549
  0
PH_GROUP
  5
76F
102
{ACAD_REACTORS
330
76E
102
}
330
76E
  0
XRECORD
  5
9E9
102
{ACAD_REACTORS
330
9E8
102
}
330
9E8
100
AcDbXrecord
280
     1
102
SHADEPLOT
 70
     0
102
SHADEPLOTRESLEVEL
 70
     2
102
SHADEPLOTCUSTOMDPI
 70
   300
  0
XRECORD
  5
9E7
102
{ACAD_REACTORS
330
9E6
102
}
330
9E6
100
AcDbXrecord
280
     1
102
SHADEPLOT
 70
     0
102
SHADEPLOTRESLEVEL
 70
     2
102
SHADEPLOTCUSTOMDPI
 70
   300
  0
XRECORD
  5
9BD
102
{ACAD_REACTORS
330
4AF
102
}
330
4AF
100
AcDbXrecord
280
     1
102
MATERIAL
148
0.0
149
0.0
149
0.0
 93
        0
 94
      127
282
     0
 72
     0
 77
     0
171
     0
175
     0
179
     0
273
     0
  0
XRECORD
  5
4B1
102
{ACAD_REACTORS
330
4AF
102
}
330
4AF
100
AcDbXrecord
280
     1
270
     1
271
     1
  0
XRECORD
  5
4B0
102
{ACAD_REACTORS
330
4AF
102
}
330
4AF
100
AcDbXrecord
280
     1
270
     1
271
     1
  0
XRECORD
  5
4B4
102
{ACAD_REACTORS
330
4AF
102
}
330
4AF
100
AcDbXrecord
280
     1
270
     1
271
     1
  0
XRECORD
  5
4B3
102
{ACAD_REACTORS
330
4AF
102
}
330
4AF
100
AcDbXrecord
280
     1
270
     1
271
     1
  0
XRECORD
  5
4B5
102
{ACAD_REACTORS
330
4AF
102
}
330
4AF
100
AcDbXrecord
280
     1
270
     1
271
     1
  0
XRECORD
  5
4B2
102
{ACAD_REACTORS
330
4AF
102
}
330
4AF
100
AcDbXrecord
280
     1
270
     1
271
     1
  0
XRECORD
  5
9BC
102
{ACAD_REACTORS
330
4A7
102
}
330
4A7
100
AcDbXrecord
280
     1
102
MATERIAL
148
0.0
149
0.0
149
0.0
 93
        0
 94
      127
282
     0
 72
     0
 77
     0
171
     0
175
     0
179
     0
273
     0
  0
XRECORD
  5
4A9
102
{ACAD_REACTORS
330
4A7
102
}
330
4A7
100
AcDbXrecord
280
     1
270
     1
271
     1
  0
XRECORD
  5
4A8
102
{ACAD_REACTORS
330
4A7
102
}
330
4A7
100
AcDbXrecord
280
     1
270
     1
271
     1
  0
XRECORD
  5
4AC
102
{ACAD_REACTORS
330
4A7
102
}
330
4A7
100
AcDbXrecord
280
     1
270
     1
271
     1
  0
XRECORD
  5
4AB
102
{ACAD_REACTORS
330
4A7
102
}
330
4A7
100
AcDbXrecord
280
     1
270
     1
271
     1
  0
XRECORD
  5
4AD
102
{ACAD_REACTORS
330
4A7
102
}
330
4A7
100
AcDbXrecord
280
     1
270
     1
271
     1
  0
XRECORD
  5
4AA
102
{ACAD_REACTORS
330
4A7
102
}
330
4A7
100
AcDbXrecord
280
     1
270
     1
271
     1
  0
XRECORD
  5
9BE
102
{ACAD_REACTORS
330
4B7
102
}
330
4B7
100
AcDbXrecord
280
     1
102
MATERIAL
148
0.0
149
0.0
149
0.0
 93
        0
 94
      127
282
     0
 72
     0
 77
     0
171
     0
175
     0
179
     0
273
     0
  0
XRECORD
  5
4B9
102
{ACAD_REACTORS
330
4B7
102
}
330
4B7
100
AcDbXrecord
280
     1
270
     1
271
     1
  0
XRECORD
  5
4B8
102
{ACAD_REACTORS
330
4B7
102
}
330
4B7
100
AcDbXrecord
280
     1
270
     1
271
     1
  0
XRECORD
  5
4BC
102
{ACAD_REACTORS
330
4B7
102
}
330
4B7
100
AcDbXrecord
280
     1
270
     1
271
     1
  0
XRECORD
  5
4BB
102
{ACAD_REACTORS
330
4B7
102
}
330
4B7
100
AcDbXrecord
280
     1
270
     1
271
     1
  0
XRECORD
  5
4BD
102
{ACAD_REACTORS
330
4B7
102
}
330
4B7
100
AcDbXrecord
280
     1
270
     1
271
     1
  0
XRECORD
  5
4BA
102
{ACAD_REACTORS
330
4B7
102
}
330
4B7
100
AcDbXrecord
280
     1
270
     1
271
     1
  0
CELLSTYLEMAP
  5
9B7
102
{ACAD_REACTORS
330
6B6
102
}
330
6B6
100
AcDbCellStyleMap
 90
        3
300
CELLSTYLE
  1
TABLEFORMAT_BEGIN
 90
        5
170
     1
 91
        0
 92
    32768
 62
   257
 93
        1
300
CONTENTFORMAT
  1
CONTENTFORMAT_BEGIN
 90
        0
 91
        0
 92
      512
 93
        0
300

 40
0.0
140
1.0
 94
        5
 62
     0
340
F
144
6.0
309
CONTENTFORMAT_END
171
     1
301
MARGIN
  1
CELLMARGIN_BEGIN
 40
1.5
 40
1.5
 40
1.5
 40
1.5
 40
4.5
 40
4.5
309
CELLMARGIN_END
 94
        6
 95
        1
302
GRIDFORMAT
  1
GRIDFORMAT_BEGIN
 90
        0
 91
        1
 62
     0
 92
       -2
340
0
 93
        0
 40
1.125
309
GRIDFORMAT_END
 95
        2
302
GRIDFORMAT
  1
GRIDFORMAT_BEGIN
 90
        0
 91
        1
 62
     0
 92
       -2
340
0
 93
        0
 40
1.125
309
GRIDFORMAT_END
 95
        4
302
GRIDFORMAT
  1
GRIDFORMAT_BEGIN
 90
        0
 91
        1
 62
     0
 92
       -2
340
0
 93
        0
 40
1.125
309
GRIDFORMAT_END
 95
        8
302
GRIDFORMAT
  1
GRIDFORMAT_BEGIN
 90
        0
 91
        1
 62
     0
 92
       -2
340
0
 93
        0
 40
1.125
309
GRIDFORMAT_END
 95
       16
302
GRIDFORMAT
  1
GRIDFORMAT_BEGIN
 90
        0
 91
        1
 62
     0
 92
       -2
340
0
 93
        0
 40
1.125
309
GRIDFORMAT_END
 95
       32
302
GRIDFORMAT
  1
GRIDFORMAT_BEGIN
 90
        0
 91
        1
 62
     0
 92
       -2
340
0
 93
        0
 40
1.125
309
GRIDFORMAT_END
309
TABLEFORMAT_END
  1
CELLSTYLE_BEGIN
 90
        1
 91
        1
300
_TITLE
309
CELLSTYLE_END
300
CELLSTYLE
  1
TABLEFORMAT_BEGIN
 90
        5
170
     1
 91
        0
 92
        0
 62
   257
 93
        1
300
CONTENTFORMAT
  1
CONTENTFORMAT_BEGIN
 90
        0
 91
        0
 92
      512
 93
        0
300

 40
0.0
140
1.0
 94
        5
 62
     0
340
F
144
4.5
309
CONTENTFORMAT_END
171
     1
301
MARGIN
  1
CELLMARGIN_BEGIN
 40
1.5
 40
1.5
 40
1.5
 40
1.5
 40
4.5
 40
4.5
309
CELLMARGIN_END
 94
        6
 95
        1
302
GRIDFORMAT
  1
GRIDFORMAT_BEGIN
 90
        0
 91
        1
 62
     0
 92
       -2
340
0
 93
        0
 40
1.125
309
GRIDFORMAT_END
 95
        2
302
GRIDFORMAT
  1
GRIDFORMAT_BEGIN
 90
        0
 91
        1
 62
     0
 92
       -2
340
0
 93
        0
 40
1.125
309
GRIDFORMAT_END
 95
        4
302
GRIDFORMAT
  1
GRIDFORMAT_BEGIN
 90
        0
 91
        1
 62
     0
 92
       -2
340
0
 93
        0
 40
1.125
309
GRIDFORMAT_END
 95
        8
302
GRIDFORMAT
  1
GRIDFORMAT_BEGIN
 90
        0
 91
        1
 62
     0
 92
       -2
340
0
 93
        0
 40
1.125
309
GRIDFORMAT_END
 95
       16
302
GRIDFORMAT
  1
GRIDFORMAT_BEGIN
 90
        0
 91
        1
 62
     0
 92
       -2
340
0
 93
        0
 40
1.125
309
GRIDFORMAT_END
 95
       32
302
GRIDFORMAT
  1
GRIDFORMAT_BEGIN
 90
        0
 91
        1
 62
     0
 92
       -2
340
0
 93
        0
 40
1.125
309
GRIDFORMAT_END
309
TABLEFORMAT_END
  1
CELLSTYLE_BEGIN
 90
        2
 91
        1
300
_HEADER
309
CELLSTYLE_END
300
CELLSTYLE
  1
TABLEFORMAT_BEGIN
 90
        5
170
     1
 91
        0
 92
        0
 62
   257
 93
        1
300
CONTENTFORMAT
  1
CONTENTFORMAT_BEGIN
 90
        0
 91
        0
 92
      512
 93
        0
300

 40
0.0
140
1.0
 94
        2
 62
     0
340
F
144
4.5
309
CONTENTFORMAT_END
171
     1
301
MARGIN
  1
CELLMARGIN_BEGIN
 40
1.5
 40
1.5
 40
1.5
 40
1.5
 40
4.5
 40
4.5
309
CELLMARGIN_END
 94
        6
 95
        1
302
GRIDFORMAT
  1
GRIDFORMAT_BEGIN
 90
        0
 91
        1
 62
     0
 92
       -2
340
0
 93
        0
 40
1.125
309
GRIDFORMAT_END
 95
        2
302
GRIDFORMAT
  1
GRIDFORMAT_BEGIN
 90
        0
 91
        1
 62
     0
 92
       -2
340
0
 93
        0
 40
1.125
309
GRIDFORMAT_END
 95
        4
302
GRIDFORMAT
  1
GRIDFORMAT_BEGIN
 90
        0
 91
        1
 62
     0
 92
       -2
340
0
 93
        0
 40
1.125
309
GRIDFORMAT_END
 95
        8
302
GRIDFORMAT
  1
GRIDFORMAT_BEGIN
 90
        0
 91
        1
 62
     0
 92
       -2
340
0
 93
        0
 40
1.125
309
GRIDFORMAT_END
 95
       16
302
GRIDFORMAT
  1
GRIDFORMAT_BEGIN
 90
        0
 91
        1
 62
     0
 92
       -2
340
0
 93
        0
 40
1.125
309
GRIDFORMAT_END
 95
       32
302
GRIDFORMAT
  1
GRIDFORMAT_BEGIN
 90
        0
 91
        1
 62
     0
 92
       -2
340
0
 93
        0
 40
1.125
309
GRIDFORMAT_END
309
TABLEFORMAT_END
  1
CELLSTYLE_BEGIN
 90
        3
 91
        2
300
_DATA
309
CELLSTYLE_END
  0
XRECORD
  5
9E5
102
{ACAD_REACTORS
330
6B6
102
}
330
6B6
100
AcDbXrecord
280
     1
102
ACAD_ROUNDTRIP_PRE2007_TABLESTYLE
 90
      512
 91
        0
  1

 92
      512
 93
        0
  2

 94
      512
 95
        0
  3

  0
XRECORD
  5
9CA
102
{ACAD_REACTORS
330
9C9
102
}
330
9C9
100
AcDbXrecord
280
     1
102
RTVSPropertyOp0
 70
     1
102
RTVSPropertyOp1
 70
     1
102
RTVSPropertyOp2
 70
     1
102
RTVSPropertyOp3
 70
     1
102
RTVSPropertyOp4
 70
     1
102
RTVSPropertyOp5
 70
     1
102
RTVSPropertyOp6
 70
     1
102
RTVSPropertyOp7
 70
     1
102
RTVSPropertyOp8
 70
     1
102
RTVSPropertyOp9
 70
     1
102
RTVSPropertyOp10
 70
     1
102
RTVSPropertyOp11
 70
     1
102
RTVSPropertyOp12
 70
     1
102
RTVSPropertyOp13
 70
     1
102
RTVSPropertyOp14
 70
     1
102
RTVSPropertyOp15
 70
     1
102
RTVSPropertyOp16
 70
     1
102
RTVSPropertyOp17
 70
     1
102
RTVSPropertyOp18
 70
     1
102
RTVSPropertyOp19
 70
     1
102
RTVSPropertyOp20
 70
     1
102
RTVSPropertyOp21
 70
     1
102
RTVSPropertyOp22
 70
     1
102
RTVSPropertyOp23
 70
     1
102
RTVSPropertyOp24
 70
     1
102
RTVSPropertyOp25
 70
     1
102
RTVSPropertyOp26
 70
     1
102
RTVSPropertyOp27
 70
     1
  0
XRECORD
  5
9CE
102
{ACAD_REACTORS
330
9CD
102
}
330
9CD
100
AcDbXrecord
280
     1
102
RTVSPropertyOp0
 70
     1
102
RTVSPropertyOp1
 70
     1
102
RTVSPropertyOp2
 70
     1
102
RTVSPropertyOp3
 70
     1
102
RTVSPropertyOp4
 70
     1
102
RTVSPropertyOp5
 70
     1
102
RTVSPropertyOp6
 70
     1
102
RTVSPropertyOp7
 70
     1
102
RTVSPropertyOp8
 70
     1
102
RTVSPropertyOp9
 70
     1
102
RTVSPropertyOp10
 70
     1
102
RTVSPropertyOp11
 70
     1
102
RTVSPropertyOp12
 70
     1
102
RTVSPropertyOp13
 70
     1
102
RTVSPropertyOp14
 70
     1
102
RTVSPropertyOp15
 70
     1
102
RTVSPropertyOp16
 70
     1
102
RTVSPropertyOp17
 70
     1
102
RTVSPropertyOp18
 70
     1
102
RTVSPropertyOp19
 70
     1
102
RTVSPropertyOp20
 70
     1
102
RTVSPropertyOp21
 70
     1
102
RTVSPropertyOp22
 70
     1
102
RTVSPropertyOp23
 70
     1
102
RTVSPropertyOp24
 70
     1
102
RTVSPropertyOp25
 70
     1
102
RTVSPropertyOp26
 70
     1
102
RTVSPropertyOp27
 70
     1
  0
XRECORD
  5
9CC
102
{ACAD_REACTORS
330
9CB
102
}
330
9CB
100
AcDbXrecord
280
     1
102
RTVSPropertyOp0
 70
     1
102
RTVSPropertyOp1
 70
     1
102
RTVSPropertyOp2
 70
     1
102
RTVSPropertyOp3
 70
     1
102
RTVSPropertyOp4
 70
     1
102
RTVSPropertyOp5
 70
     1
102
RTVSPropertyOp6
 70
     1
102
RTVSPropertyOp7
 70
     1
102
RTVSPropertyOp8
 70
     1
102
RTVSPropertyOp9
 70
     1
102
RTVSPropertyOp10
 70
     1
102
RTVSPropertyOp11
 70
     1
102
RTVSPropertyOp12
 70
     1
102
RTVSPropertyOp13
 70
     1
102
RTVSPropertyOp14
 70
     1
102
RTVSPropertyOp15
 70
     1
102
RTVSPropertyOp16
 70
     1
102
RTVSPropertyOp17
 70
     1
102
RTVSPropertyOp18
 70
     1
102
RTVSPropertyOp19
 70
     1
102
RTVSPropertyOp20
 70
     1
102
RTVSPropertyOp21
 70
     1
102
RTVSPropertyOp22
 70
     1
102
RTVSPropertyOp23
 70
     1
102
RTVSPropertyOp24
 70
     1
102
RTVSPropertyOp25
 70
     1
102
RTVSPropertyOp26
 70
     1
102
RTVSPropertyOp27
 70
     1
  0
XRECORD
  5
9C8
102
{ACAD_REACTORS
330
9C7
102
}
330
9C7
100
AcDbXrecord
280
     1
102
RTVSPropertyOp0
 70
     1
102
RTVSPropertyOp1
 70
     1
102
RTVSPropertyOp2
 70
     1
102
RTVSPropertyOp3
 70
     1
102
RTVSPropertyOp4
 70
     1
102
RTVSPropertyOp5
 70
     1
102
RTVSPropertyOp6
 70
     1
102
RTVSPropertyOp7
 70
     1
102
RTVSPropertyOp8
 70
     1
102
RTVSPropertyOp9
 70
     1
102
RTVSPropertyOp10
 70
     1
102
RTVSPropertyOp11
 70
     1
102
RTVSPropertyOp12
 70
     1
102
RTVSPropertyOp13
 70
     1
102
RTVSPropertyOp14
 70
     1
102
RTVSPropertyOp15
 70
     1
102
RTVSPropertyOp16
 70
     1
102
RTVSPropertyOp17
 70
     1
102
RTVSPropertyOp18
 70
     1
102
RTVSPropertyOp19
 70
     1
102
RTVSPropertyOp20
 70
     1
102
RTVSPropertyOp21
 70
     1
102
RTVSPropertyOp22
 70
     1
102
RTVSPropertyOp23
 70
     1
102
RTVSPropertyOp24
 70
     1
102
RTVSPropertyOp25
 70
     1
102
RTVSPropertyOp26
 70
     1
102
RTVSPropertyOp27
 70
     1
  0
XRECORD
  5
9D6
102
{ACAD_REACTORS
330
9D5
102
}
330
9D5
100
AcDbXrecord
280
     1
102
RTVSPropertyOp0
 70
     1
102
RTVSPropertyOp1
 70
     1
102
RTVSPropertyOp2
 70
     1
102
RTVSPropertyOp3
 70
     1
102
RTVSPropertyOp4
 70
     1
102
RTVSPropertyOp5
 70
     1
102
RTVSPropertyOp6
 70
     1
102
RTVSPropertyOp7
 70
     1
102
RTVSPropertyOp8
 70
     1
102
RTVSPropertyOp9
 70
     1
102
RTVSPropertyOp10
 70
     1
102
RTVSPropertyOp11
 70
     1
102
RTVSPropertyOp12
 70
     1
102
RTVSPropertyOp13
 70
     1
102
RTVSPropertyOp14
 70
     1
102
RTVSPropertyOp15
 70
     1
102
RTVSPropertyOp16
 70
     1
102
RTVSPropertyOp17
 70
     1
102
RTVSPropertyOp18
 70
     1
102
RTVSPropertyOp19
 70
     1
102
RTVSPropertyOp20
 70
     1
102
RTVSPropertyOp21
 70
     1
102
RTVSPropertyOp22
 70
     1
102
RTVSPropertyOp23
 70
     1
102
RTVSPropertyOp24
 70
     1
102
RTVSPropertyOp25
 70
     1
102
RTVSPropertyOp26
 70
     1
102
RTVSPropertyOp27
 70
     1
  0
XRECORD
  5
9DE
102
{ACAD_REACTORS
330
9DD
102
}
330
9DD
100
AcDbXrecord
280
     1
102
RTVSPropertyOp0
 70
     1
102
RTVSPropertyOp1
 70
     1
102
RTVSPropertyOp2
 70
     1
102
RTVSPropertyOp3
 70
     1
102
RTVSPropertyOp4
 70
     1
102
RTVSPropertyOp5
 70
     1
102
RTVSPropertyOp6
 70
     1
102
RTVSPropertyOp7
 70
     1
102
RTVSPropertyOp8
 70
     1
102
RTVSPropertyOp9
 70
     1
102
RTVSPropertyOp10
 70
     1
102
RTVSPropertyOp11
 70
     1
102
RTVSPropertyOp12
 70
     1
102
RTVSPropertyOp13
 70
     1
102
RTVSPropertyOp14
 70
     1
102
RTVSPropertyOp15
 70
     1
102
RTVSPropertyOp16
 70
     1
102
RTVSPropertyOp17
 70
     1
102
RTVSPropertyOp18
 70
     1
102
RTVSPropertyOp19
 70
     1
102
RTVSPropertyOp20
 70
     1
102
RTVSPropertyOp21
 70
     1
102
RTVSPropertyOp22
 70
     1
102
RTVSPropertyOp23
 70
     1
102
RTVSPropertyOp24
 70
     1
102
RTVSPropertyOp25
 70
     1
102
RTVSPropertyOp26
 70
     1
102
RTVSPropertyOp27
 70
     1
  0
XRECORD
  5
9D0
102
{ACAD_REACTORS
330
9CF
102
}
330
9CF
100
AcDbXrecord
280
     1
102
RTVSPropertyOp0
 70
     1
102
RTVSPropertyOp1
 70
     1
102
RTVSPropertyOp2
 70
     1
102
RTVSPropertyOp3
 70
     1
102
RTVSPropertyOp4
 70
     1
102
RTVSPropertyOp5
 70
     1
102
RTVSPropertyOp6
 70
     1
102
RTVSPropertyOp7
 70
     1
102
RTVSPropertyOp8
 70
     1
102
RTVSPropertyOp9
 70
     1
102
RTVSPropertyOp10
 70
     1
102
RTVSPropertyOp11
 70
     1
102
RTVSPropertyOp12
 70
     1
102
RTVSPropertyOp13
 70
     1
102
RTVSPropertyOp14
 70
     1
102
RTVSPropertyOp15
 70
     1
102
RTVSPropertyOp16
 70
     1
102
RTVSPropertyOp17
 70
     1
102
RTVSPropertyOp18
 70
     1
102
RTVSPropertyOp19
 70
     1
102
RTVSPropertyOp20
 70
     1
102
RTVSPropertyOp21
 70
     1
102
RTVSPropertyOp22
 70
     1
102
RTVSPropertyOp23
 70
     1
102
RTVSPropertyOp24
 70
     1
102
RTVSPropertyOp25
 70
     1
102
RTVSPropertyOp26
 70
     1
102
RTVSPropertyOp27
 70
     1
  0
XRECORD
  5
9D4
102
{ACAD_REACTORS
330
9D3
102
}
330
9D3
100
AcDbXrecord
280
     1
102
RTVSPropertyOp0
 70
     1
102
RTVSPropertyOp1
 70
     1
102
RTVSPropertyOp2
 70
     1
102
RTVSPropertyOp3
 70
     1
102
RTVSPropertyOp4
 70
     1
102
RTVSPropertyOp5
 70
     1
102
RTVSPropertyOp6
 70
     1
102
RTVSPropertyOp7
 70
     1
102
RTVSPropertyOp8
 70
     1
102
RTVSPropertyOp9
 70
     1
102
RTVSPropertyOp10
 70
     1
102
RTVSPropertyOp11
 70
     1
102
RTVSPropertyOp12
 70
     1
102
RTVSPropertyOp13
 70
     1
102
RTVSPropertyOp14
 70
     1
102
RTVSPropertyOp15
 70
     1
102
RTVSPropertyOp16
 70
     1
102
RTVSPropertyOp17
 70
     1
102
RTVSPropertyOp18
 70
     1
102
RTVSPropertyOp19
 70
     1
102
RTVSPropertyOp20
 70
     1
102
RTVSPropertyOp21
 70
     1
102
RTVSPropertyOp22
 70
     1
102
RTVSPropertyOp23
 70
     1
102
RTVSPropertyOp24
 70
     1
102
RTVSPropertyOp25
 70
     1
102
RTVSPropertyOp26
 70
     1
102
RTVSPropertyOp27
 70
     1
  0
XRECORD
  5
9E4
102
{ACAD_REACTORS
330
9E3
102
}
330
9E3
100
AcDbXrecord
280
     1
102
RTVSPropertyOp0
 70
     0
102
RTVSPropertyOp1
 70
     0
102
RTVSPropertyOp2
 70
     0
102
RTVSPropertyOp3
 70
     0
102
RTVSPropertyOp4
 70
     0
102
RTVSPropertyOp5
 70
     0
102
RTVSPropertyOp6
 70
     0
102
RTVSPropertyOp7
 70
     0
102
RTVSPropertyOp8
 70
     0
102
RTVSPropertyOp9
 70
     0
102
RTVSPropertyOp10
 70
     0
102
RTVSPropertyOp11
 70
     0
102
RTVSPropertyOp12
 70
     0
102
RTVSPropertyOp13
 70
     0
102
RTVSPropertyOp14
 70
     2
102
RTVSPropertyOp15
 70
     0
102
RTVSPropertyOp16
 70
     0
102
RTVSPropertyOp17
 70
     0
102
RTVSPropertyOp18
 70
     0
102
RTVSPropertyOp19
 70
     0
102
RTVSPropertyOp20
 70
     0
102
RTVSPropertyOp21
 70
     0
102
RTVSPropertyOp22
 70
     0
102
RTVSPropertyOp23
 70
     0
102
RTVSPropertyOp24
 70
     0
102
RTVSPropertyOp25
 70
     0
102
RTVSPropertyOp26
 70
     0
102
RTVSPropertyOp27
 70
     0
  0
XRECORD
  5
9DC
102
{ACAD_REACTORS
330
9DB
102
}
330
9DB
100
AcDbXrecord
280
     1
102
RTVSPropertyOp0
 70
     1
102
RTVSPropertyOp1
 70
     1
102
RTVSPropertyOp2
 70
     1
102
RTVSPropertyOp3
 70
     1
102
RTVSPropertyOp4
 70
     1
102
RTVSPropertyOp5
 70
     1
102
RTVSPropertyOp6
 70
     1
102
RTVSPropertyOp7
 70
     1
102
RTVSPropertyOp8
 70
     1
102
RTVSPropertyOp9
 70
     1
102
RTVSPropertyOp10
 70
     1
102
RTVSPropertyOp11
 70
     1
102
RTVSPropertyOp12
 70
     1
102
RTVSPropertyOp13
 70
     1
102
RTVSPropertyOp14
 70
     1
102
RTVSPropertyOp15
 70
     1
102
RTVSPropertyOp16
 70
     1
102
RTVSPropertyOp17
 70
     1
102
RTVSPropertyOp18
 70
     1
102
RTVSPropertyOp19
 70
     1
102
RTVSPropertyOp20
 70
     1
102
RTVSPropertyOp21
 70
     1
102
RTVSPropertyOp22
 70
     1
102
RTVSPropertyOp23
 70
     1
102
RTVSPropertyOp24
 70
     1
102
RTVSPropertyOp25
 70
     1
102
RTVSPropertyOp26
 70
     1
102
RTVSPropertyOp27
 70
     1
  0
XRECORD
  5
9C0
102
{ACAD_REACTORS
330
9BF
102
}
330
9BF
100
AcDbXrecord
280
     1
102
RTVSPropertyOp0
 70
     1
102
RTVSPropertyOp1
 70
     1
102
RTVSPropertyOp2
 70
     1
102
RTVSPropertyOp3
 70
     1
102
RTVSPropertyOp4
 70
     1
102
RTVSPropertyOp5
 70
     1
102
RTVSPropertyOp6
 70
     1
102
RTVSPropertyOp7
 70
     1
102
RTVSPropertyOp8
 70
     1
102
RTVSPropertyOp9
 70
     1
102
RTVSPropertyOp10
 70
     1
102
RTVSPropertyOp11
 70
     1
102
RTVSPropertyOp12
 70
     1
102
RTVSPropertyOp13
 70
     1
102
RTVSPropertyOp14
 70
     1
102
RTVSPropertyOp15
 70
     1
102
RTVSPropertyOp16
 70
     1
102
RTVSPropertyOp17
 70
     1
102
RTVSPropertyOp18
 70
     1
102
RTVSPropertyOp19
 70
     1
102
RTVSPropertyOp20
 70
     1
102
RTVSPropertyOp21
 70
     1
102
RTVSPropertyOp22
 70
     1
102
RTVSPropertyOp23
 70
     1
102
RTVSPropertyOp24
 70
     1
102
RTVSPropertyOp25
 70
     1
102
RTVSPropertyOp26
 70
     1
102
RTVSPropertyOp27
 70
     1
  0
XRECORD
  5
9C2
102
{ACAD_REACTORS
330
9C1
102
}
330
9C1
100
AcDbXrecord
280
     1
102
RTVSPropertyOp0
 70
     1
102
RTVSPropertyOp1
 70
     1
102
RTVSPropertyOp2
 70
     1
102
RTVSPropertyOp3
 70
     1
102
RTVSPropertyOp4
 70
     1
102
RTVSPropertyOp5
 70
     1
102
RTVSPropertyOp6
 70
     1
102
RTVSPropertyOp7
 70
     1
102
RTVSPropertyOp8
 70
     1
102
RTVSPropertyOp9
 70
     1
102
RTVSPropertyOp10
 70
     1
102
RTVSPropertyOp11
 70
     1
102
RTVSPropertyOp12
 70
     1
102
RTVSPropertyOp13
 70
     1
102
RTVSPropertyOp14
 70
     1
102
RTVSPropertyOp15
 70
     1
102
RTVSPropertyOp16
 70
     1
102
RTVSPropertyOp17
 70
     1
102
RTVSPropertyOp18
 70
     1
102
RTVSPropertyOp19
 70
     1
102
RTVSPropertyOp20
 70
     1
102
RTVSPropertyOp21
 70
     1
102
RTVSPropertyOp22
 70
     1
102
RTVSPropertyOp23
 70
     1
102
RTVSPropertyOp24
 70
     1
102
RTVSPropertyOp25
 70
     1
102
RTVSPropertyOp26
 70
     1
102
RTVSPropertyOp27
 70
     1
  0
XRECORD
  5
9C4
102
{ACAD_REACTORS
330
9C3
102
}
330
9C3
100
AcDbXrecord
280
     1
102
RTVSPropertyOp0
 70
     1
102
RTVSPropertyOp1
 70
     1
102
RTVSPropertyOp2
 70
     1
102
RTVSPropertyOp3
 70
     1
102
RTVSPropertyOp4
 70
     1
102
RTVSPropertyOp5
 70
     1
102
RTVSPropertyOp6
 70
     1
102
RTVSPropertyOp7
 70
     1
102
RTVSPropertyOp8
 70
     1
102
RTVSPropertyOp9
 70
     1
102
RTVSPropertyOp10
 70
     1
102
RTVSPropertyOp11
 70
     1
102
RTVSPropertyOp12
 70
     1
102
RTVSPropertyOp13
 70
     1
102
RTVSPropertyOp14
 70
     1
102
RTVSPropertyOp15
 70
     1
102
RTVSPropertyOp16
 70
     1
102
RTVSPropertyOp17
 70
     1
102
RTVSPropertyOp18
 70
     1
102
RTVSPropertyOp19
 70
     1
102
RTVSPropertyOp20
 70
     1
102
RTVSPropertyOp21
 70
     1
102
RTVSPropertyOp22
 70
     1
102
RTVSPropertyOp23
 70
     1
102
RTVSPropertyOp24
 70
     1
102
RTVSPropertyOp25
 70
     1
102
RTVSPropertyOp26
 70
     1
102
RTVSPropertyOp27
 70
     1
  0
XRECORD
  5
9C6
102
{ACAD_REACTORS
330
9C5
102
}
330
9C5
100
AcDbXrecord
280
     1
102
RTVSPropertyOp0
 70
     1
102
RTVSPropertyOp1
 70
     1
102
RTVSPropertyOp2
 70
     1
102
RTVSPropertyOp3
 70
     1
102
RTVSPropertyOp4
 70
     1
102
RTVSPropertyOp5
 70
     1
102
RTVSPropertyOp6
 70
     1
102
RTVSPropertyOp7
 70
     1
102
RTVSPropertyOp8
 70
     1
102
RTVSPropertyOp9
 70
     1
102
RTVSPropertyOp10
 70
     1
102
RTVSPropertyOp11
 70
     1
102
RTVSPropertyOp12
 70
     1
102
RTVSPropertyOp13
 70
     1
102
RTVSPropertyOp14
 70
     1
102
RTVSPropertyOp15
 70
     1
102
RTVSPropertyOp16
 70
     1
102
RTVSPropertyOp17
 70
     1
102
RTVSPropertyOp18
 70
     1
102
RTVSPropertyOp19
 70
     1
102
RTVSPropertyOp20
 70
     1
102
RTVSPropertyOp21
 70
     1
102
RTVSPropertyOp22
 70
     1
102
RTVSPropertyOp23
 70
     1
102
RTVSPropertyOp24
 70
     1
102
RTVSPropertyOp25
 70
     1
102
RTVSPropertyOp26
 70
     1
102
RTVSPropertyOp27
 70
     1
  0
XRECORD
  5
9E0
102
{ACAD_REACTORS
330
9DF
102
}
330
9DF
100
AcDbXrecord
280
     1
102
RTVSPropertyOp0
 70
     0
102
RTVSPropertyOp1
 70
     0
102
RTVSPropertyOp2
 70
     0
102
RTVSPropertyOp3
 70
     0
102
RTVSPropertyOp4
 70
     0
102
RTVSPropertyOp5
 70
     0
102
RTVSPropertyOp6
 70
     0
102
RTVSPropertyOp7
 70
     0
102
RTVSPropertyOp8
 70
     0
102
RTVSPropertyOp9
 70
     0
102
RTVSPropertyOp10
 70
     0
102
RTVSPropertyOp11
 70
     0
102
RTVSPropertyOp12
 70
     0
102
RTVSPropertyOp13
 70
     0
102
RTVSPropertyOp14
 70
     2
102
RTVSPropertyOp15
 70
     0
102
RTVSPropertyOp16
 70
     0
102
RTVSPropertyOp17
 70
     0
102
RTVSPropertyOp18
 70
     0
102
RTVSPropertyOp19
 70
     0
102
RTVSPropertyOp20
 70
     0
102
RTVSPropertyOp21
 70
     0
102
RTVSPropertyOp22
 70
     0
102
RTVSPropertyOp23
 70
     0
102
RTVSPropertyOp24
 70
     0
102
RTVSPropertyOp25
 70
     0
102
RTVSPropertyOp26
 70
     0
102
RTVSPropertyOp27
 70
     0
  0
XRECORD
  5
9DA
102
{ACAD_REACTORS
330
9D9
102
}
330
9D9
100
AcDbXrecord
280
     1
102
RTVSPropertyOp0
 70
     1
102
RTVSPropertyOp1
 70
     1
102
RTVSPropertyOp2
 70
     1
102
RTVSPropertyOp3
 70
     1
102
RTVSPropertyOp4
 70
     1
102
RTVSPropertyOp5
 70
     1
102
RTVSPropertyOp6
 70
     1
102
RTVSPropertyOp7
 70
     1
102
RTVSPropertyOp8
 70
     1
102
RTVSPropertyOp9
 70
     1
102
RTVSPropertyOp10
 70
     1
102
RTVSPropertyOp11
 70
     1
102
RTVSPropertyOp12
 70
     1
102
RTVSPropertyOp13
 70
     1
102
RTVSPropertyOp14
 70
     1
102
RTVSPropertyOp15
 70
     1
102
RTVSPropertyOp16
 70
     1
102
RTVSPropertyOp17
 70
     1
102
RTVSPropertyOp18
 70
     1
102
RTVSPropertyOp19
 70
     1
102
RTVSPropertyOp20
 70
     1
102
RTVSPropertyOp21
 70
     1
102
RTVSPropertyOp22
 70
     1
102
RTVSPropertyOp23
 70
     1
102
RTVSPropertyOp24
 70
     1
102
RTVSPropertyOp25
 70
     1
102
RTVSPropertyOp26
 70
     1
102
RTVSPropertyOp27
 70
     1
  0
XRECORD
  5
9E2
102
{ACAD_REACTORS
330
9E1
102
}
330
9E1
100
AcDbXrecord
280
     1
102
RTVSPropertyOp0
 70
     0
102
RTVSPropertyOp1
 70
     0
102
RTVSPropertyOp2
 70
     0
102
RTVSPropertyOp3
 70
     0
102
RTVSPropertyOp4
 70
     0
102
RTVSPropertyOp5
 70
     0
102
RTVSPropertyOp6
 70
     0
102
RTVSPropertyOp7
 70
     0
102
RTVSPropertyOp8
 70
     0
102
RTVSPropertyOp9
 70
     0
102
RTVSPropertyOp10
 70
     0
102
RTVSPropertyOp11
 70
     0
102
RTVSPropertyOp12
 70
     0
102
RTVSPropertyOp13
 70
     0
102
RTVSPropertyOp14
 70
     2
102
RTVSPropertyOp15
 70
     0
102
RTVSPropertyOp16
 70
     0
102
RTVSPropertyOp17
 70
     0
102
RTVSPropertyOp18
 70
     0
102
RTVSPropertyOp19
 70
     0
102
RTVSPropertyOp20
 70
     0
102
RTVSPropertyOp21
 70
     0
102
RTVSPropertyOp22
 70
     0
102
RTVSPropertyOp23
 70
     0
102
RTVSPropertyOp24
 70
     0
102
RTVSPropertyOp25
 70
     0
102
RTVSPropertyOp26
 70
     0
102
RTVSPropertyOp27
 70
     0
  0
XRECORD
  5
9D2
102
{ACAD_REACTORS
330
9D1
102
}
330
9D1
100
AcDbXrecord
280
     1
102
RTVSPropertyOp0
 70
     1
102
RTVSPropertyOp1
 70
     1
102
RTVSPropertyOp2
 70
     1
102
RTVSPropertyOp3
 70
     1
102
RTVSPropertyOp4
 70
     1
102
RTVSPropertyOp5
 70
     1
102
RTVSPropertyOp6
 70
     1
102
RTVSPropertyOp7
 70
     1
102
RTVSPropertyOp8
 70
     1
102
RTVSPropertyOp9
 70
     1
102
RTVSPropertyOp10
 70
     1
102
RTVSPropertyOp11
 70
     1
102
RTVSPropertyOp12
 70
     1
102
RTVSPropertyOp13
 70
     1
102
RTVSPropertyOp14
 70
     1
102
RTVSPropertyOp15
 70
     1
102
RTVSPropertyOp16
 70
     1
102
RTVSPropertyOp17
 70
     1
102
RTVSPropertyOp18
 70
     1
102
RTVSPropertyOp19
 70
     1
102
RTVSPropertyOp20
 70
     1
102
RTVSPropertyOp21
 70
     1
102
RTVSPropertyOp22
 70
     1
102
RTVSPropertyOp23
 70
     1
102
RTVSPropertyOp24
 70
     1
102
RTVSPropertyOp25
 70
     1
102
RTVSPropertyOp26
 70
     1
102
RTVSPropertyOp27
 70
     1
  0
XRECORD
  5
9D8
102
{ACAD_REACTORS
330
9D7
102
}
330
9D7
100
AcDbXrecord
280
     1
102
RTVSPropertyOp0
 70
     1
102
RTVSPropertyOp1
 70
     1
102
RTVSPropertyOp2
 70
     1
102
RTVSPropertyOp3
 70
     1
102
RTVSPropertyOp4
 70
     1
102
RTVSPropertyOp5
 70
     1
102
RTVSPropertyOp6
 70
     1
102
RTVSPropertyOp7
 70
     1
102
RTVSPropertyOp8
 70
     1
102
RTVSPropertyOp9
 70
     1
102
RTVSPropertyOp10
 70
     1
102
RTVSPropertyOp11
 70
     1
102
RTVSPropertyOp12
 70
     1
102
RTVSPropertyOp13
 70
     1
102
RTVSPropertyOp14
 70
     1
102
RTVSPropertyOp15
 70
     1
102
RTVSPropertyOp16
 70
     1
102
RTVSPropertyOp17
 70
     1
102
RTVSPropertyOp18
 70
     1
102
RTVSPropertyOp19
 70
     1
102
RTVSPropertyOp20
 70
     1
102
RTVSPropertyOp21
 70
     1
102
RTVSPropertyOp22
 70
     1
102
RTVSPropertyOp23
 70
     1
102
RTVSPropertyOp24
 70
     1
102
RTVSPropertyOp25
 70
     1
102
RTVSPropertyOp26
 70
     1
102
RTVSPropertyOp27
 70
     1
  0
DICTIONARY
  5
54B
102
{ACAD_REACTORS
330
54A
102
}
330
54A
100
AcDbDictionary
281
     1
  3
PH_GRPMEMBERS
350
54C
  0
PH_GROUP
  5
54D
102
{ACAD_REACTORS
330
54A
102
}
330
54A
  0
PH_GROUP
  5
54C
102
{ACAD_REACTORS
330
54B
102
}
330
54B
  0
ENDSEC
  0
EOF
