  0
SECTION
  2
HEADER
  9
$ACADVER
  1
AC1015
  9
$ACADMAINTVER
 70
    20
  9
$DWGCODEPAGE
  3
ANSI_1252
  9
$INSBASE
 10
0.0
 20
0.0
 30
0.0
  9
$EXTMIN
 10
0.9773720536104519
 20
0.9782572013616572
 30
-0.0000000349181948
  9
$EXTMAX
 10
593.0106066418704
 20
419.0069628501919
 30
0.0000000814935746
  9
$LIMMIN
 10
0.0
 20
0.0
  9
$LIMMAX
 10
420.0
 20
297.0
  9
$ORTHOMODE
 70
     1
  9
$REGENMODE
 70
     1
  9
$FILLMODE
 70
     1
  9
$QTEXTMODE
 70
     0
  9
$MIRRTEXT
 70
     1
  9
$LTSCALE
 40
0.4
  9
$ATTMODE
 70
     1
  9
$TEXTSIZE
 40
2.5
  9
$TRACEWID
 40
1.0
  9
$TEXTSTYLE
  7
STANDARD
  9
$CLAYER
  8
0
  9
$CELTYPE
  6
CONTINUOUS
  9
$CECOLOR
 62
     5
  9
$CELTSCALE
 40
1.0
  9
$DISPSILH
 70
     0
  9
$DIMSCALE
 40
1.0
  9
$DIMASZ
 40
3.72
  9
$DIMEXO
 40
0.0
  9
$DIMDLI
 40
7.0
  9
$DIMRND
 40
0.0
  9
$DIMDLE
 40
0.0
  9
$DIMEXE
 40
1.5
  9
$DIMTP
 40
0.0
  9
$DIMTM
 40
0.0
  9
$DIMTXT
 40
2.5
  9
$DIMCEN
 40
0.0
  9
$DIMTSZ
 40
0.0
  9
$DIMTOL
 70
     0
  9
$DIMLIM
 70
     0
  9
$DIMTIH
 70
     0
  9
$DIMTOH
 70
     0
  9
$DIMSE1
 70
     0
  9
$DIMSE2
 70
     0
  9
$DIMTAD
 70
     1
  9
$DIMZIN
 70
     8
  9
$DIMBLK
  1

  9
$DIMASO
 70
     1
  9
$DIMSHO
 70
     1
  9
$DIMPOST
  1

  9
$DIMAPOST
  1
"
  9
$DIMALT
 70
     0
  9
$DIMALTD
 70
     2
  9
$DIMALTF
 40
0.0393700787401575
  9
$DIMLFAC
 40
1.0
  9
$DIMTOFL
 70
     1
  9
$DIMTVP
 40
0.0
  9
$DIMTIX
 70
     0
  9
$DIMSOXD
 70
     0
  9
$DIMSAH
 70
     1
  9
$DIMBLK1
  1
_OPEN15
  9
$DIMBLK2
  1
_OPEN15
  9
$DIMSTYLE
  2
PHOENIX
  9
$DIMCLRD
 70
     1
  9
$DIMCLRE
 70
     1
  9
$DIMCLRT
 70
     5
  9
$DIMTFAC
 40
0.6666666666666666
  9
$DIMGAP
 40
1.0
  9
$DIMJUST
 70
     0
  9
$DIMSD1
 70
     0
  9
$DIMSD2
 70
     0
  9
$DIMTOLJ
 70
     1
  9
$DIMTZIN
 70
     8
  9
$DIMALTZ
 70
     0
  9
$DIMALTTZ
 70
     0
  9
$DIMUPT
 70
     1
  9
$DIMDEC
 70
     6
  9
$DIMTDEC
 70
     6
  9
$DIMALTU
 70
     2
  9
$DIMALTTD
 70
     2
  9
$DIMTXSTY
  7
STANDARD
  9
$DIMAUNIT
 70
     0
  9
$DIMADEC
 70
     0
  9
$DIMALTRND
 40
0.0
  9
$DIMAZIN
 70
     0
  9
$DIMDSEP
 70
    46
  9
$DIMATFIT
 70
     0
  9
$DIMFRAC
 70
     0
  9
$DIMLDRBLK
  1

  9
$DIMLUNIT
 70
     2
  9
$DIMLWD
 70
    -2
  9
$DIMLWE
 70
    -2
  9
$DIMTMOVE
 70
     0
  9
$LUNITS
 70
     2
  9
$LUPREC
 70
     4
  9
$SKETCHINC
 40
1.0
  9
$FILLETRAD
 40
0.0
  9
$AUNITS
 70
     0
  9
$AUPREC
 70
     0
  9
$MENU
  1
.
  9
$ELEVATION
 40
0.0
  9
$PELEVATION
 40
0.0
  9
$THICKNESS
 40
0.0
  9
$LIMCHECK
 70
     0
  9
$CHAMFERA
 40
10.0
  9
$CHAMFERB
 40
10.0
  9
$CHAMFERC
 40
0.0
  9
$CHAMFERD
 40
0.0
  9
$SKPOLY
 70
     0
  9
$TDCREATE
 40
2450973.508783102
  9
$TDUCREATE
 40
2450973.467116435
  9
$TDUPDATE
 40
2457003.397234410
  9
$TDUUPDATE
 40
2457003.355567743
  9
$TDINDWG
 40
0.0183257407
  9
$TDUSRTIMER
 40
0.0183257407
  9
$USRTIMER
 70
     1
  9
$ANGBASE
 50
0.0
  9
$ANGDIR
 70
     0
  9
$PDMODE
 70
    35
  9
$PDSIZE
 40
-2.0
  9
$PLINEWID
 40
0.0
  9
$SPLFRAME
 70
     0
  9
$SPLINETYPE
 70
     6
  9
$SPLINESEGS
 70
     8
  9
$HANDSEED
  5
E79
  9
$SURFTAB1
 70
     6
  9
$SURFTAB2
 70
     6
  9
$SURFTYPE
 70
     6
  9
$SURFU
 70
     6
  9
$SURFV
 70
     6
  9
$UCSBASE
  2

  9
$UCSNAME
  2

  9
$UCSORG
 10
0.0
 20
0.0
 30
0.0
  9
$UCSXDIR
 10
1.0
 20
0.0
 30
0.0
  9
$UCSYDIR
 10
0.0
 20
1.0
 30
0.0
  9
$UCSORTHOREF
  2

  9
$UCSORTHOVIEW
 70
     0
  9
$UCSORGTOP
 10
0.0
 20
0.0
 30
0.0
  9
$UCSORGBOTTOM
 10
0.0
 20
0.0
 30
0.0
  9
$UCSORGLEFT
 10
0.0
 20
0.0
 30
0.0
  9
$UCSORGRIGHT
 10
0.0
 20
0.0
 30
0.0
  9
$UCSORGFRONT
 10
0.0
 20
0.0
 30
0.0
  9
$UCSORGBACK
 10
0.0
 20
0.0
 30
0.0
  9
$PUCSBASE
  2

  9
$PUCSNAME
  2

  9
$PUCSORG
 10
0.0
 20
0.0
 30
0.0
  9
$PUCSXDIR
 10
1.0
 20
0.0
 30
0.0
  9
$PUCSYDIR
 10
0.0
 20
1.0
 30
0.0
  9
$PUCSORTHOREF
  2

  9
$PUCSORTHOVIEW
 70
     0
  9
$PUCSORGTOP
 10
0.0
 20
0.0
 30
0.0
  9
$PUCSORGBOTTOM
 10
0.0
 20
0.0
 30
0.0
  9
$PUCSORGLEFT
 10
0.0
 20
0.0
 30
0.0
  9
$PUCSORGRIGHT
 10
0.0
 20
0.0
 30
0.0
  9
$PUCSORGFRONT
 10
0.0
 20
0.0
 30
0.0
  9
$PUCSORGBACK
 10
0.0
 20
0.0
 30
0.0
  9
$USERI1
 70
     0
  9
$USERI2
 70
     0
  9
$USERI3
 70
     0
  9
$USERI4
 70
     0
  9
$USERI5
 70
     0
  9
$USERR1
 40
0.0
  9
$USERR2
 40
0.0
  9
$USERR3
 40
0.0
  9
$USERR4
 40
0.0
  9
$USERR5
 40
0.0
  9
$WORLDVIEW
 70
     1
  9
$SHADEDGE
 70
     3
  9
$SHADEDIF
 70
    70
  9
$TILEMODE
 70
     1
  9
$MAXACTVP
 70
    16
  9
$PINSBASE
 10
0.0
 20
0.0
 30
0.0
  9
$PLIMCHECK
 70
     0
  9
$PEXTMIN
 10
1.000000000000000E+20
 20
1.000000000000000E+20
 30
1.000000000000000E+20
  9
$PEXTMAX
 10
-1.000000000000000E+20
 20
-1.000000000000000E+20
 30
-1.000000000000000E+20
  9
$PLIMMIN
 10
0.0
 20
0.0
  9
$PLIMMAX
 10
420.0
 20
297.0
  9
$UNITMODE
 70
     0
  9
$VISRETAIN
 70
     0
  9
$PLINEGEN
 70
     0
  9
$PSLTSCALE
 70
     1
  9
$TREEDEPTH
 70
  3020
  9
$CMLSTYLE
  2
STANDARD
  9
$CMLJUST
 70
     0
  9
$CMLSCALE
 40
1.0
  9
$PROXYGRAPHICS
 70
     1
  9
$MEASUREMENT
 70
     0
  9
$CELWEIGHT
370
    35
  9
$ENDCAPS
280
     0
  9
$JOINSTYLE
280
     0
  9
$LWDISPLAY
290
     0
  9
$INSUNITS
 70
     0
  9
$HYPERLINKBASE
  1

  9
$STYLESHEET
  1
HP_SW.ctb
  9
$XEDIT
290
     1
  9
$CEPSNTYPE
380
     0
  9
$PSTYLEMODE
290
     1
  9
$FINGERPRINTGUID
  2
{6348D3E3-F6C6-4491-A225-3CE8A2836151}
  9
$VERSIONGUID
  2
{ED446822-CAA5-4A7D-83C1-FC59C7BE7868}
  9
$EXTNAMES
290
     1
  9
$PSVPSCALE
 40
0.0
  9
$OLESTARTUP
290
     0
  0
ENDSEC
  0
SECTION
  2
CLASSES
  0
CLASS
  1
PH_VARS
  2
PhoenixVars
  3
PHOENIX7010
 90
        0
280
     0
281
     0
  0
CLASS
  1
ACMESCOPE
  2
AcMeScope
  3
ACME_MODULE_NAME
 90
        0
280
     0
281
     0
  0
CLASS
  1
ACMECOMMANDHISTORY
  2
AcMeCommandHistory
  3
ACME_MODULE_NAME
 90
        0
280
     0
281
     0
  0
CLASS
  1
AcRfInsAdjusterMgr
  2
AcRfInsAdjusterMgr
  3
ACME_MODULE_NAME
 90
    32768
280
     0
281
     0
  0
CLASS
  1
ACGREFMASTER
  2
AcGrefMaster
  3
"AcadRfServer"
 90
        0
280
     0
281
     0
  0
CLASS
  1
AmiMaster
  2
AmiMaster
  3
"AmiServices"
 90
        0
280
     0
281
     0
  0
CLASS
  1
ACASGREFMASTER
  2
AcAsGrefMaster
  3
"AutoSurfResolver"
 90
        0
280
     0
281
     0
  0
CLASS
  1
ADAPPL
  2
AcAdAppl
  3
DesignerServices
 90
        0
280
     0
281
     0
  0
CLASS
  1
DEPMGR
  2
AcAdDepMgr
  3
DesignerServices
 90
        0
280
     0
281
     0
  0
CLASS
  1
PARAMMGR
  2
AcAdParamMgr
  3
DesignerServices
 90
        0
280
     0
281
     0
  0
CLASS
  1
PARAMSCOPE
  2
AcAdParamScope
  3
DesignerServices
 90
        0
280
     0
281
     0
  0
CLASS
  1
"IM_SYSVAR_MAN"
  2
AcImSysVarManager
  3
"ADAM"
 90
        0
280
     0
281
     0
  0
CLASS
  1
SYSTEM_VAR_INT
  2
AcImIntSysVar
  3
"ADAM"
 90
        0
280
     0
281
     0
  0
CLASS
  1
SYSTEM_VAR_REAL
  2
AcImRealSysVar
  3
"ADAM"
 90
        0
280
     0
281
     0
  0
CLASS
  1
SYSTEM_VAR_STR
  2
AcImStrSysVar
  3
"ADAM"
 90
        0
280
     0
281
     0
  0
CLASS
  1
NAMEDAPPL
  2
AcAdNamedAppl
  3
DesignerServices
 90
        0
280
     0
281
     0
  0
CLASS
  1
ADPART
  2
AcAdPart
  3
DesignerServices
 90
    32768
280
     0
281
     1
  0
CLASS
  1
ADBASE
  2
AcAdBase
  3
DesignerServices
 90
        0
280
     0
281
     0
  0
CLASS
  1
BODYID
  2
AcAdBodyId
  3
DesignerServices
 90
        0
280
     0
281
     0
  0
CLASS
  1
WORKPLANEDISPLAYMGR
  2
AcAdDisplayMgr
  3
DesignerServices
 90
        0
280
     0
281
     0
  0
CLASS
  1
ADHNTMPLT
  2
AdHoleNoteTemplateMgr
  3
DesignerServices
 90
        0
280
     0
281
     0
  0
CLASS
  1
AM_HNTEMPLATE_MGR_NAME
  2
AdHoleNoteTemplateMgrName
  3
DesignerServices
 90
        0
280
     0
281
     0
  0
CLASS
  1
AcAdGrefModule
  2
AcAdGrefModule
  3
AD_GREF_SERVICES_NSTR
 90
        0
280
     0
281
     0
  0
CLASS
  1
AM_DRAWING_MGR
  2
AcDmDwgMgr
  3
AcMechDwgViewMgmt
 90
        0
280
     0
281
     0
  0
CLASS
  1
AM_DWG_DOCUMENT
  2
AcDmDwgDocument
  3
AcMechDwgViewMgmt
 90
        0
280
     0
281
     0
  0
CLASS
  1
AM_DWG_SHEET
  2
AcDmSheet
  3
AcMechDwgViewMgmt
 90
        0
280
     0
281
     0
  0
CLASS
  1
AM_VIEWDIMPARMAP
  2
AcDmViewDimParMap
  3
AcMechDwgViewMgmt
 90
        0
280
     0
281
     0
  0
CLASS
  1
AM_DWGMGR_NAME
  2
AcDmDwgMgrName
  3
AcMechDwgViewMgmt
 90
        0
280
     0
281
     0
  0
CLASS
  1
ACAMPROJECT
  2
AcAmProject
  3
DesignerAssemblies
 90
        0
280
     0
281
     0
  0
CLASS
  1
ACAMGRCOMPSET
  2
AcAmGrCompSet
  3
DesignerAssemblies
 90
    32768
280
     0
281
     0
  0
CLASS
  1
ACAMGRCOMPDEFSET
  2
AcAmGrCompDefSet
  3
DesignerAssemblies
 90
    32768
280
     0
281
     0
  0
CLASS
  1
ACAMGRCOMPDEF
  2
AcAmGrCompDef
  3
DesignerAssemblies
 90
        0
280
     0
281
     0
  0
CLASS
  1
ACAMCOMPDEF
  2
AcAmCompDef
  3
DesignerAssemblies
 90
        0
280
     0
281
     0
  0
CLASS
  1
ACAMCOMPDEFMGR
  2
AcAmCompDefMgr
  3
DesignerAssemblies
 90
        0
280
     0
281
     0
  0
CLASS
  1
AMCONTEXTMGR
  2
AcAmContextMgr
  3
DesignerAssemblies
 90
        0
280
     0
281
     0
  0
CLASS
  1
ACAMCONTEXTMODELER
  2
AcAmContextModeler
  3
DesignerAssemblies
 90
        0
280
     0
281
     0
  0
CLASS
  1
ACAMDRAWINGMAN
  2
AcAmDrawingMan
  3
DesignerAssemblies
 90
        0
280
     0
281
     0
  0
CLASS
  1
ACDMVIEWGEOM
  2
AcDmViewGeometry
  3
AcMechDwgViewMgmt
 90
    32768
280
     0
281
     1
  0
CLASS
  1
ASSYSVARS
  2
AcAsSysVars
  3
"AutoSurf"
 90
        0
280
     0
281
     0
  0
CLASS
  1
ASSTATICVARS
  2
AcAsStaticVars
  3
"AutoSurf"
 90
    32768
280
     0
281
     0
  0
CLASS
  1
ASAPP
  2
AcAsAppObject
  3
"AutoSurf"
 90
        0
280
     0
281
     0
  0
CLASS
  1
AGDICTIONARY
  2
AgDictionary
  3
"AccelView"
 90
        0
280
     0
281
     0
  0
CLASS
  1
PH_ENTDIMREACTOR
  2
EntDimReactor
  3
PHOENIX7010
 90
        0
280
     0
281
     0
  0
CLASS
  1
PH_DIMENTREACTOR
  2
DimEntReactor
  3
PHOENIX7010
 90
    32768
280
     0
281
     0
  0
CLASS
  1
ACDBDICTIONARYWDFLT
  2
AcDbDictionaryWithDefault
  3
ObjectDBX Classes
 90
        0
280
     0
281
     0
  0
CLASS
  1
MATERIAL
  2
AcDbMaterial
  3
ObjectDBX Classes
 90
     1153
280
     0
281
     0
  0
CLASS
  1
VISUALSTYLE
  2
AcDbVisualStyle
  3
ObjectDBX Classes
 90
     4095
280
     0
281
     0
  0
CLASS
  1
TABLESTYLE
  2
AcDbTableStyle
  3
ObjectDBX Classes
 90
     4095
280
     0
281
     0
  0
CLASS
  1
SCALE
  2
AcDbScale
  3
ObjectDBX Classes
 90
     1153
280
     0
281
     0
  0
CLASS
  1
MLEADERSTYLE
  2
AcDbMLeaderStyle
  3
ACDB_MLEADERSTYLE_CLASS
 90
     4095
280
     0
281
     0
  0
CLASS
  1
PH_GROUP
  2
PhGroup
  3
PHOENIX7010
 90
        0
280
     0
281
     0
  0
CLASS
  1
DICTIONARYVAR
  2
AcDbDictionaryVar
  3
ObjectDBX Classes
 90
        0
280
     0
281
     0
  0
CLASS
  1
CELLSTYLEMAP
  2
AcDbCellStyleMap
  3
ObjectDBX Classes
 90
     1152
280
     0
281
     0
  0
CLASS
  1
ACDBPLACEHOLDER
  2
AcDbPlaceHolder
  3
ObjectDBX Classes
 90
        0
280
     0
281
     0
  0
CLASS
  1
LAYOUT
  2
AcDbLayout
  3
ObjectDBX Classes
 90
        0
280
     0
281
     0
  0
ENDSEC
  0
SECTION
  2
TABLES
  0
TABLE
  2
VPORT
  5
8
330
0
100
AcDbSymbolTable
 70
     1
  0
VPORT
  5
BD7
330
8
100
AcDbSymbolTableRecord
100
AcDbViewportTableRecord
  2
*ACTIVE
 70
     0
 10
0.0
 20
0.0
 11
1.0
 21
1.0
 12
296.9939893477405
 22
209.9926100257768
 13
0.0
 23
0.0
 14
10.0
 24
10.0
 15
10.0
 25
10.0
 16
0.0
 26
0.0
 36
1.0
 17
0.0
 27
0.0
 37
0.0
 40
420.7562703334001
 41
1.73644251626898
 42
50.0
 43
0.0
 44
0.0
 50
0.0
 51
0.0
 71
     0
 72
   800
 73
     1
 74
     3
 75
     0
 76
     0
 77
     0
 78
     0
281
     0
 65
     1
110
0.0
120
0.0
130
0.0
111
1.0
121
0.0
131
0.0
112
0.0
122
1.0
132
0.0
 79
     0
146
0.0
  0
ENDTAB
  0
TABLE
  2
LTYPE
  5
5
330
0
100
AcDbSymbolTable
 70
    10
  0
LTYPE
  5
14
330
5
100
AcDbSymbolTableRecord
100
AcDbLinetypeTableRecord
  2
BYBLOCK
 70
     0
  3

 72
    65
 73
     0
 40
0.0
  0
LTYPE
  5
15
330
5
100
AcDbSymbolTableRecord
100
AcDbLinetypeTableRecord
  2
BYLAYER
 70
     0
  3

 72
    65
 73
     0
 40
0.0
  0
LTYPE
  5
16
330
5
100
AcDbSymbolTableRecord
100
AcDbLinetypeTableRecord
  2
CONTINUOUS
 70
     0
  3
Solid line
 72
    65
 73
     0
 40
0.0
  0
LTYPE
  5
A8
330
5
100
AcDbSymbolTableRecord
100
AcDbLinetypeTableRecord
  2
PHANTOM2
 70
     0
  3
___ _ _ ___ _ _ ___ _ _ ___ _ _ ___ _ _ ___ _ _
 72
    65
 73
     6
 40
1.25
 49
0.625
 74
     0
 49
-0.125
 74
     0
 49
0.125
 74
     0
 49
-0.125
 74
     0
 49
0.125
 74
     0
 49
-0.125
 74
     0
  0
LTYPE
  5
D5
330
5
100
AcDbSymbolTableRecord
100
AcDbLinetypeTableRecord
  2
ASULTYPE
 70
     0
  3
Ausgezogene Linie
 72
    65
 73
     2
 40
3.0
 49
2.5
 74
     0
 49
0.5
 74
     0
  0
LTYPE
  5
D6
330
5
100
AcDbSymbolTableRecord
100
AcDbLinetypeTableRecord
  2
ASVLTYPE
 70
     0
  3
__ __ __ __ __ __ __ __ __ __ __ __ __ __ __ __ __ __ __ __ __
 72
    65
 73
     2
 40
0.75
 49
0.5
 74
     0
 49
-0.25
 74
     0
  0
LTYPE
  5
D8
330
5
100
AcDbSymbolTableRecord
100
AcDbLinetypeTableRecord
  2
VERDECKT
 70
     0
  3
__ __ __ __ __ __ __ __ __ __ __ __ __ __ __ __
 72
    65
 73
     2
 40
0.375
 49
0.25
 74
     0
 49
-0.125
 74
     0
  0
LTYPE
  5
D9
330
5
100
AcDbSymbolTableRecord
100
AcDbLinetypeTableRecord
  2
MITTE
 70
     0
  3
____ _ ____ _ ____ _ ____ _ ____ _ ____ _ ____ 
 72
    65
 73
     4
 40
2.0
 49
1.25
 74
     0
 49
-0.25
 74
     0
 49
0.25
 74
     0
 49
-0.25
 74
     0
  0
LTYPE
  5
684
330
5
100
AcDbSymbolTableRecord
100
AcDbLinetypeTableRecord
  2
ACAD_ISO02W100
 70
     0
  3
__ __ __ __ __ __ __ __ __ __ __ __ __ __ __ __
 72
    65
 73
     2
 40
15.0
 49
12.0
 74
     0
 49
-3.0
 74
     0
  0
LTYPE
  5
685
330
5
100
AcDbSymbolTableRecord
100
AcDbLinetypeTableRecord
  2
ACAD_ISO04W100
 70
     0
  3
____ . ____ . ____ . ____ . ____ . ____ . ____ 
 72
    65
 73
     4
 40
30.5
 49
24.0
 74
     0
 49
-3.0
 74
     0
 49
0.5
 74
     0
 49
-3.0
 74
     0
  0
LTYPE
  5
686
330
5
100
AcDbSymbolTableRecord
100
AcDbLinetypeTableRecord
  2
ACAD_ISO05W100
 70
     0
  3
____ .. ____ .. ____ .. ____ .. ____ .. ____ ..
 72
    65
 73
     6
 40
34.0
 49
24.0
 74
     0
 49
-3.0
 74
     0
 49
0.5
 74
     0
 49
-3.0
 74
     0
 49
0.5
 74
     0
 49
-3.0
 74
     0
  0
LTYPE
  5
687
330
5
100
AcDbSymbolTableRecord
100
AcDbLinetypeTableRecord
  2
ACAD_ISO07W100
 70
     0
  3
. . . . . . . . . . . . . . . . . . . . . . . .
 72
    65
 73
     2
 40
3.5
 49
0.5
 74
     0
 49
-3.0
 74
     0
  0
ENDTAB
  0
TABLE
  2
LAYER
  5
2
102
{ACAD_XDICTIONARY
360
CE1
102
}
330
0
100
AcDbSymbolTable
 70
    17
  0
LAYER
  5
F
102
{ACAD_XDICTIONARY
360
D5E
102
}
330
2
100
AcDbSymbolTableRecord
100
AcDbLayerTableRecord
  2
0
 70
     0
 62
     7
  6
CONTINUOUS
370
    -3
390
BDA
  0
LAYER
  5
44
102
{ACAD_XDICTIONARY
360
D60
102
}
330
2
100
AcDbSymbolTableRecord
100
AcDbLayerTableRecord
  2
4
 70
     0
 62
     7
  6
CONTINUOUS
370
    -3
390
BDA
  0
LAYER
  5
48
102
{ACAD_XDICTIONARY
360
D62
102
}
330
2
100
AcDbSymbolTableRecord
100
AcDbLayerTableRecord
  2
2
 70
     0
 62
     7
  6
CONTINUOUS
370
    -3
390
BDA
  0
LAYER
  5
4A
102
{ACAD_XDICTIONARY
360
D64
102
}
330
2
100
AcDbSymbolTableRecord
100
AcDbLayerTableRecord
  2
3
 70
     0
 62
     7
  6
CONTINUOUS
370
    -3
390
BDA
  0
LAYER
  5
B6
102
{ACAD_XDICTIONARY
360
D66
102
}
330
2
100
AcDbSymbolTableRecord
100
AcDbLayerTableRecord
  2
AM_VIEWS
 70
     0
 62
    -7
  6
CONTINUOUS
370
    -3
390
BDA
  0
LAYER
  5
B7
102
{ACAD_XDICTIONARY
360
D68
102
}
330
2
100
AcDbSymbolTableRecord
100
AcDbLayerTableRecord
  2
AM_PARDIM
 70
     0
 62
     3
  6
CONTINUOUS
370
    -3
390
BDA
  0
LAYER
  5
B8
102
{ACAD_XDICTIONARY
360
D6A
102
}
330
2
100
AcDbSymbolTableRecord
100
AcDbLayerTableRecord
  2
AM_REFDIM
 70
     0
 62
     4
  6
CONTINUOUS
370
    -3
390
BDA
  0
LAYER
  5
B9
102
{ACAD_XDICTIONARY
360
D6C
102
}
330
2
100
AcDbSymbolTableRecord
100
AcDbLayerTableRecord
  2
AM_VIS
 70
     0
 62
     7
  6
CONTINUOUS
370
    -3
390
BDA
  0
LAYER
  5
BA
102
{ACAD_XDICTIONARY
360
D6E
102
}
330
2
100
AcDbSymbolTableRecord
100
AcDbLayerTableRecord
  2
AM_HID
 70
     0
 62
     7
  6
VERDECKT
370
    -3
390
BDA
  0
LAYER
  5
CB
102
{ACAD_XDICTIONARY
360
D70
102
}
330
2
100
AcDbSymbolTableRecord
100
AcDbLayerTableRecord
  2
AM_TR
 70
     0
 62
     7
  6
CONTINUOUS
370
    -3
390
BDA
  0
LAYER
  5
CC
102
{ACAD_XDICTIONARY
360
D72
102
}
330
2
100
AcDbSymbolTableRecord
100
AcDbLayerTableRecord
  2
AM_BM
 70
     0
 62
     7
  6
CONTINUOUS
370
    -3
390
BDA
  0
LAYER
  5
CD
102
{ACAD_XDICTIONARY
360
D74
102
}
330
2
100
AcDbSymbolTableRecord
100
AcDbLayerTableRecord
  2
AM_BL
 70
     0
 62
     7
  6
CONTINUOUS
370
    -3
390
BDA
  0
LAYER
  5
EB
330
2
100
AcDbSymbolTableRecord
100
AcDbLayerTableRecord
  2
DEFPOINTS
 70
     0
 62
     7
  6
CONTINUOUS
290
     0
370
    -3
390
BDA
  0
LAYER
  5
68B
102
{ACAD_XDICTIONARY
360
D76
102
}
330
2
100
AcDbSymbolTableRecord
100
AcDbLayerTableRecord
  2
BEMASSUNG
 70
     0
 62
     7
  6
CONTINUOUS
370
    -3
390
BDA
  0
LAYER
  5
697
102
{ACAD_XDICTIONARY
360
D78
102
}
330
2
100
AcDbSymbolTableRecord
100
AcDbLayerTableRecord
  2
HAUPTEBENE
 70
     0
 62
     7
  6
CONTINUOUS
370
    -3
390
BDA
  0
LAYER
  5
6AD
102
{ACAD_XDICTIONARY
360
D7A
102
}
330
2
100
AcDbSymbolTableRecord
100
AcDbLayerTableRecord
  2
BEMASSUNG2
 70
     0
 62
     7
  6
CONTINUOUS
370
    -3
390
BDA
  0
LAYER
  5
CE0
102
{ACAD_XDICTIONARY
360
D7C
102
}
330
2
100
AcDbSymbolTableRecord
100
AcDbLayerTableRecord
  2
PH_HILFSELEMENTE
 70
     0
 62
    -7
  6
CONTINUOUS
370
    -3
390
BDA
  0
ENDTAB
  0
TABLE
  2
STYLE
  5
3
330
0
100
AcDbSymbolTable
 70
     3
  0
STYLE
  5
10
330
3
100
AcDbSymbolTableRecord
100
AcDbTextStyleTableRecord
  2
STANDARD
 70
     0
 40
0.0
 41
1.199999999999999
 50
0.0
 71
     0
 42
2.5
  3
ISOCP.shx
  4

  0
STYLE
  5
68A
330
3
100
AcDbSymbolTableRecord
100
AcDbTextStyleTableRecord
  2
ISO3098-1
 70
     0
 40
0.0
 41
1.0
 50
0.0
 71
     0
 42
0.0
  3
isoct.shx
  4

  0
ENDTAB
  0
TABLE
  2
VIEW
  5
6
330
0
100
AcDbSymbolTable
 70
     0
  0
ENDTAB
  0
TABLE
  2
UCS
  5
7
330
0
100
AcDbSymbolTable
 70
     0
  0
ENDTAB
  0
TABLE
  2
APPID
  5
9
330
0
100
AcDbSymbolTable
 70
    10
  0
APPID
  5
11
330
9
100
AcDbSymbolTableRecord
100
AcDbRegAppTableRecord
  2
ACAD
 70
     0
  0
APPID
  5
32
330
9
100
AcDbSymbolTableRecord
100
AcDbRegAppTableRecord
  2
PHOENIX7010
 70
     0
  0
APPID
  5
B5
330
9
100
AcDbSymbolTableRecord
100
AcDbRegAppTableRecord
  2
AD_DRAW
 70
     0
  0
APPID
  5
CF
330
9
100
AcDbSymbolTableRecord
100
AcDbRegAppTableRecord
  2
DESIGNERASSEMBLIES
 70
     0
  0
APPID
  5
D1
330
9
100
AcDbSymbolTableRecord
100
AcDbRegAppTableRecord
  2
MCAD_NO_VIS
 70
     0
  0
APPID
  5
D7
330
9
100
AcDbSymbolTableRecord
100
AcDbRegAppTableRecord
  2
ASURF_PCURVE_APPNAME
 70
     0
  0
APPID
  5
DF5
330
9
100
AcDbSymbolTableRecord
100
AcDbRegAppTableRecord
  2
AcadAnnoPO
 70
     0
  0
APPID
  5
DF7
330
9
100
AcDbSymbolTableRecord
100
AcDbRegAppTableRecord
  2
ACAD_EXEMPT_FROM_CAD_STANDARDS
 70
     0
  0
APPID
  5
E37
330
9
100
AcDbSymbolTableRecord
100
AcDbRegAppTableRecord
  2
ACAD_PSEXT
 70
     0
  0
APPID
  5
E75
330
9
100
AcDbSymbolTableRecord
100
AcDbRegAppTableRecord
  2
ACAD_MLEADERVER
 70
     0
  0
ENDTAB
  0
TABLE
  2
DIMSTYLE
  5
A
330
0
100
AcDbSymbolTable
 70
    11
100
AcDbDimStyleTable
 71
     1
340
33
  0
DIMSTYLE
105
1D
330
A
100
AcDbSymbolTableRecord
100
AcDbDimStyleTableRecord
  2
STANDARD
 70
     0
340
10
  0
DIMSTYLE
105
24
330
A
100
AcDbSymbolTableRecord
100
AcDbDimStyleTableRecord
  2
ISO-25
 70
     0
 41
2.5
 42
0.625
 43
3.75
 44
1.25
 74
     0
 77
     1
 78
     8
140
2.5
141
2.5
143
0.0394
145
1.0
147
0.625
172
     1
340
10
  0
DIMSTYLE
105
25
330
A
100
AcDbSymbolTableRecord
100
AcDbDimStyleTableRecord
  2
ISO-35
 70
     0
 41
3.5
 42
0.875
 43
5.25
 44
1.75
 74
     0
 77
     1
 78
     8
140
3.5
141
3.5
143
0.0394
145
1.399999999999999
147
0.875
172
     1
340
10
  0
DIMSTYLE
105
26
330
A
100
AcDbSymbolTableRecord
100
AcDbDimStyleTableRecord
  2
ISO-5
 70
     0
 41
5.0
 42
1.25
 43
7.5
 44
2.5
 74
     0
 77
     1
 78
     8
140
5.0
141
5.0
143
0.0394
145
2.0
147
1.25
172
     1
340
10
  0
DIMSTYLE
105
27
330
A
100
AcDbSymbolTableRecord
100
AcDbDimStyleTableRecord
  2
ISO-7
 70
     0
 41
7.0
 42
1.75
 43
10.5
 44
3.5
 74
     0
 77
     1
 78
     8
140
7.0
141
7.0
143
0.0394
145
2.799999999999999
147
1.75
172
     1
340
10
  0
DIMSTYLE
105
28
330
A
100
AcDbSymbolTableRecord
100
AcDbDimStyleTableRecord
  2
ISO1
 70
     0
 41
10.0
 42
2.5
 43
15.0
 44
5.0
 74
     0
 77
     1
 78
     8
140
10.0
141
10.0
143
0.0394
145
4.0
147
2.5
172
     1
340
10
  0
DIMSTYLE
105
29
330
A
100
AcDbSymbolTableRecord
100
AcDbDimStyleTableRecord
  2
ISO1-4
 70
     0
 41
14.0
 42
3.5
 43
21.0
 44
7.0
 74
     0
 77
     1
 78
     8
140
14.0
141
14.0
143
0.0394
145
5.599999999999999
147
3.5
172
     1
340
10
  0
DIMSTYLE
105
2A
330
A
100
AcDbSymbolTableRecord
100
AcDbDimStyleTableRecord
  2
ISO2
 70
     0
 41
20.0
 42
5.0
 43
30.0
 44
10.0
 74
     0
 77
     1
 78
     8
140
20.0
141
20.0
143
0.0394
145
8.0
147
5.0
172
     1
340
10
  0
DIMSTYLE
105
33
330
A
100
AcDbSymbolTableRecord
100
AcDbDimStyleTableRecord
  2
PHOENIX
 70
     0
  4
"
 41
3.72
 42
0.0
 43
7.0
 44
1.5
 73
     0
 74
     0
 77
     1
 78
     8
140
3.5
141
0.0
143
0.0393700787401575
146
0.6666666666666666
147
2.0
172
     1
173
     1
176
     1
177
     1
178
     5
271
     2
272
     2
284
     8
288
     1
289
     0
340
10
341
35
343
35
344
35
  0
DIMSTYLE
105
34
330
A
100
AcDbSymbolTableRecord
100
AcDbDimStyleTableRecord
  2
PHOENIX$4
 70
     0
  4
"
 41
3.72
 42
0.0
 43
7.0
 44
1.5
 73
     0
 74
     0
 77
     1
 78
     8
140
3.5
141
0.0
143
0.0393700787401575
146
0.6666666666666666
147
2.0
173
     1
176
     1
177
     1
178
     5
271
     2
272
     2
281
     1
284
     8
288
     1
289
     0
340
10
341
35
343
35
344
35
  0
ENDTAB
  0
TABLE
  2
BLOCK_RECORD
  5
1
330
0
100
AcDbSymbolTable
 70
    11
  0
BLOCK_RECORD
  5
1A
330
1
100
AcDbSymbolTableRecord
100
AcDbBlockTableRecord
  2
*MODEL_SPACE
340
C31
  0
BLOCK_RECORD
  5
17
330
1
100
AcDbSymbolTableRecord
100
AcDbBlockTableRecord
  2
*PAPER_SPACE
340
C32
  0
BLOCK_RECORD
  5
35
330
1
100
AcDbSymbolTableRecord
100
AcDbBlockTableRecord
  2
_OPEN15
340
0
  0
BLOCK_RECORD
  5
C3
330
1
100
AcDbSymbolTableRecord
100
AcDbBlockTableRecord
  2
*U1
340
0
  0
BLOCK_RECORD
  5
CCC
330
1
100
AcDbSymbolTableRecord
100
AcDbBlockTableRecord
  2
PH_GRPBLK
340
0
102
{BLKREFS
331
D5B
331
DA4
331
DA7
331
DDF
102
}
  0
ENDTAB
  0
ENDSEC
  0
SECTION
  2
BLOCKS
  0
BLOCK
  5
1B
330
1A
100
AcDbEntity
  8
0
100
AcDbBlockBegin
  2
*MODEL_SPACE
 70
     0
 10
0.0
 20
0.0
 30
0.0
  3
*MODEL_SPACE
  1

  0
ENDBLK
  5
1C
330
1A
100
AcDbEntity
  8
0
100
AcDbBlockEnd
  0
BLOCK
  5
18
330
17
100
AcDbEntity
 67
     1
  8
0
100
AcDbBlockBegin
  2
*PAPER_SPACE
 70
     0
 10
0.0
 20
0.0
 30
0.0
  3
*PAPER_SPACE
  1

  0
ENDBLK
  5
19
330
17
100
AcDbEntity
 67
     1
  8
0
100
AcDbBlockEnd
  0
BLOCK
  5
39
330
35
100
AcDbEntity
  8
0
  6
Continuous
 62
     7
100
AcDbBlockBegin
  2
_OPEN15
 70
     0
 10
1.0
 20
0.0
 30
0.0
  3
_OPEN15
  1

  0
LINE
  5
36
330
35
100
AcDbEntity
  8
0
  6
ByBlock
 62
     0
100
AcDbLine
 10
0.0
 20
0.0
 30
0.0
 11
1.0
 21
0.0
 31
0.0
  0
LINE
  5
37
330
35
100
AcDbEntity
  8
0
  6
ByBlock
 62
     0
100
AcDbLine
 10
1.0
 20
0.0
 30
0.0
 11
0.0
 21
0.1316524975873958
 31
0.0
  0
LINE
  5
38
330
35
100
AcDbEntity
  8
0
  6
ByBlock
 62
     0
100
AcDbLine
 10
1.0
 20
0.0
 30
0.0
 11
0.0
 21
-0.1316524975873958
 31
0.0
  0
ENDBLK
  5
3A
330
35
100
AcDbEntity
  8
0
  6
Continuous
 62
     7
100
AcDbBlockEnd
  0
BLOCK
  5
C4
330
C3
100
AcDbEntity
  8
0
  6
Continuous
 62
     7
100
AcDbBlockBegin
  2
*U1
 70
     1
 10
0.0
 20
0.0
 30
0.0
  3
*U1
  1

  0
ENDBLK
  5
C5
330
C3
100
AcDbEntity
  8
0
  6
Continuous
 62
     7
100
AcDbBlockEnd
  0
BLOCK
  5
CCD
330
CCC
100
AcDbEntity
  8
0
 62
     7
370
    50
100
AcDbBlockBegin
  2
PH_GRPBLK
 70
     0
 10
0.0
 20
0.0
 30
0.0
  3
PH_GRPBLK
  1

  0
POINT
  5
CCE
330
CCC
100
AcDbEntity
  8
DEFPOINTS
  6
Continuous
 62
     0
370
    50
100
AcDbPoint
 10
0.0
 20
0.0
 30
0.0
  0
ENDBLK
  5
CCF
330
CCC
100
AcDbEntity
  8
0
 62
     7
370
    50
100
AcDbBlockEnd
  0
ENDSEC
  0
SECTION
  2
ENTITIES
  0
TEXT
  5
68C
102
{ACAD_REACTORS
330
C36
102
}
330
1A
100
AcDbEntity
  8
BEMASSUNG
  6
Continuous
 62
     5
100
AcDbText
 10
412.2541608022532
 20
274.258286644247
 30
0.0
 40
5.0
  1
d
 50
90.0
 41
1.5
100
AcDbText
1001
PHOENIX7010
1002
{
1070
    62
1070
     5
1070
    41
1040
1.0
1002
}
  0
LINE
  5
68E
102
{ACAD_REACTORS
330
C36
102
}
330
1A
100
AcDbEntity
  8
BEMASSUNG
  6
Continuous
 62
     1
100
AcDbLine
 10
414.7541608022532
 20
365.878251244247
 30
0.0
 11
414.3355314583205
 21
362.9076032556091
 31
0.0
1001
PHOENIX7010
1002
{
1070
    62
1070
     1
1070
    41
1040
1.0
1002
}
  0
LINE
  5
68F
102
{ACAD_REACTORS
330
C36
102
}
330
1A
100
AcDbEntity
  8
BEMASSUNG
  6
Continuous
 62
     1
100
AcDbLine
 10
414.7541608022532
 20
365.878251244247
 30
0.0
 11
415.1727901461859
 21
362.9076032556091
 31
0.0
1001
PHOENIX7010
1002
{
1070
    62
1070
     1
1070
    41
1040
1.0
1002
}
  0
LINE
  5
690
102
{ACAD_REACTORS
330
C36
102
}
330
1A
100
AcDbEntity
  8
BEMASSUNG
  6
Continuous
 62
     1
100
AcDbLine
 10
414.7541608022532
 20
187.6382915242469
 30
0.0
 11
415.1727901461859
 21
190.6089395128849
 31
0.0
1001
PHOENIX7010
1002
{
1070
    62
1070
     1
1070
    41
1040
1.0
1002
}
  0
LINE
  5
691
102
{ACAD_REACTORS
330
C36
102
}
330
1A
100
AcDbEntity
  8
BEMASSUNG
  6
Continuous
 62
     1
100
AcDbLine
 10
414.7541608022532
 20
187.6382915242469
 30
0.0
 11
414.3355314583204
 21
190.6089395128849
 31
0.0
1001
PHOENIX7010
1002
{
1070
    62
1070
     1
1070
    41
1040
1.0
1002
}
  0
LINE
  5
692
102
{ACAD_REACTORS
330
C36
102
}
330
1A
100
AcDbEntity
  8
BEMASSUNG
  6
Continuous
 62
     1
100
AcDbLine
 10
414.7541608022532
 20
187.6382915242469
 30
0.0
 11
414.7541608022532
 21
365.878251244247
 31
0.0
1001
PHOENIX7010
1002
{
1070
    62
1070
     1
1070
    41
1040
1.0
1002
}
  0
LINE
  5
693
102
{ACAD_REACTORS
330
C36
102
}
330
1A
100
AcDbEntity
  8
BEMASSUNG
  6
Continuous
 62
     1
100
AcDbLine
 10
406.1541547022533
 20
365.878251244247
 30
0.0
 11
416.7541608022532
 21
365.878251244247
 31
0.0
1001
PHOENIX7010
1002
{
1070
    62
1070
     1
1070
    41
1040
1.0
1002
}
  0
LINE
  5
694
102
{ACAD_REACTORS
330
C36
102
}
330
1A
100
AcDbEntity
  8
BEMASSUNG
  6
Continuous
 62
     1
100
AcDbLine
 10
403.7541608022531
 20
187.638291524247
 30
0.0
 11
416.7541608022531
 21
187.6382915242469
 31
0.0
1001
PHOENIX7010
1002
{
1070
    62
1070
     1
1070
    41
1040
1.0
1002
}
  0
LINE
  5
698
102
{ACAD_REACTORS
330
C37
102
}
330
1A
100
AcDbEntity
  8
HAUPTEBENE
  6
Continuous
 62
     7
100
AcDbLine
 10
404.7541608022531
 20
190.258286644247
 30
0.0
 11
403.7541608022531
 21
190.258286644247
 31
0.0
1001
PHOENIX7010
1002
{
1070
    62
1070
     7
1070
    41
1040
1.0
1002
}
  0
LINE
  5
699
102
{ACAD_REACTORS
330
C37
102
}
330
1A
100
AcDbEntity
  8
HAUPTEBENE
  6
Continuous
 62
     7
100
AcDbLine
 10
404.7541608022531
 20
193.2582866442469
 30
0.0
 11
404.7541608022531
 21
190.258286644247
 31
0.0
1001
PHOENIX7010
1002
{
1070
    62
1070
     7
1070
    41
1040
1.0
1002
}
  0
LINE
  5
69A
102
{ACAD_REACTORS
330
C37
102
}
330
1A
100
AcDbEntity
  8
HAUPTEBENE
  6
Continuous
 62
     7
100
AcDbLine
 10
403.7541608022531
 20
193.2582866442469
 30
0.0
 11
404.7541608022531
 21
193.2582866442469
 31
0.0
1001
PHOENIX7010
1002
{
1070
    62
1070
     7
1070
    41
1040
1.0
1002
}
  0
CIRCLE
  5
69B
330
1A
100
AcDbEntity
  8
HAUPTEBENE
  6
Continuous
 62
     7
100
AcDbCircle
 10
357.1041821722532
 20
191.758286644247
 30
0.0
 40
1.5
1001
PHOENIX7010
1002
{
1070
    62
1070
     7
1070
    41
1040
1.0
1002
}
  0
CIRCLE
  5
69C
330
1A
100
AcDbEntity
  8
HAUPTEBENE
  6
Continuous
 62
     7
100
AcDbCircle
 10
234.6042126822532
 20
191.758286644247
 30
0.0
 40
1.5
1001
PHOENIX7010
1002
{
1070
    62
1070
     7
1070
    41
1040
1.0
1002
}
  0
CIRCLE
  5
69D
330
1A
100
AcDbEntity
  8
HAUPTEBENE
  6
Continuous
 62
     7
100
AcDbCircle
 10
223.7541760622532
 20
191.758286644247
 30
0.0
 40
1.5
1001
PHOENIX7010
1002
{
1070
    62
1070
     7
1070
    41
1040
1.0
1002
}
  0
CIRCLE
  5
69E
330
1A
100
AcDbEntity
  8
HAUPTEBENE
  6
Continuous
 62
     7
100
AcDbCircle
 10
101.2541760622531
 20
191.758286644247
 30
0.0
 40
1.5
1001
PHOENIX7010
1002
{
1070
    62
1070
     7
1070
    41
1040
1.0
1002
}
  0
TEXT
  5
6A1
102
{ACAD_REACTORS
330
C38
102
}
330
1A
100
AcDbEntity
  8
BEMASSUNG
  6
Continuous
 62
     5
100
AcDbText
 10
380.8541821722532
 20
283.448289084247
 30
0.0
 40
5.0
  1
l
 50
90.0
 41
1.5
100
AcDbText
1001
PHOENIX7010
1002
{
1070
    62
1070
     5
1070
    41
1040
1.0
1002
}
  0
LINE
  5
6A2
102
{ACAD_REACTORS
330
C38
102
}
330
1A
100
AcDbEntity
  8
BEMASSUNG
  6
Continuous
 62
     1
100
AcDbLine
 10
383.3541821722532
 20
187.638291524247
 30
0.0
 11
383.7728115161859
 21
190.6089395128849
 31
0.0
1001
PHOENIX7010
1002
{
1070
    62
1070
     1
1070
    41
1040
1.0
1002
}
  0
LINE
  5
6A3
102
{ACAD_REACTORS
330
C38
102
}
330
1A
100
AcDbEntity
  8
BEMASSUNG
  6
Continuous
 62
     1
100
AcDbLine
 10
383.3541821722532
 20
187.638291524247
 30
0.0
 11
382.9355528283205
 21
190.6089395128849
 31
0.0
1001
PHOENIX7010
1002
{
1070
    62
1070
     1
1070
    41
1040
1.0
1002
}
  0
LINE
  5
6A4
102
{ACAD_REACTORS
330
C38
102
}
330
1A
100
AcDbEntity
  8
BEMASSUNG
  6
Continuous
 62
     1
100
AcDbLine
 10
383.3541821722533
 20
354.258256124247
 30
0.0
 11
382.9355528283205
 21
351.2876081356091
 31
0.0
1001
PHOENIX7010
1002
{
1070
    62
1070
     1
1070
    41
1040
1.0
1002
}
  0
LINE
  5
6A5
102
{ACAD_REACTORS
330
C38
102
}
330
1A
100
AcDbEntity
  8
BEMASSUNG
  6
Continuous
 62
     1
100
AcDbLine
 10
383.3541821722533
 20
354.258256124247
 30
0.0
 11
383.7728115161859
 21
351.2876081356091
 31
0.0
1001
PHOENIX7010
1002
{
1070
    62
1070
     1
1070
    41
1040
1.0
1002
}
  0
LINE
  5
6A6
102
{ACAD_REACTORS
330
C38
102
}
330
1A
100
AcDbEntity
  8
BEMASSUNG
  6
Continuous
 62
     1
100
AcDbLine
 10
383.3541821722533
 20
354.258256124247
 30
0.0
 11
383.3541821722532
 21
187.638291524247
 31
0.0
1001
PHOENIX7010
1002
{
1070
    62
1070
     1
1070
    41
1040
1.0
1002
}
  0
LINE
  5
6A7
102
{ACAD_REACTORS
330
C38
102
}
330
1A
100
AcDbEntity
  8
BEMASSUNG
  6
Continuous
 62
     1
100
AcDbLine
 10
361.3541821722532
 20
187.638291524247
 30
0.0
 11
385.3541821722532
 21
187.638291524247
 31
0.0
1001
PHOENIX7010
1002
{
1070
    62
1070
     1
1070
    41
1040
1.0
1002
}
  0
LINE
  5
6A8
102
{ACAD_REACTORS
330
C38
102
}
330
1A
100
AcDbEntity
  8
BEMASSUNG
  6
Continuous
 62
     1
100
AcDbLine
 10
361.3541821722533
 20
354.258256124247
 30
0.0
 11
385.3541821722533
 21
354.258256124247
 31
0.0
1001
PHOENIX7010
1002
{
1070
    62
1070
     1
1070
    41
1040
1.0
1002
}
  0
TEXT
  5
6AB
102
{ACAD_REACTORS
330
C3A
102
}
330
1A
100
AcDbEntity
  8
HAUPTEBENE
  6
Continuous
 62
     5
100
AcDbText
 10
365.8541821722532
 20
338.758256124247
 30
0.0
 40
5.0
  1

 50
90.0
 41
1.5
100
AcDbText
1001
PHOENIX7010
1002
{
1070
    62
1070
     5
1070
    41
1040
1.0
1002
}
  0
TEXT
  5
6AC
102
{ACAD_REACTORS
330
C3A
102
}
330
1A
100
AcDbEntity
  8
HAUPTEBENE
  6
Continuous
 62
     5
100
AcDbText
 10
370.8541821722532
 20
338.758256124247
 30
0.0
 40
5.0
  1
5
 50
90.0
 41
1.5
100
AcDbText
1001
PHOENIX7010
1002
{
1070
    62
1070
     5
1070
    41
1040
1.0
1002
}
  0
LINE
  5
6AE
102
{ACAD_REACTORS
330
C3A
102
}
330
1A
100
AcDbEntity
  8
BEMASSUNG2
  6
Continuous
 62
     1
100
AcDbLine
 10
373.3541821722532
 20
351.758256124247
 30
0.0
 11
373.3541821722532
 21
346.758256124247
 31
0.0
1001
PHOENIX7010
1002
{
1070
    62
1070
     1
1070
    41
1040
1.0
1002
}
  0
LINE
  5
6B1
102
{ACAD_REACTORS
330
C39
102
}
330
1A
100
AcDbEntity
  8
BEMASSUNG2
  6
Continuous
 62
     1
100
AcDbLine
 10
373.3541821722532
 20
346.758256124247
 30
0.0
 11
372.9626036022533
 21
343.783921534247
 31
0.0
1001
PHOENIX7010
1002
{
1070
    62
1070
     1
1070
    41
1040
1.0
1002
}
  0
LINE
  5
6B2
102
{ACAD_REACTORS
330
C39
102
}
330
1A
100
AcDbEntity
  8
BEMASSUNG2
  6
Continuous
 62
     1
100
AcDbLine
 10
373.3541821722532
 20
346.758256124247
 30
0.0
 11
373.7457607322533
 21
343.783921534247
 31
0.0
1001
PHOENIX7010
1002
{
1070
    62
1070
     1
1070
    41
1040
1.0
1002
}
  0
LINE
  5
6B3
102
{ACAD_REACTORS
330
C3A
102
}
330
1A
100
AcDbEntity
  8
BEMASSUNG2
  6
Continuous
 62
     1
100
AcDbLine
 10
373.3541821722532
 20
336.758256124247
 30
0.0
 11
373.3541821722532
 21
346.758256124247
 31
0.0
1001
PHOENIX7010
1002
{
1070
    62
1070
     1
1070
    41
1040
1.0
1002
}
  0
LINE
  5
6B4
102
{ACAD_REACTORS
330
C3A
102
}
330
1A
100
AcDbEntity
  8
BEMASSUNG2
  6
Continuous
 62
     1
100
AcDbLine
 10
362.6041821722532
 20
346.758256124247
 30
0.0
 11
375.3541821722532
 21
346.758256124247
 31
0.0
1001
PHOENIX7010
1002
{
1070
    62
1070
     1
1070
    41
1040
1.0
1002
}
  0
LINE
  5
6B5
102
{ACAD_REACTORS
330
C3A
102
}
330
1A
100
AcDbEntity
  8
BEMASSUNG2
  6
Continuous
 62
     1
100
AcDbLine
 10
362.6041821722532
 20
351.758256124247
 30
0.0
 11
375.3541821722532
 21
351.758256124247
 31
0.0
1001
PHOENIX7010
1002
{
1070
    62
1070
     1
1070
    41
1040
1.0
1002
}
  0
TEXT
  5
6B8
102
{ACAD_REACTORS
330
C3C
102
}
330
1A
100
AcDbEntity
  8
HAUPTEBENE
  6
Continuous
 62
     5
100
AcDbText
 10
365.8541821722533
 20
359.508256124247
 30
0.0
 40
5.0
  1

 50
90.0
 41
1.5
100
AcDbText
1001
PHOENIX7010
1002
{
1070
    62
1070
     5
1070
    41
1040
1.0
1002
}
  0
TEXT
  5
6B9
102
{ACAD_REACTORS
330
C3C
102
}
330
1A
100
AcDbEntity
  8
HAUPTEBENE
  6
Continuous
 62
     5
100
AcDbText
 10
370.8541821722533
 20
359.508256124247
 30
0.0
 40
5.0
  1
2,5
 50
90.0
 41
1.5
100
AcDbText
1001
PHOENIX7010
1002
{
1070
    62
1070
     5
1070
    41
1040
1.0
1002
}
  0
LINE
  5
6BA
102
{ACAD_REACTORS
330
C3C
102
}
330
1A
100
AcDbEntity
  8
BEMASSUNG2
  6
Continuous
 62
     1
100
AcDbLine
 10
373.3541821722532
 20
351.758256124247
 30
0.0
 11
373.3541821722533
 21
354.258256124247
 31
0.0
1001
PHOENIX7010
1002
{
1070
    62
1070
     1
1070
    41
1040
1.0
1002
}
  0
LINE
  5
6BD
102
{ACAD_REACTORS
330
C3B
102
}
330
1A
100
AcDbEntity
  8
BEMASSUNG2
  6
Continuous
 62
     1
100
AcDbLine
 10
373.3541821722533
 20
354.258256124247
 30
0.0
 11
373.7457607322533
 21
357.232590704247
 31
0.0
1001
PHOENIX7010
1002
{
1070
    62
1070
     1
1070
    41
1040
1.0
1002
}
  0
LINE
  5
6BE
102
{ACAD_REACTORS
330
C3B
102
}
330
1A
100
AcDbEntity
  8
BEMASSUNG2
  6
Continuous
 62
     1
100
AcDbLine
 10
373.3541821722533
 20
354.258256124247
 30
0.0
 11
372.9626036022533
 21
357.232590704247
 31
0.0
1001
PHOENIX7010
1002
{
1070
    62
1070
     1
1070
    41
1040
1.0
1002
}
  0
LINE
  5
6BF
102
{ACAD_REACTORS
330
C3C
102
}
330
1A
100
AcDbEntity
  8
BEMASSUNG2
  6
Continuous
 62
     1
100
AcDbLine
 10
373.3541821722533
 20
364.258256124247
 30
0.0
 11
373.3541821722533
 21
354.258256124247
 31
0.0
1001
PHOENIX7010
1002
{
1070
    62
1070
     1
1070
    41
1040
1.0
1002
}
  0
LINE
  5
6C0
330
1A
100
AcDbEntity
  8
HAUPTEBENE
  6
ACAD_ISO04W100
 62
     1
100
AcDbLine
 10
351.6041821722533
 20
346.758256124247
 30
0.0
 11
362.6041821722532
 21
346.758256124247
 31
0.0
1001
PHOENIX7010
1002
{
1070
    62
1070
     1
1070
    41
1040
1.0
1002
}
  0
LINE
  5
6C1
330
1A
100
AcDbEntity
  8
HAUPTEBENE
  6
ACAD_ISO04W100
 62
     1
100
AcDbLine
 10
351.6041821722533
 20
351.758256124247
 30
0.0
 11
362.6041821722532
 21
351.758256124247
 31
0.0
1001
PHOENIX7010
1002
{
1070
    62
1070
     1
1070
    41
1040
1.0
1002
}
  0
TEXT
  5
6C4
102
{ACAD_REACTORS
330
C3F
102
}
330
1A
100
AcDbEntity
  8
HAUPTEBENE
  6
Continuous
 62
     5
100
AcDbText
 10
412.7541605396168
 20
168.1382915529088
 30
0.0
 40
5.0
  1

 50
179.99999731885
 41
1.5
100
AcDbText
1001
PHOENIX7010
1002
{
1070
    62
1070
     5
1070
    41
1040
1.0
1002
}
  0
TEXT
  5
6C5
102
{ACAD_REACTORS
330
C3F
102
}
330
1A
100
AcDbEntity
  8
HAUPTEBENE
  6
Continuous
 62
     5
100
AcDbText
 10
410.1318830059222
 20
177.3282978321505
 30
0.0
 40
5.0
  1
1
 50
359.99999731885
 41
1.5
100
AcDbText
1001
PHOENIX7010
1002
{
1070
    62
1070
     5
1070
    41
1040
1.0
1002
}
  0
LINE
  5
6C6
102
{ACAD_REACTORS
330
C3F
102
}
330
1A
100
AcDbEntity
  8
BEMASSUNG2
  6
Continuous
 62
     1
100
AcDbLine
 10
404.7541608022531
 20
175.6382915242469
 30
0.0
 11
403.7541608022531
 21
175.638291524247
 31
0.0
1001
PHOENIX7010
1002
{
1070
    62
1070
     1
1070
    41
1040
1.0
1002
}
  0
LINE
  5
6C9
102
{ACAD_REACTORS
330
C3D
102
}
330
1A
100
AcDbEntity
  8
BEMASSUNG2
  6
Continuous
 62
     1
100
AcDbLine
 10
404.7541608022531
 20
175.6382915242469
 30
0.0
 11
407.7284953922531
 21
175.246712954247
 31
0.0
1001
PHOENIX7010
1002
{
1070
    62
1070
     1
1070
    41
1040
1.0
1002
}
  0
LINE
  5
6CA
102
{ACAD_REACTORS
330
C3D
102
}
330
1A
100
AcDbEntity
  8
BEMASSUNG2
  6
Continuous
 62
     1
100
AcDbLine
 10
404.7541608022531
 20
175.6382915242469
 30
0.0
 11
407.7284953922531
 21
176.0298700842469
 31
0.0
1001
PHOENIX7010
1002
{
1070
    62
1070
     1
1070
    41
1040
1.0
1002
}
  0
LINE
  5
6CB
102
{ACAD_REACTORS
330
C3F
102
}
330
1A
100
AcDbEntity
  8
BEMASSUNG2
  6
Continuous
 62
     1
100
AcDbLine
 10
414.7541608022532
 20
175.6382915242469
 30
0.0
 11
404.7541608022531
 21
175.6382915242469
 31
0.0
1001
PHOENIX7010
1002
{
1070
    62
1070
     1
1070
    41
1040
1.0
1002
}
  0
LINE
  5
6CE
102
{ACAD_REACTORS
330
C3E
102
}
330
1A
100
AcDbEntity
  8
BEMASSUNG2
  6
Continuous
 62
     1
100
AcDbLine
 10
403.7541608022531
 20
175.638291524247
 30
0.0
 11
400.7798262222531
 21
176.0298700842469
 31
0.0
1001
PHOENIX7010
1002
{
1070
    62
1070
     1
1070
    41
1040
1.0
1002
}
  0
LINE
  5
6CF
102
{ACAD_REACTORS
330
C3E
102
}
330
1A
100
AcDbEntity
  8
BEMASSUNG2
  6
Continuous
 62
     1
100
AcDbLine
 10
403.7541608022531
 20
175.638291524247
 30
0.0
 11
400.7798262222531
 21
175.246712954247
 31
0.0
1001
PHOENIX7010
1002
{
1070
    62
1070
     1
1070
    41
1040
1.0
1002
}
  0
LINE
  5
6D0
102
{ACAD_REACTORS
330
C3F
102
}
330
1A
100
AcDbEntity
  8
BEMASSUNG2
  6
Continuous
 62
     1
100
AcDbLine
 10
393.7541608022532
 20
175.638291524247
 30
0.0
 11
403.7541608022531
 21
175.638291524247
 31
0.0
1001
PHOENIX7010
1002
{
1070
    62
1070
     1
1070
    41
1040
1.0
1002
}
  0
LINE
  5
6D1
102
{ACAD_REACTORS
330
C3F
102
}
330
1A
100
AcDbEntity
  8
BEMASSUNG2
  6
Continuous
 62
     1
100
AcDbLine
 10
404.7541608022531
 20
190.258286644247
 30
0.0
 11
404.7541608022531
 21
173.6382915242469
 31
0.0
1001
PHOENIX7010
1002
{
1070
    62
1070
     1
1070
    41
1040
1.0
1002
}
  0
TEXT
  5
6D4
102
{ACAD_REACTORS
330
C42
102
}
330
1A
100
AcDbEntity
  8
HAUPTEBENE
  6
Continuous
 62
     5
100
AcDbText
 10
397.2541605396168
 20
158.1382915529088
 30
0.0
 40
5.0
  1

 50
179.99999731885
 41
1.5
100
AcDbText
1001
PHOENIX7010
1002
{
1070
    62
1070
     5
1070
    41
1040
1.0
1002
}
  0
TEXT
  5
6D5
102
{ACAD_REACTORS
330
C42
102
}
330
1A
100
AcDbEntity
  8
HAUPTEBENE
  6
Continuous
 62
     5
100
AcDbText
 10
391.3905479305038
 20
166.88291808576
 30
0.0
 40
5.0
  1
2
 50
359.99999731885
 41
1.5
100
AcDbText
1001
PHOENIX7010
1002
{
1070
    62
1070
     5
1070
    41
1040
1.0
1002
}
  0
LINE
  5
6D6
102
{ACAD_REACTORS
330
C42
102
}
330
1A
100
AcDbEntity
  8
BEMASSUNG2
  6
Continuous
 62
     1
100
AcDbLine
 10
401.7541608022531
 20
165.638291524247
 30
0.0
 11
403.7541608022531
 21
165.638291524247
 31
0.0
1001
PHOENIX7010
1002
{
1070
    62
1070
     1
1070
    41
1040
1.0
1002
}
  0
LINE
  5
6D9
102
{ACAD_REACTORS
330
C40
102
}
330
1A
100
AcDbEntity
  8
BEMASSUNG2
  6
Continuous
 62
     1
100
AcDbLine
 10
401.7541608022531
 20
165.638291524247
 30
0.0
 11
398.7798262222532
 21
166.0298700842469
 31
0.0
1001
PHOENIX7010
1002
{
1070
    62
1070
     1
1070
    41
1040
1.0
1002
}
  0
LINE
  5
6DA
102
{ACAD_REACTORS
330
C40
102
}
330
1A
100
AcDbEntity
  8
BEMASSUNG2
  6
Continuous
 62
     1
100
AcDbLine
 10
401.7541608022531
 20
165.638291524247
 30
0.0
 11
398.7798262222532
 21
165.246712954247
 31
0.0
1001
PHOENIX7010
1002
{
1070
    62
1070
     1
1070
    41
1040
1.0
1002
}
  0
LINE
  5
6DB
102
{ACAD_REACTORS
330
C42
102
}
330
1A
100
AcDbEntity
  8
BEMASSUNG2
  6
Continuous
 62
     1
100
AcDbLine
 10
391.7541608022532
 20
165.638291524247
 30
0.0
 11
401.7541608022531
 21
165.638291524247
 31
0.0
1001
PHOENIX7010
1002
{
1070
    62
1070
     1
1070
    41
1040
1.0
1002
}
  0
LINE
  5
6DE
102
{ACAD_REACTORS
330
C41
102
}
330
1A
100
AcDbEntity
  8
BEMASSUNG2
  6
Continuous
 62
     1
100
AcDbLine
 10
403.7541608022531
 20
165.638291524247
 30
0.0
 11
406.7284953922531
 21
165.246712954247
 31
0.0
1001
PHOENIX7010
1002
{
1070
    62
1070
     1
1070
    41
1040
1.0
1002
}
  0
LINE
  5
6DF
102
{ACAD_REACTORS
330
C41
102
}
330
1A
100
AcDbEntity
  8
BEMASSUNG2
  6
Continuous
 62
     1
100
AcDbLine
 10
403.7541608022531
 20
165.638291524247
 30
0.0
 11
406.7284953922531
 21
166.0298700842469
 31
0.0
1001
PHOENIX7010
1002
{
1070
    62
1070
     1
1070
    41
1040
1.0
1002
}
  0
LINE
  5
6E0
102
{ACAD_REACTORS
330
C42
102
}
330
1A
100
AcDbEntity
  8
BEMASSUNG2
  6
Continuous
 62
     1
100
AcDbLine
 10
413.7541608022531
 20
165.6382915242469
 30
0.0
 11
403.7541608022531
 21
165.638291524247
 31
0.0
1001
PHOENIX7010
1002
{
1070
    62
1070
     1
1070
    41
1040
1.0
1002
}
  0
LINE
  5
6E1
102
{ACAD_REACTORS
330
C42
102
}
330
1A
100
AcDbEntity
  8
BEMASSUNG2
  6
Continuous
 62
     1
100
AcDbLine
 10
403.7541608022531
 20
187.638291524247
 30
0.0
 11
403.7541608022531
 21
163.638291524247
 31
0.0
1001
PHOENIX7010
1002
{
1070
    62
1070
     1
1070
    41
1040
1.0
1002
}
  0
LINE
  5
6E2
102
{ACAD_REACTORS
330
C42
102
}
330
1A
100
AcDbEntity
  8
BEMASSUNG2
  6
Continuous
 62
     1
100
AcDbLine
 10
401.7541608022531
 20
173.638291524247
 30
0.0
 11
401.7541608022531
 21
163.638291524247
 31
0.0
1001
PHOENIX7010
1002
{
1070
    62
1070
     1
1070
    41
1040
1.0
1002
}
  0
LINE
  5
6E3
102
{ACAD_REACTORS
330
C42
102
}
330
1A
100
AcDbEntity
  8
BEMASSUNG2
  6
Continuous
 62
     1
100
AcDbLine
 10
401.7541608022531
 20
187.638291524247
 30
0.0
 11
401.7541608022531
 21
177.638291524247
 31
0.0
1001
PHOENIX7010
1002
{
1070
    62
1070
     1
1070
    41
1040
1.0
1002
}
  0
TEXT
  5
6E6
102
{ACAD_REACTORS
330
C43
102
}
330
1A
100
AcDbEntity
  8
BEMASSUNG
  6
Continuous
 62
     5
100
AcDbText
 10
370.8541821722532
 20
313.758256124247
 30
0.0
 40
5.0
  1
%%c4
 50
90.0
 41
1.5
100
AcDbText
1001
PHOENIX7010
1002
{
1070
    62
1070
     5
1070
    41
1040
1.0
1002
}
  0
LINE
  5
6E7
102
{ACAD_REACTORS
330
C43
102
}
330
1A
100
AcDbEntity
  8
BEMASSUNG
  6
Continuous
 62
     1
100
AcDbLine
 10
373.3541821722532
 20
304.758256124247
 30
0.0
 11
373.3541821722532
 21
308.758256124247
 31
0.0
1001
PHOENIX7010
1002
{
1070
    62
1070
     1
1070
    41
1040
1.0
1002
}
  0
LINE
  5
6E8
102
{ACAD_REACTORS
330
C43
102
}
330
1A
100
AcDbEntity
  8
BEMASSUNG
  6
Continuous
 62
     1
100
AcDbLine
 10
373.3541821722532
 20
304.758256124247
 30
0.0
 11
372.9355528283205
 21
301.787608135609
 31
0.0
1001
PHOENIX7010
1002
{
1070
    62
1070
     1
1070
    41
1040
1.0
1002
}
  0
LINE
  5
6E9
102
{ACAD_REACTORS
330
C43
102
}
330
1A
100
AcDbEntity
  8
BEMASSUNG
  6
Continuous
 62
     1
100
AcDbLine
 10
373.3541821722532
 20
304.758256124247
 30
0.0
 11
373.7728115161859
 21
301.787608135609
 31
0.0
1001
PHOENIX7010
1002
{
1070
    62
1070
     1
1070
    41
1040
1.0
1002
}
  0
LINE
  5
6EA
102
{ACAD_REACTORS
330
C43
102
}
330
1A
100
AcDbEntity
  8
BEMASSUNG
  6
Continuous
 62
     1
100
AcDbLine
 10
373.3541821722532
 20
294.758256124247
 30
0.0
 11
373.3541821722532
 21
304.758256124247
 31
0.0
1001
PHOENIX7010
1002
{
1070
    62
1070
     1
1070
    41
1040
1.0
1002
}
  0
LINE
  5
6EB
102
{ACAD_REACTORS
330
C43
102
}
330
1A
100
AcDbEntity
  8
BEMASSUNG
  6
Continuous
 62
     1
100
AcDbLine
 10
373.3541821722532
 20
308.758256124247
 30
0.0
 11
373.7728115161859
 21
311.728904112885
 31
0.0
1001
PHOENIX7010
1002
{
1070
    62
1070
     1
1070
    41
1040
1.0
1002
}
  0
LINE
  5
6EC
102
{ACAD_REACTORS
330
C43
102
}
330
1A
100
AcDbEntity
  8
BEMASSUNG
  6
Continuous
 62
     1
100
AcDbLine
 10
373.3541821722532
 20
308.758256124247
 30
0.0
 11
372.9355528283205
 21
311.728904112885
 31
0.0
1001
PHOENIX7010
1002
{
1070
    62
1070
     1
1070
    41
1040
1.0
1002
}
  0
LINE
  5
6ED
102
{ACAD_REACTORS
330
C43
102
}
330
1A
100
AcDbEntity
  8
BEMASSUNG
  6
Continuous
 62
     1
100
AcDbLine
 10
373.3541821722532
 20
318.758256124247
 30
0.0
 11
373.3541821722532
 21
308.758256124247
 31
0.0
1001
PHOENIX7010
1002
{
1070
    62
1070
     1
1070
    41
1040
1.0
1002
}
  0
LINE
  5
6EE
102
{ACAD_REACTORS
330
C43
102
}
330
1A
100
AcDbEntity
  8
BEMASSUNG
  6
Continuous
 62
     1
100
AcDbLine
 10
357.1041821722532
 20
308.758256124247
 30
0.0
 11
375.3541821722532
 21
308.758256124247
 31
0.0
1001
PHOENIX7010
1002
{
1070
    62
1070
     1
1070
    41
1040
1.0
1002
}
  0
LINE
  5
6EF
102
{ACAD_REACTORS
330
C43
102
}
330
1A
100
AcDbEntity
  8
BEMASSUNG
  6
Continuous
 62
     1
100
AcDbLine
 10
357.1041821722532
 20
304.758256124247
 30
0.0
 11
375.3541821722532
 21
304.758256124247
 31
0.0
1001
PHOENIX7010
1002
{
1070
    62
1070
     1
1070
    41
1040
1.0
1002
}
  0
TEXT
  5
6F2
102
{ACAD_REACTORS
330
C44
102
}
330
1A
100
AcDbEntity
  8
BEMASSUNG
  6
Continuous
 62
     5
100
AcDbText
 10
370.8541821722532
 20
256.758256124247
 30
0.0
 40
5.0
  1
%%c3
 50
90.0
 41
1.5
100
AcDbText
1001
PHOENIX7010
1002
{
1070
    62
1070
     5
1070
    41
1040
1.0
1002
}
  0
LINE
  5
6F3
102
{ACAD_REACTORS
330
C44
102
}
330
1A
100
AcDbEntity
  8
BEMASSUNG
  6
Continuous
 62
     1
100
AcDbLine
 10
373.3541821722532
 20
270.258256124247
 30
0.0
 11
373.3541821722532
 21
273.258256124247
 31
0.0
1001
PHOENIX7010
1002
{
1070
    62
1070
     1
1070
    41
1040
1.0
1002
}
  0
LINE
  5
6F4
102
{ACAD_REACTORS
330
C44
102
}
330
1A
100
AcDbEntity
  8
BEMASSUNG
  6
Continuous
 62
     1
100
AcDbLine
 10
373.3541821722532
 20
270.258256124247
 30
0.0
 11
372.9355528283205
 21
267.287608135609
 31
0.0
1001
PHOENIX7010
1002
{
1070
    62
1070
     1
1070
    41
1040
1.0
1002
}
  0
LINE
  5
6F5
102
{ACAD_REACTORS
330
C44
102
}
330
1A
100
AcDbEntity
  8
BEMASSUNG
  6
Continuous
 62
     1
100
AcDbLine
 10
373.3541821722532
 20
270.258256124247
 30
0.0
 11
373.7728115161859
 21
267.287608135609
 31
0.0
1001
PHOENIX7010
1002
{
1070
    62
1070
     1
1070
    41
1040
1.0
1002
}
  0
LINE
  5
6F6
102
{ACAD_REACTORS
330
C44
102
}
330
1A
100
AcDbEntity
  8
BEMASSUNG
  6
Continuous
 62
     1
100
AcDbLine
 10
373.3541821722532
 20
260.258256124247
 30
0.0
 11
373.3541821722532
 21
270.258256124247
 31
0.0
1001
PHOENIX7010
1002
{
1070
    62
1070
     1
1070
    41
1040
1.0
1002
}
  0
LINE
  5
6F7
102
{ACAD_REACTORS
330
C44
102
}
330
1A
100
AcDbEntity
  8
BEMASSUNG
  6
Continuous
 62
     1
100
AcDbLine
 10
373.3541821722532
 20
273.258256124247
 30
0.0
 11
373.7728115161859
 21
276.228904112885
 31
0.0
1001
PHOENIX7010
1002
{
1070
    62
1070
     1
1070
    41
1040
1.0
1002
}
  0
LINE
  5
6F8
102
{ACAD_REACTORS
330
C44
102
}
330
1A
100
AcDbEntity
  8
BEMASSUNG
  6
Continuous
 62
     1
100
AcDbLine
 10
373.3541821722532
 20
273.258256124247
 30
0.0
 11
372.9355528283205
 21
276.228904112885
 31
0.0
1001
PHOENIX7010
1002
{
1070
    62
1070
     1
1070
    41
1040
1.0
1002
}
  0
LINE
  5
6F9
102
{ACAD_REACTORS
330
C44
102
}
330
1A
100
AcDbEntity
  8
BEMASSUNG
  6
Continuous
 62
     1
100
AcDbLine
 10
373.3541821722532
 20
283.258256124247
 30
0.0
 11
373.3541821722532
 21
273.258256124247
 31
0.0
1001
PHOENIX7010
1002
{
1070
    62
1070
     1
1070
    41
1040
1.0
1002
}
  0
LINE
  5
6FA
102
{ACAD_REACTORS
330
C44
102
}
330
1A
100
AcDbEntity
  8
BEMASSUNG
  6
Continuous
 62
     1
100
AcDbLine
 10
357.1041821722532
 20
273.258256124247
 30
0.0
 11
375.3541821722532
 21
273.258256124247
 31
0.0
1001
PHOENIX7010
1002
{
1070
    62
1070
     1
1070
    41
1040
1.0
1002
}
  0
LINE
  5
6FB
102
{ACAD_REACTORS
330
C44
102
}
330
1A
100
AcDbEntity
  8
BEMASSUNG
  6
Continuous
 62
     1
100
AcDbLine
 10
357.1041821722532
 20
270.258256124247
 30
0.0
 11
375.3541821722532
 21
270.258256124247
 31
0.0
1001
PHOENIX7010
1002
{
1070
    62
1070
     1
1070
    41
1040
1.0
1002
}
  0
LINE
  5
6FC
330
1A
100
AcDbEntity
  8
HAUPTEBENE
  6
ACAD_ISO04W100
 62
     1
100
AcDbLine
 10
351.6041821722532
 20
306.758256124247
 30
0.0
 11
362.6041821722532
 21
306.758256124247
 31
0.0
1001
PHOENIX7010
1002
{
1070
    62
1070
     1
1070
    41
1040
1.0
1002
}
  0
LINE
  5
6FD
330
1A
100
AcDbEntity
  8
HAUPTEBENE
  6
ACAD_ISO04W100
 62
     1
100
AcDbLine
 10
351.6041821722532
 20
271.758256124247
 30
0.0
 11
362.6041821722532
 21
271.758256124247
 31
0.0
1001
PHOENIX7010
1002
{
1070
    62
1070
     1
1070
    41
1040
1.0
1002
}
  0
TEXT
  5
700
102
{ACAD_REACTORS
330
C45
102
}
330
1A
100
AcDbEntity
  8
BEMASSUNG
  6
Continuous
 62
     5
100
AcDbText
 10
217.3580785183326
 20
156.8098812479447
 30
0.0
 40
5.0
  1
264.4
 50
359.99999731885
 41
1.5
100
AcDbText
1001
PHOENIX7010
1002
{
1070
    62
1070
     5
1070
    41
1040
1.0
1002
}
  0
LINE
  5
701
102
{ACAD_REACTORS
330
C45
102
}
330
1A
100
AcDbEntity
  8
BEMASSUNG
  6
Continuous
 62
     1
100
AcDbLine
 10
361.3541821722531
 20
155.638291524247
 30
0.0
 11
358.3835341836153
 21
156.0569208681797
 31
0.0
1001
PHOENIX7010
1002
{
1070
    62
1070
     1
1070
    41
1040
1.0
1002
}
  0
LINE
  5
702
102
{ACAD_REACTORS
330
C45
102
}
330
1A
100
AcDbEntity
  8
BEMASSUNG
  6
Continuous
 62
     1
100
AcDbLine
 10
361.3541821722531
 20
155.638291524247
 30
0.0
 11
358.3835341836153
 21
155.2196621803143
 31
0.0
1001
PHOENIX7010
1002
{
1070
    62
1070
     1
1070
    41
1040
1.0
1002
}
  0
LINE
  5
703
102
{ACAD_REACTORS
330
C45
102
}
330
1A
100
AcDbEntity
  8
BEMASSUNG
  6
Continuous
 62
     1
100
AcDbLine
 10
97.00417606225318
 20
155.638291524247
 30
0.0
 11
99.97482405089108
 21
155.2196621803143
 31
0.0
1001
PHOENIX7010
1002
{
1070
    62
1070
     1
1070
    41
1040
1.0
1002
}
  0
LINE
  5
704
102
{ACAD_REACTORS
330
C45
102
}
330
1A
100
AcDbEntity
  8
BEMASSUNG
  6
Continuous
 62
     1
100
AcDbLine
 10
97.00417606225318
 20
155.638291524247
 30
0.0
 11
99.97482405089108
 21
156.0569208681797
 31
0.0
1001
PHOENIX7010
1002
{
1070
    62
1070
     1
1070
    41
1040
1.0
1002
}
  0
LINE
  5
705
102
{ACAD_REACTORS
330
C45
102
}
330
1A
100
AcDbEntity
  8
BEMASSUNG
  6
Continuous
 62
     1
100
AcDbLine
 10
97.00417606225318
 20
155.638291524247
 30
0.0
 11
361.3541821722531
 21
155.638291524247
 31
0.0
1001
PHOENIX7010
1002
{
1070
    62
1070
     1
1070
    41
1040
1.0
1002
}
  0
LINE
  5
706
102
{ACAD_REACTORS
330
C45
102
}
330
1A
100
AcDbEntity
  8
BEMASSUNG
  6
Continuous
 62
     1
100
AcDbLine
 10
361.3541821722532
 20
187.638291524247
 30
0.0
 11
361.3541821722531
 21
153.638291524247
 31
0.0
1001
PHOENIX7010
1002
{
1070
    62
1070
     1
1070
    41
1040
1.0
1002
}
  0
LINE
  5
707
102
{ACAD_REACTORS
330
C45
102
}
330
1A
100
AcDbEntity
  8
BEMASSUNG
  6
Continuous
 62
     1
100
AcDbLine
 10
97.00417606225318
 20
187.638291524247
 30
0.0
 11
97.00417606225318
 21
153.638291524247
 31
0.0
1001
PHOENIX7010
1002
{
1070
    62
1070
     1
1070
    41
1040
1.0
1002
}
  0
LINE
  5
70A
102
{ACAD_REACTORS
330
C48
102
}
330
1A
100
AcDbEntity
  8
BEMASSUNG2
  6
Continuous
 62
     1
100
AcDbLine
 10
262.6042126822532
 20
165.638291524247
 30
0.0
 11
234.6042126822532
 21
165.638291524247
 31
0.0
1001
PHOENIX7010
1002
{
1070
    62
1070
     1
1070
    41
1040
1.0
1002
}
  0
TEXT
  5
70B
102
{ACAD_REACTORS
330
C48
102
}
330
1A
100
AcDbEntity
  8
HAUPTEBENE
  6
Continuous
 62
     5
100
AcDbText
 10
261.6791941096169
 20
158.1382915529089
 30
0.0
 40
5.0
  1

 50
179.99999731885
 41
1.5
100
AcDbText
1001
PHOENIX7010
1002
{
1070
    62
1070
     5
1070
    41
1040
1.0
1002
}
  0
TEXT
  5
70C
102
{ACAD_REACTORS
330
C48
102
}
330
1A
100
AcDbEntity
  8
HAUPTEBENE
  6
Continuous
 62
     5
100
AcDbText
 10
240.598266751351
 20
167.0120810097385
 30
0.0
 40
5.0
  1
10,85
 50
359.99999731885
 41
1.5
100
AcDbText
1001
PHOENIX7010
1002
{
1070
    62
1070
     5
1070
    41
1040
1.0
1002
}
  0
LINE
  5
70F
102
{ACAD_REACTORS
330
C46
102
}
330
1A
100
AcDbEntity
  8
BEMASSUNG2
  6
Continuous
 62
     1
100
AcDbLine
 10
234.6042126822532
 20
165.638291524247
 30
0.0
 11
231.6298781022532
 21
166.029870084247
 31
0.0
1001
PHOENIX7010
1002
{
1070
    62
1070
     1
1070
    41
1040
1.0
1002
}
  0
LINE
  5
710
102
{ACAD_REACTORS
330
C46
102
}
330
1A
100
AcDbEntity
  8
BEMASSUNG2
  6
Continuous
 62
     1
100
AcDbLine
 10
234.6042126822532
 20
165.638291524247
 30
0.0
 11
231.6298781022532
 21
165.246712954247
 31
0.0
1001
PHOENIX7010
1002
{
1070
    62
1070
     1
1070
    41
1040
1.0
1002
}
  0
LINE
  5
713
102
{ACAD_REACTORS
330
C47
102
}
330
1A
100
AcDbEntity
  8
BEMASSUNG2
  6
Continuous
 62
     1
100
AcDbLine
 10
223.7541760622532
 20
165.638291524247
 30
0.0
 11
226.7285106522532
 21
165.246712954247
 31
0.0
1001
PHOENIX7010
1002
{
1070
    62
1070
     1
1070
    41
1040
1.0
1002
}
  0
LINE
  5
714
102
{ACAD_REACTORS
330
C47
102
}
330
1A
100
AcDbEntity
  8
BEMASSUNG2
  6
Continuous
 62
     1
100
AcDbLine
 10
223.7541760622532
 20
165.638291524247
 30
0.0
 11
226.7285106522532
 21
166.029870084247
 31
0.0
1001
PHOENIX7010
1002
{
1070
    62
1070
     1
1070
    41
1040
1.0
1002
}
  0
LINE
  5
715
102
{ACAD_REACTORS
330
C48
102
}
330
1A
100
AcDbEntity
  8
BEMASSUNG2
  6
Continuous
 62
     1
100
AcDbLine
 10
223.7541760622532
 20
165.638291524247
 30
0.0
 11
234.6042126822532
 21
165.638291524247
 31
0.0
1001
PHOENIX7010
1002
{
1070
    62
1070
     1
1070
    41
1040
1.0
1002
}
  0
LINE
  5
716
102
{ACAD_REACTORS
330
C48
102
}
330
1A
100
AcDbEntity
  8
BEMASSUNG2
  6
Continuous
 62
     1
100
AcDbLine
 10
234.6042126822532
 20
185.638291524247
 30
0.0
 11
234.6042126822532
 21
163.638291524247
 31
0.0
1001
PHOENIX7010
1002
{
1070
    62
1070
     1
1070
    41
1040
1.0
1002
}
  0
LINE
  5
717
102
{ACAD_REACTORS
330
C48
102
}
330
1A
100
AcDbEntity
  8
BEMASSUNG2
  6
Continuous
 62
     1
100
AcDbLine
 10
223.7541760622532
 20
185.638291524247
 30
0.0
 11
223.7541760622532
 21
163.638291524247
 31
0.0
1001
PHOENIX7010
1002
{
1070
    62
1070
     1
1070
    41
1040
1.0
1002
}
  0
TEXT
  5
71A
102
{ACAD_REACTORS
330
C49
102
}
330
1A
100
AcDbEntity
  8
BEMASSUNG
  6
Continuous
 62
     5
100
AcDbText
 10
154.3124100492781
 20
166.450909234503
 30
0.0
 40
5.0
  1
122.5
 50
359.99999731885
 41
1.5
100
AcDbText
1001
PHOENIX7010
1002
{
1070
    62
1070
     5
1070
    41
1040
1.0
1002
}
  0
LINE
  5
71B
102
{ACAD_REACTORS
330
C49
102
}
330
1A
100
AcDbEntity
  8
BEMASSUNG
  6
Continuous
 62
     1
100
AcDbLine
 10
223.7541760622532
 20
165.638291524247
 30
0.0
 11
220.7835280736153
 21
166.0569208681797
 31
0.0
1001
PHOENIX7010
1002
{
1070
    62
1070
     1
1070
    41
1040
1.0
1002
}
  0
LINE
  5
71C
102
{ACAD_REACTORS
330
C49
102
}
330
1A
100
AcDbEntity
  8
BEMASSUNG
  6
Continuous
 62
     1
100
AcDbLine
 10
223.7541760622532
 20
165.638291524247
 30
0.0
 11
220.7835280736153
 21
165.2196621803143
 31
0.0
1001
PHOENIX7010
1002
{
1070
    62
1070
     1
1070
    41
1040
1.0
1002
}
  0
LINE
  5
71D
102
{ACAD_REACTORS
330
C49
102
}
330
1A
100
AcDbEntity
  8
BEMASSUNG
  6
Continuous
 62
     1
100
AcDbLine
 10
101.2541760622531
 20
165.638291524247
 30
0.0
 11
104.2248240508911
 21
165.2196621803143
 31
0.0
1001
PHOENIX7010
1002
{
1070
    62
1070
     1
1070
    41
1040
1.0
1002
}
  0
LINE
  5
71E
102
{ACAD_REACTORS
330
C49
102
}
330
1A
100
AcDbEntity
  8
BEMASSUNG
  6
Continuous
 62
     1
100
AcDbLine
 10
101.2541760622531
 20
165.638291524247
 30
0.0
 11
104.2248240508911
 21
166.0569208681797
 31
0.0
1001
PHOENIX7010
1002
{
1070
    62
1070
     1
1070
    41
1040
1.0
1002
}
  0
LINE
  5
71F
102
{ACAD_REACTORS
330
C49
102
}
330
1A
100
AcDbEntity
  8
BEMASSUNG
  6
Continuous
 62
     1
100
AcDbLine
 10
101.2541760622531
 20
165.638291524247
 30
0.0
 11
223.7541760622532
 21
165.638291524247
 31
0.0
1001
PHOENIX7010
1002
{
1070
    62
1070
     1
1070
    41
1040
1.0
1002
}
  0
LINE
  5
720
102
{ACAD_REACTORS
330
C49
102
}
330
1A
100
AcDbEntity
  8
BEMASSUNG
  6
Continuous
 62
     1
100
AcDbLine
 10
223.7541760622532
 20
185.638291524247
 30
0.0
 11
223.7541760622532
 21
163.638291524247
 31
0.0
1001
PHOENIX7010
1002
{
1070
    62
1070
     1
1070
    41
1040
1.0
1002
}
  0
LINE
  5
721
102
{ACAD_REACTORS
330
C49
102
}
330
1A
100
AcDbEntity
  8
BEMASSUNG
  6
Continuous
 62
     1
100
AcDbLine
 10
101.2541760622531
 20
185.638291524247
 30
0.0
 11
101.2541760622531
 21
163.638291524247
 31
0.0
1001
PHOENIX7010
1002
{
1070
    62
1070
     1
1070
    41
1040
1.0
1002
}
  0
TEXT
  5
724
102
{ACAD_REACTORS
330
C4A
102
}
330
1A
100
AcDbEntity
  8
BEMASSUNG
  6
Continuous
 62
     5
100
AcDbText
 10
235.6058067376276
 20
177.4948686408147
 30
0.0
 40
5.0
  1
76.15
 50
359.99999731885
 41
1.5
100
AcDbText
1001
PHOENIX7010
1002
{
1070
    62
1070
     5
1070
    41
1040
1.0
1002
}
  0
LINE
  5
725
102
{ACAD_REACTORS
330
C4A
102
}
330
1A
100
AcDbEntity
  8
BEMASSUNG
  6
Continuous
 62
     1
100
AcDbLine
 10
267.2541760622532
 20
175.638291524247
 30
0.0
 11
264.2835280736153
 21
176.0569208681797
 31
0.0
1001
PHOENIX7010
1002
{
1070
    62
1070
     1
1070
    41
1040
1.0
1002
}
  0
LINE
  5
726
102
{ACAD_REACTORS
330
C4A
102
}
330
1A
100
AcDbEntity
  8
BEMASSUNG
  6
Continuous
 62
     1
100
AcDbLine
 10
267.2541760622532
 20
175.638291524247
 30
0.0
 11
264.2835280736153
 21
175.2196621803143
 31
0.0
1001
PHOENIX7010
1002
{
1070
    62
1070
     1
1070
    41
1040
1.0
1002
}
  0
LINE
  5
727
102
{ACAD_REACTORS
330
C4A
102
}
330
1A
100
AcDbEntity
  8
BEMASSUNG
  6
Continuous
 62
     1
100
AcDbLine
 10
191.1041516522531
 20
175.638291524247
 30
0.0
 11
194.0747996408911
 21
175.2196621803143
 31
0.0
1001
PHOENIX7010
1002
{
1070
    62
1070
     1
1070
    41
1040
1.0
1002
}
  0
LINE
  5
728
102
{ACAD_REACTORS
330
C4A
102
}
330
1A
100
AcDbEntity
  8
BEMASSUNG
  6
Continuous
 62
     1
100
AcDbLine
 10
191.1041516522531
 20
175.638291524247
 30
0.0
 11
194.0747996408911
 21
176.0569208681797
 31
0.0
1001
PHOENIX7010
1002
{
1070
    62
1070
     1
1070
    41
1040
1.0
1002
}
  0
LINE
  5
729
102
{ACAD_REACTORS
330
C4A
102
}
330
1A
100
AcDbEntity
  8
BEMASSUNG
  6
Continuous
 62
     1
100
AcDbLine
 10
191.1041516522531
 20
175.638291524247
 30
0.0
 11
267.2541760622532
 21
175.638291524247
 31
0.0
1001
PHOENIX7010
1002
{
1070
    62
1070
     1
1070
    41
1040
1.0
1002
}
  0
LINE
  5
72A
102
{ACAD_REACTORS
330
C4A
102
}
330
1A
100
AcDbEntity
  8
BEMASSUNG
  6
Continuous
 62
     1
100
AcDbLine
 10
267.2541760622532
 20
186.338303734247
 30
0.0
 11
267.2541760622532
 21
173.638291524247
 31
0.0
1001
PHOENIX7010
1002
{
1070
    62
1070
     1
1070
    41
1040
1.0
1002
}
  0
LINE
  5
72B
102
{ACAD_REACTORS
330
C4A
102
}
330
1A
100
AcDbEntity
  8
BEMASSUNG
  6
Continuous
 62
     1
100
AcDbLine
 10
191.1041516522531
 20
186.338303734247
 30
0.0
 11
191.1041516522531
 21
173.638291524247
 31
0.0
1001
PHOENIX7010
1002
{
1070
    62
1070
     1
1070
    41
1040
1.0
1002
}
  0
TEXT
  5
72E
102
{ACAD_REACTORS
330
C4D
102
}
330
1A
100
AcDbEntity
  8
HAUPTEBENE
  6
Continuous
 62
     5
100
AcDbText
 10
172.5041147696168
 20
168.1382915529089
 30
0.0
 40
5.0
  1

 50
179.99999731885
 41
1.5
100
AcDbText
1001
PHOENIX7010
1002
{
1070
    62
1070
     5
1070
    41
1040
1.0
1002
}
  0
TEXT
  5
72F
102
{ACAD_REACTORS
330
C4D
102
}
330
1A
100
AcDbEntity
  8
HAUPTEBENE
  6
Continuous
 62
     5
100
AcDbText
 10
157.9355954687544
 20
177.214282753197
 30
0.0
 40
5.0
  1
57,2
 50
359.99999731885
 41
1.5
100
AcDbText
1001
PHOENIX7010
1002
{
1070
    62
1070
     5
1070
    41
1040
1.0
1002
}
  0
LINE
  5
732
102
{ACAD_REACTORS
330
C4B
102
}
330
1A
100
AcDbEntity
  8
BEMASSUNG2
  6
Continuous
 62
     1
100
AcDbLine
 10
191.1041516522531
 20
175.638291524247
 30
0.0
 11
188.1298170622532
 21
176.029870084247
 31
0.0
1001
PHOENIX7010
1002
{
1070
    62
1070
     1
1070
    41
1040
1.0
1002
}
  0
LINE
  5
733
102
{ACAD_REACTORS
330
C4B
102
}
330
1A
100
AcDbEntity
  8
BEMASSUNG2
  6
Continuous
 62
     1
100
AcDbLine
 10
191.1041516522531
 20
175.638291524247
 30
0.0
 11
188.1298170622532
 21
175.246712954247
 31
0.0
1001
PHOENIX7010
1002
{
1070
    62
1070
     1
1070
    41
1040
1.0
1002
}
  0
LINE
  5
736
102
{ACAD_REACTORS
330
C4C
102
}
330
1A
100
AcDbEntity
  8
BEMASSUNG2
  6
Continuous
 62
     1
100
AcDbLine
 10
133.9041394422532
 20
175.638291524247
 30
0.0
 11
136.8784740322532
 21
175.246712954247
 31
0.0
1001
PHOENIX7010
1002
{
1070
    62
1070
     1
1070
    41
1040
1.0
1002
}
  0
LINE
  5
737
102
{ACAD_REACTORS
330
C4C
102
}
330
1A
100
AcDbEntity
  8
BEMASSUNG2
  6
Continuous
 62
     1
100
AcDbLine
 10
133.9041394422532
 20
175.638291524247
 30
0.0
 11
136.8784740322532
 21
176.029870084247
 31
0.0
1001
PHOENIX7010
1002
{
1070
    62
1070
     1
1070
    41
1040
1.0
1002
}
  0
LINE
  5
738
102
{ACAD_REACTORS
330
C4D
102
}
330
1A
100
AcDbEntity
  8
BEMASSUNG2
  6
Continuous
 62
     1
100
AcDbLine
 10
133.9041394422532
 20
175.638291524247
 30
0.0
 11
191.1041516522531
 21
175.638291524247
 31
0.0
1001
PHOENIX7010
1002
{
1070
    62
1070
     1
1070
    41
1040
1.0
1002
}
  0
LINE
  5
739
102
{ACAD_REACTORS
330
C4D
102
}
330
1A
100
AcDbEntity
  8
BEMASSUNG2
  6
Continuous
 62
     1
100
AcDbLine
 10
133.9041394422532
 20
186.338303734247
 30
0.0
 11
133.9041394422532
 21
173.638291524247
 31
0.0
1001
PHOENIX7010
1002
{
1070
    62
1070
     1
1070
    41
1040
1.0
1002
}
  0
TEXT
  5
73C
102
{ACAD_REACTORS
330
C4E
102
}
330
1A
100
AcDbEntity
  8
HAUPTEBENE
  6
Continuous
 62
     5
100
AcDbText
 10
141.4041394422532
 20
223.119126484247
 30
0.0
 40
5.0
  1

 50
90.0
 41
1.5
100
AcDbText
1001
PHOENIX7010
1002
{
1070
    62
1070
     5
1070
    41
1040
1.0
1002
}
  0
LINE
  5
73E
102
{ACAD_REACTORS
330
C4E
102
}
330
1A
100
AcDbEntity
  8
HAUPTEBENE
  6
Continuous
 62
     1
100
AcDbLine
 10
148.9041394422532
 20
220.619126484247
 30
0.0
 11
148.9041394422532
 21
307.6191264842471
 31
0.0
1001
PHOENIX7010
1002
{
1070
    62
1070
     1
1070
    41
1040
1.0
1002
}
  0
LINE
  5
73F
102
{ACAD_REACTORS
330
C4E
102
}
330
1A
100
AcDbEntity
  8
HAUPTEBENE
  6
Continuous
 62
     1
100
AcDbLine
 10
191.1042126822532
 20
194.638291524247
 30
0.0
 11
148.9041394422532
 21
220.619126484247
 31
0.0
1001
PHOENIX7010
1002
{
1070
    62
1070
     1
1070
    41
1040
1.0
1002
}
  0
LINE
  5
740
102
{ACAD_REACTORS
330
C4E
102
}
330
1A
100
AcDbEntity
  8
HAUPTEBENE
  6
Continuous
 62
     1
100
AcDbLine
 10
148.9041394422532
 20
220.619126484247
 30
0.0
 11
133.9041394422532
 21
194.638291524247
 31
0.0
1001
PHOENIX7010
1002
{
1070
    62
1070
     1
1070
    41
1040
1.0
1002
}
  0
LINE
  5
745
102
{ACAD_REACTORS
330
C4F
102
}
330
1A
100
AcDbEntity
  8
HAUPTEBENE
  6
Continuous
 62
     1
100
AcDbLine
 10
399.7641095322533
 20
354.278275654247
 30
0.0
 11
401.5711163722532
 21
354.278275654247
 31
0.0
1001
PHOENIX7010
1002
{
1070
    62
1070
     1
1070
    41
1040
1.0
1002
}
  0
LINE
  5
746
102
{ACAD_REACTORS
330
C4F
102
}
330
1A
100
AcDbEntity
  8
HAUPTEBENE
  6
Continuous
 62
     1
100
AcDbLine
 10
406.1541547022533
 20
362.878251244247
 30
0.0
 11
406.1541547022533
 21
365.878251244247
 31
0.0
1001
PHOENIX7010
1002
{
1070
    62
1070
     1
1070
    41
1040
1.0
1002
}
  0
LINE
  5
747
102
{ACAD_REACTORS
330
C4F
102
}
330
1A
100
AcDbEntity
  8
HAUPTEBENE
  6
Continuous
 62
     1
100
AcDbLine
 10
403.7541608022532
 20
354.278275654247
 30
0.0
 11
403.7541608022532
 21
362.878251244247
 31
0.0
1001
PHOENIX7010
1002
{
1070
    62
1070
     1
1070
    41
1040
1.0
1002
}
  0
ARC
  5
748
102
{ACAD_REACTORS
330
C4F
102
}
330
1A
100
AcDbEntity
  8
HAUPTEBENE
  6
Continuous
 62
     1
100
AcDbCircle
 10
402.0041608022532
 20
354.028275654247
 30
0.0
 40
0.500027479999981
100
AcDbArc
 50
29.99818223507204
 51
240.0018182717635
1001
PHOENIX7010
1002
{
1070
    62
1070
     1
1070
    41
1040
1.0
1002
}
  0
LINE
  5
749
102
{ACAD_REACTORS
330
C4F
102
}
330
1A
100
AcDbEntity
  8
HAUPTEBENE
  6
Continuous
 62
     1
100
AcDbLine
 10
401.2541608022532
 20
328.878251244247
 30
0.0
 11
401.7541608022532
 21
328.878251244247
 31
0.0
1001
PHOENIX7010
1002
{
1070
    62
1070
     1
1070
    41
1040
1.0
1002
}
  0
LINE
  5
74A
102
{ACAD_REACTORS
330
C4F
102
}
330
1A
100
AcDbEntity
  8
HAUPTEBENE
  6
Continuous
 62
     1
100
AcDbLine
 10
399.7541608022532
 20
331.476334734247
 30
0.0
 11
401.2541608022532
 21
328.878251244247
 31
0.0
1001
PHOENIX7010
1002
{
1070
    62
1070
     1
1070
    41
1040
1.0
1002
}
  0
LINE
  5
74B
102
{ACAD_REACTORS
330
C4F
102
}
330
1A
100
AcDbEntity
  8
HAUPTEBENE
  6
Continuous
 62
     1
100
AcDbLine
 10
399.7541608022532
 20
354.035721944247
 30
0.0
 11
399.7541608022532
 21
331.476334734247
 31
0.0
1001
PHOENIX7010
1002
{
1070
    62
1070
     1
1070
    41
1040
1.0
1002
}
  0
ARC
  5
74C
102
{ACAD_REACTORS
330
C4F
102
}
330
1A
100
AcDbEntity
  8
HAUPTEBENE
  6
Continuous
 62
     1
100
AcDbCircle
 10
402.7541608022532
 20
354.035721944247
 30
0.0
 40
2.999873759999991
100
AcDbArc
 50
134.9971149628416
 51
180.0000001836396
1001
PHOENIX7010
1002
{
1070
    62
1070
     1
1070
    41
1040
1.0
1002
}
  0
LINE
  5
74D
102
{ACAD_REACTORS
330
C4F
102
}
330
1A
100
AcDbEntity
  8
HAUPTEBENE
  6
Continuous
 62
     1
100
AcDbLine
 10
401.7541608022532
 20
357.278275654247
 30
0.0
 11
400.6330365422532
 21
356.157059834247
 31
0.0
1001
PHOENIX7010
1002
{
1070
    62
1070
     1
1070
    41
1040
1.0
1002
}
  0
LINE
  5
74E
102
{ACAD_REACTORS
330
C4F
102
}
330
1A
100
AcDbEntity
  8
HAUPTEBENE
  6
Continuous
 62
     1
100
AcDbLine
 10
401.7541608022532
 20
362.878251244247
 30
0.0
 11
401.7541608022532
 21
357.278275654247
 31
0.0
1001
PHOENIX7010
1002
{
1070
    62
1070
     1
1070
    41
1040
1.0
1002
}
  0
LINE
  5
74F
102
{ACAD_REACTORS
330
C4F
102
}
330
1A
100
AcDbEntity
  8
HAUPTEBENE
  6
Continuous
 62
     1
100
AcDbLine
 10
378.3541974222532
 20
362.878251244247
 30
0.0
 11
406.1541547022533
 21
362.878251244247
 31
0.0
1001
PHOENIX7010
1002
{
1070
    62
1070
     1
1070
    41
1040
1.0
1002
}
  0
LINE
  5
750
102
{ACAD_REACTORS
330
C4F
102
}
330
1A
100
AcDbEntity
  8
HAUPTEBENE
  6
Continuous
 62
     1
100
AcDbLine
 10
378.3541974222532
 20
365.878251244247
 30
0.0
 11
378.3541974222532
 21
362.878251244247
 31
0.0
1001
PHOENIX7010
1002
{
1070
    62
1070
     1
1070
    41
1040
1.0
1002
}
  0
LINE
  5
751
102
{ACAD_REACTORS
330
C4F
102
}
330
1A
100
AcDbEntity
  8
HAUPTEBENE
  6
Continuous
 62
     1
100
AcDbLine
 10
406.1541547022533
 20
365.878251244247
 30
0.0
 11
378.3541974222532
 21
365.878251244247
 31
0.0
1001
PHOENIX7010
1002
{
1070
    62
1070
     1
1070
    41
1040
1.0
1002
}
  0
LINE
  5
756
102
{ACAD_REACTORS
330
C50
102
}
330
1A
100
AcDbEntity
  8
HAUPTEBENE
  6
Continuous
 62
     7
100
AcDbLine
 10
404.7541608022532
 20
343.258256124247
 30
0.0
 11
403.7541608022532
 21
343.258256124247
 31
0.0
1001
PHOENIX7010
1002
{
1070
    62
1070
     7
1070
    41
1040
1.0
1002
}
  0
LINE
  5
757
102
{ACAD_REACTORS
330
C50
102
}
330
1A
100
AcDbEntity
  8
HAUPTEBENE
  6
Continuous
 62
     7
100
AcDbLine
 10
404.7541608022532
 20
340.258256124247
 30
0.0
 11
404.7541608022532
 21
343.258256124247
 31
0.0
1001
PHOENIX7010
1002
{
1070
    62
1070
     7
1070
    41
1040
1.0
1002
}
  0
LINE
  5
758
102
{ACAD_REACTORS
330
C50
102
}
330
1A
100
AcDbEntity
  8
HAUPTEBENE
  6
Continuous
 62
     7
100
AcDbLine
 10
403.7541608022532
 20
340.258256124247
 30
0.0
 11
404.7541608022532
 21
340.258256124247
 31
0.0
1001
PHOENIX7010
1002
{
1070
    62
1070
     7
1070
    41
1040
1.0
1002
}
  0
LINE
  5
759
102
{ACAD_REACTORS
330
C50
102
}
330
1A
100
AcDbEntity
  8
HAUPTEBENE
  6
Continuous
 62
     7
100
AcDbLine
 10
403.7541608022532
 20
354.258256124247
 30
0.0
 11
401.7541608022532
 21
354.258256124247
 31
0.0
1001
PHOENIX7010
1002
{
1070
    62
1070
     7
1070
    41
1040
1.0
1002
}
  0
LINE
  5
75A
102
{ACAD_REACTORS
330
C50
102
}
330
1A
100
AcDbEntity
  8
HAUPTEBENE
  6
Continuous
 62
     7
100
AcDbLine
 10
404.7541608022532
 20
353.258256124247
 30
0.0
 11
403.7541608022532
 21
353.258256124247
 31
0.0
1001
PHOENIX7010
1002
{
1070
    62
1070
     7
1070
    41
1040
1.0
1002
}
  0
LINE
  5
75B
102
{ACAD_REACTORS
330
C50
102
}
330
1A
100
AcDbEntity
  8
HAUPTEBENE
  6
Continuous
 62
     7
100
AcDbLine
 10
404.7541608022532
 20
350.258256124247
 30
0.0
 11
404.7541608022532
 21
353.258256124247
 31
0.0
1001
PHOENIX7010
1002
{
1070
    62
1070
     7
1070
    41
1040
1.0
1002
}
  0
LINE
  5
75C
102
{ACAD_REACTORS
330
C50
102
}
330
1A
100
AcDbEntity
  8
HAUPTEBENE
  6
Continuous
 62
     7
100
AcDbLine
 10
403.7541608022532
 20
350.258256124247
 30
0.0
 11
404.7541608022532
 21
350.258256124247
 31
0.0
1001
PHOENIX7010
1002
{
1070
    62
1070
     7
1070
    41
1040
1.0
1002
}
  0
LINE
  5
761
102
{ACAD_REACTORS
330
C51
102
}
330
1A
100
AcDbEntity
  8
HAUPTEBENE
  6
Continuous
 62
     7
100
AcDbLine
 10
404.7541608022531
 20
200.258286644247
 30
0.0
 11
403.7541608022531
 21
200.258286644247
 31
0.0
1001
PHOENIX7010
1002
{
1070
    62
1070
     7
1070
    41
1040
1.0
1002
}
  0
LINE
  5
762
102
{ACAD_REACTORS
330
C51
102
}
330
1A
100
AcDbEntity
  8
HAUPTEBENE
  6
Continuous
 62
     7
100
AcDbLine
 10
404.7541608022531
 20
203.258286644247
 30
0.0
 11
404.7541608022531
 21
200.258286644247
 31
0.0
1001
PHOENIX7010
1002
{
1070
    62
1070
     7
1070
    41
1040
1.0
1002
}
  0
LINE
  5
763
102
{ACAD_REACTORS
330
C51
102
}
330
1A
100
AcDbEntity
  8
HAUPTEBENE
  6
Continuous
 62
     7
100
AcDbLine
 10
403.7541608022531
 20
203.258286644247
 30
0.0
 11
404.7541608022531
 21
203.258286644247
 31
0.0
1001
PHOENIX7010
1002
{
1070
    62
1070
     7
1070
    41
1040
1.0
1002
}
  0
LINE
  5
766
102
{ACAD_REACTORS
330
C52
102
}
330
1A
100
AcDbEntity
  8
HAUPTEBENE
  6
Continuous
 62
     7
100
AcDbLine
 10
404.7541608022531
 20
210.258256124247
 30
0.0
 11
403.7541608022531
 21
210.258256124247
 31
0.0
1001
PHOENIX7010
1002
{
1070
    62
1070
     7
1070
    41
1040
1.0
1002
}
  0
LINE
  5
767
102
{ACAD_REACTORS
330
C52
102
}
330
1A
100
AcDbEntity
  8
HAUPTEBENE
  6
Continuous
 62
     7
100
AcDbLine
 10
404.7541608022531
 20
213.258256124247
 30
0.0
 11
404.7541608022531
 21
210.258256124247
 31
0.0
1001
PHOENIX7010
1002
{
1070
    62
1070
     7
1070
    41
1040
1.0
1002
}
  0
LINE
  5
768
102
{ACAD_REACTORS
330
C52
102
}
330
1A
100
AcDbEntity
  8
HAUPTEBENE
  6
Continuous
 62
     7
100
AcDbLine
 10
403.7541608022531
 20
213.258256124247
 30
0.0
 11
404.7541608022531
 21
213.258256124247
 31
0.0
1001
PHOENIX7010
1002
{
1070
    62
1070
     7
1070
    41
1040
1.0
1002
}
  0
LINE
  5
76B
102
{ACAD_REACTORS
330
C53
102
}
330
1A
100
AcDbEntity
  8
HAUPTEBENE
  6
Continuous
 62
     7
100
AcDbLine
 10
404.7541608022531
 20
220.258256124247
 30
0.0
 11
403.7541608022531
 21
220.258256124247
 31
0.0
1001
PHOENIX7010
1002
{
1070
    62
1070
     7
1070
    41
1040
1.0
1002
}
  0
LINE
  5
76C
102
{ACAD_REACTORS
330
C53
102
}
330
1A
100
AcDbEntity
  8
HAUPTEBENE
  6
Continuous
 62
     7
100
AcDbLine
 10
404.7541608022531
 20
223.258256124247
 30
0.0
 11
404.7541608022531
 21
220.258256124247
 31
0.0
1001
PHOENIX7010
1002
{
1070
    62
1070
     7
1070
    41
1040
1.0
1002
}
  0
LINE
  5
76D
102
{ACAD_REACTORS
330
C53
102
}
330
1A
100
AcDbEntity
  8
HAUPTEBENE
  6
Continuous
 62
     7
100
AcDbLine
 10
403.7541608022531
 20
223.258256124247
 30
0.0
 11
404.7541608022531
 21
223.258256124247
 31
0.0
1001
PHOENIX7010
1002
{
1070
    62
1070
     7
1070
    41
1040
1.0
1002
}
  0
LINE
  5
770
102
{ACAD_REACTORS
330
C54
102
}
330
1A
100
AcDbEntity
  8
HAUPTEBENE
  6
Continuous
 62
     7
100
AcDbLine
 10
404.7541608022532
 20
230.258256124247
 30
0.0
 11
403.7541608022532
 21
230.258256124247
 31
0.0
1001
PHOENIX7010
1002
{
1070
    62
1070
     7
1070
    41
1040
1.0
1002
}
  0
LINE
  5
771
102
{ACAD_REACTORS
330
C54
102
}
330
1A
100
AcDbEntity
  8
HAUPTEBENE
  6
Continuous
 62
     7
100
AcDbLine
 10
404.7541608022532
 20
233.258256124247
 30
0.0
 11
404.7541608022532
 21
230.258256124247
 31
0.0
1001
PHOENIX7010
1002
{
1070
    62
1070
     7
1070
    41
1040
1.0
1002
}
  0
LINE
  5
772
102
{ACAD_REACTORS
330
C54
102
}
330
1A
100
AcDbEntity
  8
HAUPTEBENE
  6
Continuous
 62
     7
100
AcDbLine
 10
403.7541608022532
 20
233.258256124247
 30
0.0
 11
404.7541608022532
 21
233.258256124247
 31
0.0
1001
PHOENIX7010
1002
{
1070
    62
1070
     7
1070
    41
1040
1.0
1002
}
  0
LINE
  5
775
102
{ACAD_REACTORS
330
C55
102
}
330
1A
100
AcDbEntity
  8
HAUPTEBENE
  6
Continuous
 62
     7
100
AcDbLine
 10
404.7541608022532
 20
240.258256124247
 30
0.0
 11
403.7541608022532
 21
240.258256124247
 31
0.0
1001
PHOENIX7010
1002
{
1070
    62
1070
     7
1070
    41
1040
1.0
1002
}
  0
LINE
  5
776
102
{ACAD_REACTORS
330
C55
102
}
330
1A
100
AcDbEntity
  8
HAUPTEBENE
  6
Continuous
 62
     7
100
AcDbLine
 10
404.7541608022532
 20
243.258256124247
 30
0.0
 11
404.7541608022532
 21
240.258256124247
 31
0.0
1001
PHOENIX7010
1002
{
1070
    62
1070
     7
1070
    41
1040
1.0
1002
}
  0
LINE
  5
777
102
{ACAD_REACTORS
330
C55
102
}
330
1A
100
AcDbEntity
  8
HAUPTEBENE
  6
Continuous
 62
     7
100
AcDbLine
 10
403.7541608022532
 20
243.258256124247
 30
0.0
 11
404.7541608022532
 21
243.258256124247
 31
0.0
1001
PHOENIX7010
1002
{
1070
    62
1070
     7
1070
    41
1040
1.0
1002
}
  0
LINE
  5
77A
102
{ACAD_REACTORS
330
C56
102
}
330
1A
100
AcDbEntity
  8
HAUPTEBENE
  6
Continuous
 62
     7
100
AcDbLine
 10
404.7541608022532
 20
250.258256124247
 30
0.0
 11
403.7541608022532
 21
250.258256124247
 31
0.0
1001
PHOENIX7010
1002
{
1070
    62
1070
     7
1070
    41
1040
1.0
1002
}
  0
LINE
  5
77B
102
{ACAD_REACTORS
330
C56
102
}
330
1A
100
AcDbEntity
  8
HAUPTEBENE
  6
Continuous
 62
     7
100
AcDbLine
 10
404.7541608022532
 20
253.258256124247
 30
0.0
 11
404.7541608022532
 21
250.258256124247
 31
0.0
1001
PHOENIX7010
1002
{
1070
    62
1070
     7
1070
    41
1040
1.0
1002
}
  0
LINE
  5
77C
102
{ACAD_REACTORS
330
C56
102
}
330
1A
100
AcDbEntity
  8
HAUPTEBENE
  6
Continuous
 62
     7
100
AcDbLine
 10
403.7541608022532
 20
253.258256124247
 30
0.0
 11
404.7541608022532
 21
253.258256124247
 31
0.0
1001
PHOENIX7010
1002
{
1070
    62
1070
     7
1070
    41
1040
1.0
1002
}
  0
LINE
  5
77F
102
{ACAD_REACTORS
330
C57
102
}
330
1A
100
AcDbEntity
  8
HAUPTEBENE
  6
Continuous
 62
     7
100
AcDbLine
 10
404.7541608022532
 20
260.258256124247
 30
0.0
 11
403.7541608022532
 21
260.258256124247
 31
0.0
1001
PHOENIX7010
1002
{
1070
    62
1070
     7
1070
    41
1040
1.0
1002
}
  0
LINE
  5
780
102
{ACAD_REACTORS
330
C57
102
}
330
1A
100
AcDbEntity
  8
HAUPTEBENE
  6
Continuous
 62
     7
100
AcDbLine
 10
404.7541608022532
 20
263.258256124247
 30
0.0
 11
404.7541608022532
 21
260.258256124247
 31
0.0
1001
PHOENIX7010
1002
{
1070
    62
1070
     7
1070
    41
1040
1.0
1002
}
  0
LINE
  5
781
102
{ACAD_REACTORS
330
C57
102
}
330
1A
100
AcDbEntity
  8
HAUPTEBENE
  6
Continuous
 62
     7
100
AcDbLine
 10
403.7541608022532
 20
263.258256124247
 30
0.0
 11
404.7541608022532
 21
263.258256124247
 31
0.0
1001
PHOENIX7010
1002
{
1070
    62
1070
     7
1070
    41
1040
1.0
1002
}
  0
LINE
  5
784
102
{ACAD_REACTORS
330
C58
102
}
330
1A
100
AcDbEntity
  8
HAUPTEBENE
  6
Continuous
 62
     7
100
AcDbLine
 10
404.7541608022532
 20
270.258256124247
 30
0.0
 11
403.7541608022532
 21
270.258256124247
 31
0.0
1001
PHOENIX7010
1002
{
1070
    62
1070
     7
1070
    41
1040
1.0
1002
}
  0
LINE
  5
785
102
{ACAD_REACTORS
330
C58
102
}
330
1A
100
AcDbEntity
  8
HAUPTEBENE
  6
Continuous
 62
     7
100
AcDbLine
 10
404.7541608022532
 20
273.258256124247
 30
0.0
 11
404.7541608022532
 21
270.258256124247
 31
0.0
1001
PHOENIX7010
1002
{
1070
    62
1070
     7
1070
    41
1040
1.0
1002
}
  0
LINE
  5
786
102
{ACAD_REACTORS
330
C58
102
}
330
1A
100
AcDbEntity
  8
HAUPTEBENE
  6
Continuous
 62
     7
100
AcDbLine
 10
403.7541608022532
 20
273.258256124247
 30
0.0
 11
404.7541608022532
 21
273.258256124247
 31
0.0
1001
PHOENIX7010
1002
{
1070
    62
1070
     7
1070
    41
1040
1.0
1002
}
  0
LINE
  5
789
102
{ACAD_REACTORS
330
C59
102
}
330
1A
100
AcDbEntity
  8
HAUPTEBENE
  6
Continuous
 62
     7
100
AcDbLine
 10
404.7541608022532
 20
280.258256124247
 30
0.0
 11
403.7541608022532
 21
280.258256124247
 31
0.0
1001
PHOENIX7010
1002
{
1070
    62
1070
     7
1070
    41
1040
1.0
1002
}
  0
LINE
  5
78A
102
{ACAD_REACTORS
330
C59
102
}
330
1A
100
AcDbEntity
  8
HAUPTEBENE
  6
Continuous
 62
     7
100
AcDbLine
 10
404.7541608022532
 20
283.258256124247
 30
0.0
 11
404.7541608022532
 21
280.258256124247
 31
0.0
1001
PHOENIX7010
1002
{
1070
    62
1070
     7
1070
    41
1040
1.0
1002
}
  0
LINE
  5
78B
102
{ACAD_REACTORS
330
C59
102
}
330
1A
100
AcDbEntity
  8
HAUPTEBENE
  6
Continuous
 62
     7
100
AcDbLine
 10
403.7541608022532
 20
283.258256124247
 30
0.0
 11
404.7541608022532
 21
283.258256124247
 31
0.0
1001
PHOENIX7010
1002
{
1070
    62
1070
     7
1070
    41
1040
1.0
1002
}
  0
LINE
  5
78E
102
{ACAD_REACTORS
330
C5A
102
}
330
1A
100
AcDbEntity
  8
HAUPTEBENE
  6
Continuous
 62
     7
100
AcDbLine
 10
404.7541608022532
 20
290.258256124247
 30
0.0
 11
403.7541608022532
 21
290.258256124247
 31
0.0
1001
PHOENIX7010
1002
{
1070
    62
1070
     7
1070
    41
1040
1.0
1002
}
  0
LINE
  5
78F
102
{ACAD_REACTORS
330
C5A
102
}
330
1A
100
AcDbEntity
  8
HAUPTEBENE
  6
Continuous
 62
     7
100
AcDbLine
 10
404.7541608022532
 20
293.258256124247
 30
0.0
 11
404.7541608022532
 21
290.258256124247
 31
0.0
1001
PHOENIX7010
1002
{
1070
    62
1070
     7
1070
    41
1040
1.0
1002
}
  0
LINE
  5
790
102
{ACAD_REACTORS
330
C5A
102
}
330
1A
100
AcDbEntity
  8
HAUPTEBENE
  6
Continuous
 62
     7
100
AcDbLine
 10
403.7541608022532
 20
293.258256124247
 30
0.0
 11
404.7541608022532
 21
293.258256124247
 31
0.0
1001
PHOENIX7010
1002
{
1070
    62
1070
     7
1070
    41
1040
1.0
1002
}
  0
LINE
  5
793
102
{ACAD_REACTORS
330
C5B
102
}
330
1A
100
AcDbEntity
  8
HAUPTEBENE
  6
Continuous
 62
     7
100
AcDbLine
 10
404.7541608022532
 20
300.258256124247
 30
0.0
 11
403.7541608022532
 21
300.258256124247
 31
0.0
1001
PHOENIX7010
1002
{
1070
    62
1070
     7
1070
    41
1040
1.0
1002
}
  0
LINE
  5
794
102
{ACAD_REACTORS
330
C5B
102
}
330
1A
100
AcDbEntity
  8
HAUPTEBENE
  6
Continuous
 62
     7
100
AcDbLine
 10
404.7541608022532
 20
303.258256124247
 30
0.0
 11
404.7541608022532
 21
300.258256124247
 31
0.0
1001
PHOENIX7010
1002
{
1070
    62
1070
     7
1070
    41
1040
1.0
1002
}
  0
LINE
  5
795
102
{ACAD_REACTORS
330
C5B
102
}
330
1A
100
AcDbEntity
  8
HAUPTEBENE
  6
Continuous
 62
     7
100
AcDbLine
 10
403.7541608022532
 20
303.258256124247
 30
0.0
 11
404.7541608022532
 21
303.258256124247
 31
0.0
1001
PHOENIX7010
1002
{
1070
    62
1070
     7
1070
    41
1040
1.0
1002
}
  0
LINE
  5
798
102
{ACAD_REACTORS
330
C5C
102
}
330
1A
100
AcDbEntity
  8
HAUPTEBENE
  6
Continuous
 62
     7
100
AcDbLine
 10
404.7541608022532
 20
310.258256124247
 30
0.0
 11
403.7541608022532
 21
310.258256124247
 31
0.0
1001
PHOENIX7010
1002
{
1070
    62
1070
     7
1070
    41
1040
1.0
1002
}
  0
LINE
  5
799
102
{ACAD_REACTORS
330
C5C
102
}
330
1A
100
AcDbEntity
  8
HAUPTEBENE
  6
Continuous
 62
     7
100
AcDbLine
 10
404.7541608022532
 20
313.258256124247
 30
0.0
 11
404.7541608022532
 21
310.258256124247
 31
0.0
1001
PHOENIX7010
1002
{
1070
    62
1070
     7
1070
    41
1040
1.0
1002
}
  0
LINE
  5
79A
102
{ACAD_REACTORS
330
C5C
102
}
330
1A
100
AcDbEntity
  8
HAUPTEBENE
  6
Continuous
 62
     7
100
AcDbLine
 10
403.7541608022532
 20
313.258256124247
 30
0.0
 11
404.7541608022532
 21
313.258256124247
 31
0.0
1001
PHOENIX7010
1002
{
1070
    62
1070
     7
1070
    41
1040
1.0
1002
}
  0
LINE
  5
79D
102
{ACAD_REACTORS
330
C5D
102
}
330
1A
100
AcDbEntity
  8
HAUPTEBENE
  6
Continuous
 62
     7
100
AcDbLine
 10
404.7541608022532
 20
320.258256124247
 30
0.0
 11
403.7541608022532
 21
320.258256124247
 31
0.0
1001
PHOENIX7010
1002
{
1070
    62
1070
     7
1070
    41
1040
1.0
1002
}
  0
LINE
  5
79E
102
{ACAD_REACTORS
330
C5D
102
}
330
1A
100
AcDbEntity
  8
HAUPTEBENE
  6
Continuous
 62
     7
100
AcDbLine
 10
404.7541608022532
 20
323.258256124247
 30
0.0
 11
404.7541608022532
 21
320.258256124247
 31
0.0
1001
PHOENIX7010
1002
{
1070
    62
1070
     7
1070
    41
1040
1.0
1002
}
  0
LINE
  5
79F
102
{ACAD_REACTORS
330
C5D
102
}
330
1A
100
AcDbEntity
  8
HAUPTEBENE
  6
Continuous
 62
     7
100
AcDbLine
 10
403.7541608022532
 20
323.258256124247
 30
0.0
 11
404.7541608022532
 21
323.258256124247
 31
0.0
1001
PHOENIX7010
1002
{
1070
    62
1070
     7
1070
    41
1040
1.0
1002
}
  0
LINE
  5
7A2
102
{ACAD_REACTORS
330
C5E
102
}
330
1A
100
AcDbEntity
  8
HAUPTEBENE
  6
Continuous
 62
     7
100
AcDbLine
 10
404.7541608022532
 20
330.258256124247
 30
0.0
 11
403.7541608022532
 21
330.258256124247
 31
0.0
1001
PHOENIX7010
1002
{
1070
    62
1070
     7
1070
    41
1040
1.0
1002
}
  0
LINE
  5
7A3
102
{ACAD_REACTORS
330
C5E
102
}
330
1A
100
AcDbEntity
  8
HAUPTEBENE
  6
Continuous
 62
     7
100
AcDbLine
 10
404.7541608022532
 20
333.258256124247
 30
0.0
 11
404.7541608022532
 21
330.258256124247
 31
0.0
1001
PHOENIX7010
1002
{
1070
    62
1070
     7
1070
    41
1040
1.0
1002
}
  0
LINE
  5
7A4
102
{ACAD_REACTORS
330
C5E
102
}
330
1A
100
AcDbEntity
  8
HAUPTEBENE
  6
Continuous
 62
     7
100
AcDbLine
 10
403.7541608022532
 20
333.258256124247
 30
0.0
 11
404.7541608022532
 21
333.258256124247
 31
0.0
1001
PHOENIX7010
1002
{
1070
    62
1070
     7
1070
    41
1040
1.0
1002
}
  0
LINE
  5
7A5
102
{ACAD_REACTORS
330
C60
102
}
330
1A
100
AcDbEntity
  8
HAUPTEBENE
  6
Continuous
 62
     7
100
AcDbLine
 10
403.7541608022532
 20
354.258256124247
 30
0.0
 11
403.7541608022531
 21
187.638291524247
 31
0.0
1001
PHOENIX7010
1002
{
1070
    62
1070
     7
1070
    41
1040
1.0
1002
}
  0
LINE
  5
7A6
102
{ACAD_REACTORS
330
C60
102
}
330
1A
100
AcDbEntity
  8
HAUPTEBENE
  6
Continuous
 62
     7
100
AcDbLine
 10
401.7541608022531
 20
187.638291524247
 30
0.0
 11
401.7541608022532
 21
354.258256124247
 31
0.0
1001
PHOENIX7010
1002
{
1070
    62
1070
     7
1070
    41
1040
1.0
1002
}
  0
LINE
  5
7A7
102
{ACAD_REACTORS
330
C60
102
}
330
1A
100
AcDbEntity
  8
HAUPTEBENE
  6
Continuous
 62
     7
100
AcDbLine
 10
401.7541608022531
 20
187.638291524247
 30
0.0
 11
403.7541608022531
 21
187.638291524247
 31
0.0
1001
PHOENIX7010
1002
{
1070
    62
1070
     7
1070
    41
1040
1.0
1002
}
  0
LINE
  5
7A8
102
{ACAD_REACTORS
330
C60
102
}
330
1A
100
AcDbEntity
  8
HAUPTEBENE
  6
ACAD_ISO04W100
 62
     1
100
AcDbLine
 10
408.7541608022532
 20
336.758256124247
 30
0.0
 11
395.7541608022532
 21
336.758256124247
 31
0.0
1001
PHOENIX7010
1002
{
1070
    62
1070
     1
1070
    41
1040
1.0
1002
}
  0
LINE
  5
7A9
102
{ACAD_REACTORS
330
C60
102
}
330
1A
100
AcDbEntity
  8
HAUPTEBENE
  6
ACAD_ISO04W100
 62
     1
100
AcDbLine
 10
395.7541608022532
 20
341.758256124247
 30
0.0
 11
408.7541608022532
 21
341.758256124247
 31
0.0
1001
PHOENIX7010
1002
{
1070
    62
1070
     1
1070
    41
1040
1.0
1002
}
  0
LINE
  5
7AA
102
{ACAD_REACTORS
330
C60
102
}
330
1A
100
AcDbEntity
  8
HAUPTEBENE
  6
ACAD_ISO04W100
 62
     1
100
AcDbLine
 10
408.7541608022532
 20
346.758256124247
 30
0.0
 11
395.7541608022532
 21
346.758256124247
 31
0.0
1001
PHOENIX7010
1002
{
1070
    62
1070
     1
1070
    41
1040
1.0
1002
}
  0
LINE
  5
7AB
102
{ACAD_REACTORS
330
C60
102
}
330
1A
100
AcDbEntity
  8
HAUPTEBENE
  6
ACAD_ISO04W100
 62
     1
100
AcDbLine
 10
395.7541608022532
 20
351.758256124247
 30
0.0
 11
408.7541608022532
 21
351.758256124247
 31
0.0
1001
PHOENIX7010
1002
{
1070
    62
1070
     1
1070
    41
1040
1.0
1002
}
  0
LINE
  5
7B0
102
{ACAD_REACTORS
330
C62
102
}
330
1A
100
AcDbEntity
  8
HAUPTEBENE
  6
Continuous
 62
     1
100
AcDbLine
 10
353.1039990622533
 20
362.878525894247
 30
0.0
 11
353.1039990622533
 21
354.278519794247
 31
0.0
1001
PHOENIX7010
1002
{
1070
    62
1070
     1
1070
    41
1040
1.0
1002
}
  0
LINE
  5
7B1
102
{ACAD_REACTORS
330
C62
102
}
330
1A
100
AcDbEntity
  8
HAUPTEBENE
  6
Continuous
 62
     1
100
AcDbLine
 10
362.1039990622533
 20
362.878525894247
 30
0.0
 11
362.1039990622533
 21
365.878525894247
 31
0.0
1001
PHOENIX7010
1002
{
1070
    62
1070
     1
1070
    41
1040
1.0
1002
}
  0
LINE
  5
7B2
102
{ACAD_REACTORS
330
C62
102
}
330
1A
100
AcDbEntity
  8
HAUPTEBENE
  6
Continuous
 62
     1
100
AcDbLine
 10
105.2541760622532
 20
354.2782756542471
 30
0.0
 11
105.2541760622532
 21
362.878281754247
 31
0.0
1001
PHOENIX7010
1002
{
1070
    62
1070
     1
1070
    41
1040
1.0
1002
}
  0
LINE
  5
7B3
102
{ACAD_REACTORS
330
C62
102
}
330
1A
100
AcDbEntity
  8
HAUPTEBENE
  6
Continuous
 62
     1
100
AcDbLine
 10
96.25417606225324
 20
362.878281754247
 30
0.0
 11
96.25417606225324
 21
365.8782817542471
 31
0.0
1001
PHOENIX7010
1002
{
1070
    62
1070
     1
1070
    41
1040
1.0
1002
}
  0
LINE
  5
7B4
102
{ACAD_REACTORS
330
C62
102
}
330
1A
100
AcDbEntity
  8
HAUPTEBENE
  6
Continuous
 62
     1
100
AcDbLine
 10
96.25417606225324
 20
365.8782817542471
 30
0.0
 11
362.1039990622533
 21
365.878525894247
 31
0.0
1001
PHOENIX7010
1002
{
1070
    62
1070
     1
1070
    41
1040
1.0
1002
}
  0
LINE
  5
7B5
102
{ACAD_REACTORS
330
C62
102
}
330
1A
100
AcDbEntity
  8
HAUPTEBENE
  6
Continuous
 62
     1
100
AcDbLine
 10
96.25417606225324
 20
362.878281754247
 30
0.0
 11
362.1039990622533
 21
362.878525894247
 31
0.0
1001
PHOENIX7010
1002
{
1070
    62
1070
     1
1070
    41
1040
1.0
1002
}
  0
LINE
  5
7B8
102
{ACAD_REACTORS
330
CA8
102
}
330
1A
100
AcDbEntity
  8
HAUPTEBENE
  6
ACAD_ISO04W100
 62
     1
100
AcDbLine
 10
229.1791943722532
 20
359.258256124247
 30
0.0
 11
229.1792248922532
 21
182.638291524247
 31
0.0
1001
PHOENIX7010
1002
{
1070
    62
1070
     1
1070
    41
1040
1.0
1002
}
  0
CIRCLE
  5
7BD
102
{ACAD_REACTORS
330
C63
102
}
330
1A
100
AcDbEntity
  8
HAUPTEBENE
  6
Continuous
 62
     7
100
AcDbCircle
 10
357.1041821722532
 20
196.758286644247
 30
0.0
 40
2.0
1001
PHOENIX7010
1002
{
1070
    62
1070
     7
1070
    41
1040
1.0
1002
}
  0
CIRCLE
  5
7BE
102
{ACAD_REACTORS
330
C63
102
}
330
1A
100
AcDbEntity
  8
HAUPTEBENE
  6
Continuous
 62
     7
100
AcDbCircle
 10
357.1041821722532
 20
201.758286644247
 30
0.0
 40
1.5
1001
PHOENIX7010
1002
{
1070
    62
1070
     7
1070
    41
1040
1.0
1002
}
  0
CIRCLE
  5
7C1
102
{ACAD_REACTORS
330
C64
102
}
330
1A
100
AcDbEntity
  8
HAUPTEBENE
  6
Continuous
 62
     7
100
AcDbCircle
 10
357.1041821722532
 20
206.758286644247
 30
0.0
 40
2.0
1001
PHOENIX7010
1002
{
1070
    62
1070
     7
1070
    41
1040
1.0
1002
}
  0
CIRCLE
  5
7C2
102
{ACAD_REACTORS
330
C64
102
}
330
1A
100
AcDbEntity
  8
HAUPTEBENE
  6
Continuous
 62
     7
100
AcDbCircle
 10
357.1041821722532
 20
211.758256124247
 30
0.0
 40
1.5
1001
PHOENIX7010
1002
{
1070
    62
1070
     7
1070
    41
1040
1.0
1002
}
  0
CIRCLE
  5
7C5
102
{ACAD_REACTORS
330
C65
102
}
330
1A
100
AcDbEntity
  8
HAUPTEBENE
  6
Continuous
 62
     7
100
AcDbCircle
 10
357.1041821722532
 20
216.758256124247
 30
0.0
 40
2.0
1001
PHOENIX7010
1002
{
1070
    62
1070
     7
1070
    41
1040
1.0
1002
}
  0
CIRCLE
  5
7C6
102
{ACAD_REACTORS
330
C65
102
}
330
1A
100
AcDbEntity
  8
HAUPTEBENE
  6
Continuous
 62
     7
100
AcDbCircle
 10
357.1041821722532
 20
221.758256124247
 30
0.0
 40
1.5
1001
PHOENIX7010
1002
{
1070
    62
1070
     7
1070
    41
1040
1.0
1002
}
  0
CIRCLE
  5
7C9
102
{ACAD_REACTORS
330
C66
102
}
330
1A
100
AcDbEntity
  8
HAUPTEBENE
  6
Continuous
 62
     7
100
AcDbCircle
 10
357.1041821722532
 20
226.758256124247
 30
0.0
 40
2.0
1001
PHOENIX7010
1002
{
1070
    62
1070
     7
1070
    41
1040
1.0
1002
}
  0
CIRCLE
  5
7CA
102
{ACAD_REACTORS
330
C66
102
}
330
1A
100
AcDbEntity
  8
HAUPTEBENE
  6
Continuous
 62
     7
100
AcDbCircle
 10
357.1041821722532
 20
231.758256124247
 30
0.0
 40
1.5
1001
PHOENIX7010
1002
{
1070
    62
1070
     7
1070
    41
1040
1.0
1002
}
  0
CIRCLE
  5
7CD
102
{ACAD_REACTORS
330
C67
102
}
330
1A
100
AcDbEntity
  8
HAUPTEBENE
  6
Continuous
 62
     7
100
AcDbCircle
 10
357.1041821722532
 20
236.758256124247
 30
0.0
 40
2.0
1001
PHOENIX7010
1002
{
1070
    62
1070
     7
1070
    41
1040
1.0
1002
}
  0
CIRCLE
  5
7CE
102
{ACAD_REACTORS
330
C67
102
}
330
1A
100
AcDbEntity
  8
HAUPTEBENE
  6
Continuous
 62
     7
100
AcDbCircle
 10
357.1041821722532
 20
241.758256124247
 30
0.0
 40
1.5
1001
PHOENIX7010
1002
{
1070
    62
1070
     7
1070
    41
1040
1.0
1002
}
  0
CIRCLE
  5
7D1
102
{ACAD_REACTORS
330
C68
102
}
330
1A
100
AcDbEntity
  8
HAUPTEBENE
  6
Continuous
 62
     7
100
AcDbCircle
 10
357.1041821722532
 20
246.758256124247
 30
0.0
 40
2.0
1001
PHOENIX7010
1002
{
1070
    62
1070
     7
1070
    41
1040
1.0
1002
}
  0
CIRCLE
  5
7D2
102
{ACAD_REACTORS
330
C68
102
}
330
1A
100
AcDbEntity
  8
HAUPTEBENE
  6
Continuous
 62
     7
100
AcDbCircle
 10
357.1041821722532
 20
251.758256124247
 30
0.0
 40
1.5
1001
PHOENIX7010
1002
{
1070
    62
1070
     7
1070
    41
1040
1.0
1002
}
  0
CIRCLE
  5
7D5
102
{ACAD_REACTORS
330
C69
102
}
330
1A
100
AcDbEntity
  8
HAUPTEBENE
  6
Continuous
 62
     7
100
AcDbCircle
 10
357.1041821722532
 20
256.758256124247
 30
0.0
 40
2.0
1001
PHOENIX7010
1002
{
1070
    62
1070
     7
1070
    41
1040
1.0
1002
}
  0
CIRCLE
  5
7D6
102
{ACAD_REACTORS
330
C69
102
}
330
1A
100
AcDbEntity
  8
HAUPTEBENE
  6
Continuous
 62
     7
100
AcDbCircle
 10
357.1041821722532
 20
261.758256124247
 30
0.0
 40
1.5
1001
PHOENIX7010
1002
{
1070
    62
1070
     7
1070
    41
1040
1.0
1002
}
  0
CIRCLE
  5
7D9
102
{ACAD_REACTORS
330
C6A
102
}
330
1A
100
AcDbEntity
  8
HAUPTEBENE
  6
Continuous
 62
     7
100
AcDbCircle
 10
357.1041821722532
 20
266.758256124247
 30
0.0
 40
2.0
1001
PHOENIX7010
1002
{
1070
    62
1070
     7
1070
    41
1040
1.0
1002
}
  0
CIRCLE
  5
7DA
102
{ACAD_REACTORS
330
C6A
102
}
330
1A
100
AcDbEntity
  8
HAUPTEBENE
  6
Continuous
 62
     7
100
AcDbCircle
 10
357.1041821722532
 20
271.758256124247
 30
0.0
 40
1.5
1001
PHOENIX7010
1002
{
1070
    62
1070
     7
1070
    41
1040
1.0
1002
}
  0
CIRCLE
  5
7DD
102
{ACAD_REACTORS
330
C6B
102
}
330
1A
100
AcDbEntity
  8
HAUPTEBENE
  6
Continuous
 62
     7
100
AcDbCircle
 10
357.1041821722532
 20
276.758256124247
 30
0.0
 40
2.0
1001
PHOENIX7010
1002
{
1070
    62
1070
     7
1070
    41
1040
1.0
1002
}
  0
CIRCLE
  5
7DE
102
{ACAD_REACTORS
330
C6B
102
}
330
1A
100
AcDbEntity
  8
HAUPTEBENE
  6
Continuous
 62
     7
100
AcDbCircle
 10
357.1041821722532
 20
281.758256124247
 30
0.0
 40
1.5
1001
PHOENIX7010
1002
{
1070
    62
1070
     7
1070
    41
1040
1.0
1002
}
  0
CIRCLE
  5
7E1
102
{ACAD_REACTORS
330
C6C
102
}
330
1A
100
AcDbEntity
  8
HAUPTEBENE
  6
Continuous
 62
     7
100
AcDbCircle
 10
357.1041821722532
 20
286.758256124247
 30
0.0
 40
2.0
1001
PHOENIX7010
1002
{
1070
    62
1070
     7
1070
    41
1040
1.0
1002
}
  0
CIRCLE
  5
7E2
102
{ACAD_REACTORS
330
C6C
102
}
330
1A
100
AcDbEntity
  8
HAUPTEBENE
  6
Continuous
 62
     7
100
AcDbCircle
 10
357.1041821722532
 20
291.758256124247
 30
0.0
 40
1.5
1001
PHOENIX7010
1002
{
1070
    62
1070
     7
1070
    41
1040
1.0
1002
}
  0
CIRCLE
  5
7E5
102
{ACAD_REACTORS
330
C6D
102
}
330
1A
100
AcDbEntity
  8
HAUPTEBENE
  6
Continuous
 62
     7
100
AcDbCircle
 10
357.1041821722532
 20
296.758256124247
 30
0.0
 40
2.0
1001
PHOENIX7010
1002
{
1070
    62
1070
     7
1070
    41
1040
1.0
1002
}
  0
CIRCLE
  5
7E6
102
{ACAD_REACTORS
330
C6D
102
}
330
1A
100
AcDbEntity
  8
HAUPTEBENE
  6
Continuous
 62
     7
100
AcDbCircle
 10
357.1041821722532
 20
301.758256124247
 30
0.0
 40
1.5
1001
PHOENIX7010
1002
{
1070
    62
1070
     7
1070
    41
1040
1.0
1002
}
  0
CIRCLE
  5
7E9
102
{ACAD_REACTORS
330
C6E
102
}
330
1A
100
AcDbEntity
  8
HAUPTEBENE
  6
Continuous
 62
     7
100
AcDbCircle
 10
357.1041821722532
 20
306.758256124247
 30
0.0
 40
2.0
1001
PHOENIX7010
1002
{
1070
    62
1070
     7
1070
    41
1040
1.0
1002
}
  0
CIRCLE
  5
7EA
102
{ACAD_REACTORS
330
C6E
102
}
330
1A
100
AcDbEntity
  8
HAUPTEBENE
  6
Continuous
 62
     7
100
AcDbCircle
 10
357.1041821722532
 20
311.758256124247
 30
0.0
 40
1.5
1001
PHOENIX7010
1002
{
1070
    62
1070
     7
1070
    41
1040
1.0
1002
}
  0
CIRCLE
  5
7ED
102
{ACAD_REACTORS
330
C6F
102
}
330
1A
100
AcDbEntity
  8
HAUPTEBENE
  6
Continuous
 62
     7
100
AcDbCircle
 10
357.1041821722532
 20
316.758256124247
 30
0.0
 40
2.0
1001
PHOENIX7010
1002
{
1070
    62
1070
     7
1070
    41
1040
1.0
1002
}
  0
CIRCLE
  5
7EE
102
{ACAD_REACTORS
330
C6F
102
}
330
1A
100
AcDbEntity
  8
HAUPTEBENE
  6
Continuous
 62
     7
100
AcDbCircle
 10
357.1041821722532
 20
321.758256124247
 30
0.0
 40
1.5
1001
PHOENIX7010
1002
{
1070
    62
1070
     7
1070
    41
1040
1.0
1002
}
  0
CIRCLE
  5
7F1
102
{ACAD_REACTORS
330
C70
102
}
330
1A
100
AcDbEntity
  8
HAUPTEBENE
  6
Continuous
 62
     7
100
AcDbCircle
 10
357.1041821722532
 20
326.758256124247
 30
0.0
 40
2.0
1001
PHOENIX7010
1002
{
1070
    62
1070
     7
1070
    41
1040
1.0
1002
}
  0
CIRCLE
  5
7F2
102
{ACAD_REACTORS
330
C70
102
}
330
1A
100
AcDbEntity
  8
HAUPTEBENE
  6
Continuous
 62
     7
100
AcDbCircle
 10
357.1041821722532
 20
331.758256124247
 30
0.0
 40
1.5
1001
PHOENIX7010
1002
{
1070
    62
1070
     7
1070
    41
1040
1.0
1002
}
  0
CIRCLE
  5
7F5
102
{ACAD_REACTORS
330
C71
102
}
330
1A
100
AcDbEntity
  8
HAUPTEBENE
  6
Continuous
 62
     7
100
AcDbCircle
 10
357.1041821722532
 20
336.758256124247
 30
0.0
 40
2.0
1001
PHOENIX7010
1002
{
1070
    62
1070
     7
1070
    41
1040
1.0
1002
}
  0
CIRCLE
  5
7F6
102
{ACAD_REACTORS
330
C71
102
}
330
1A
100
AcDbEntity
  8
HAUPTEBENE
  6
Continuous
 62
     7
100
AcDbCircle
 10
357.1041821722532
 20
341.758256124247
 30
0.0
 40
1.5
1001
PHOENIX7010
1002
{
1070
    62
1070
     7
1070
    41
1040
1.0
1002
}
  0
CIRCLE
  5
7F9
102
{ACAD_REACTORS
330
C72
102
}
330
1A
100
AcDbEntity
  8
HAUPTEBENE
  6
Continuous
 62
     7
100
AcDbCircle
 10
357.1041821722532
 20
346.758256124247
 30
0.0
 40
2.0
1001
PHOENIX7010
1002
{
1070
    62
1070
     7
1070
    41
1040
1.0
1002
}
  0
CIRCLE
  5
7FA
102
{ACAD_REACTORS
330
C72
102
}
330
1A
100
AcDbEntity
  8
HAUPTEBENE
  6
Continuous
 62
     7
100
AcDbCircle
 10
357.1041821722532
 20
351.758256124247
 30
0.0
 40
1.5
1001
PHOENIX7010
1002
{
1070
    62
1070
     7
1070
    41
1040
1.0
1002
}
  0
CIRCLE
  5
7FF
102
{ACAD_REACTORS
330
C74
102
}
330
1A
100
AcDbEntity
  8
HAUPTEBENE
  6
Continuous
 62
     7
100
AcDbCircle
 10
234.6042126822532
 20
196.758286644247
 30
0.0
 40
2.0
1001
PHOENIX7010
1002
{
1070
    62
1070
     7
1070
    41
1040
1.0
1002
}
  0
CIRCLE
  5
800
102
{ACAD_REACTORS
330
C74
102
}
330
1A
100
AcDbEntity
  8
HAUPTEBENE
  6
Continuous
 62
     7
100
AcDbCircle
 10
234.6042126822532
 20
201.758286644247
 30
0.0
 40
1.5
1001
PHOENIX7010
1002
{
1070
    62
1070
     7
1070
    41
1040
1.0
1002
}
  0
CIRCLE
  5
803
102
{ACAD_REACTORS
330
C75
102
}
330
1A
100
AcDbEntity
  8
HAUPTEBENE
  6
Continuous
 62
     7
100
AcDbCircle
 10
234.6042126822532
 20
206.758286644247
 30
0.0
 40
2.0
1001
PHOENIX7010
1002
{
1070
    62
1070
     7
1070
    41
1040
1.0
1002
}
  0
CIRCLE
  5
804
102
{ACAD_REACTORS
330
C75
102
}
330
1A
100
AcDbEntity
  8
HAUPTEBENE
  6
Continuous
 62
     7
100
AcDbCircle
 10
234.6042126822532
 20
211.758256124247
 30
0.0
 40
1.5
1001
PHOENIX7010
1002
{
1070
    62
1070
     7
1070
    41
1040
1.0
1002
}
  0
CIRCLE
  5
807
102
{ACAD_REACTORS
330
C76
102
}
330
1A
100
AcDbEntity
  8
HAUPTEBENE
  6
Continuous
 62
     7
100
AcDbCircle
 10
234.6042126822532
 20
216.758256124247
 30
0.0
 40
2.0
1001
PHOENIX7010
1002
{
1070
    62
1070
     7
1070
    41
1040
1.0
1002
}
  0
CIRCLE
  5
808
102
{ACAD_REACTORS
330
C76
102
}
330
1A
100
AcDbEntity
  8
HAUPTEBENE
  6
Continuous
 62
     7
100
AcDbCircle
 10
234.6042126822532
 20
221.758256124247
 30
0.0
 40
1.5
1001
PHOENIX7010
1002
{
1070
    62
1070
     7
1070
    41
1040
1.0
1002
}
  0
CIRCLE
  5
80B
102
{ACAD_REACTORS
330
C77
102
}
330
1A
100
AcDbEntity
  8
HAUPTEBENE
  6
Continuous
 62
     7
100
AcDbCircle
 10
234.6042126822532
 20
226.758256124247
 30
0.0
 40
2.0
1001
PHOENIX7010
1002
{
1070
    62
1070
     7
1070
    41
1040
1.0
1002
}
  0
CIRCLE
  5
80C
102
{ACAD_REACTORS
330
C77
102
}
330
1A
100
AcDbEntity
  8
HAUPTEBENE
  6
Continuous
 62
     7
100
AcDbCircle
 10
234.6042126822532
 20
231.758256124247
 30
0.0
 40
1.5
1001
PHOENIX7010
1002
{
1070
    62
1070
     7
1070
    41
1040
1.0
1002
}
  0
CIRCLE
  5
80F
102
{ACAD_REACTORS
330
C78
102
}
330
1A
100
AcDbEntity
  8
HAUPTEBENE
  6
Continuous
 62
     7
100
AcDbCircle
 10
234.6042126822532
 20
236.758256124247
 30
0.0
 40
2.0
1001
PHOENIX7010
1002
{
1070
    62
1070
     7
1070
    41
1040
1.0
1002
}
  0
CIRCLE
  5
810
102
{ACAD_REACTORS
330
C78
102
}
330
1A
100
AcDbEntity
  8
HAUPTEBENE
  6
Continuous
 62
     7
100
AcDbCircle
 10
234.6042126822532
 20
241.758256124247
 30
0.0
 40
1.5
1001
PHOENIX7010
1002
{
1070
    62
1070
     7
1070
    41
1040
1.0
1002
}
  0
CIRCLE
  5
813
102
{ACAD_REACTORS
330
C79
102
}
330
1A
100
AcDbEntity
  8
HAUPTEBENE
  6
Continuous
 62
     7
100
AcDbCircle
 10
234.6042126822532
 20
246.758256124247
 30
0.0
 40
2.0
1001
PHOENIX7010
1002
{
1070
    62
1070
     7
1070
    41
1040
1.0
1002
}
  0
CIRCLE
  5
814
102
{ACAD_REACTORS
330
C79
102
}
330
1A
100
AcDbEntity
  8
HAUPTEBENE
  6
Continuous
 62
     7
100
AcDbCircle
 10
234.6042126822532
 20
251.758256124247
 30
0.0
 40
1.5
1001
PHOENIX7010
1002
{
1070
    62
1070
     7
1070
    41
1040
1.0
1002
}
  0
CIRCLE
  5
817
102
{ACAD_REACTORS
330
C7A
102
}
330
1A
100
AcDbEntity
  8
HAUPTEBENE
  6
Continuous
 62
     7
100
AcDbCircle
 10
234.6042126822532
 20
256.758256124247
 30
0.0
 40
2.0
1001
PHOENIX7010
1002
{
1070
    62
1070
     7
1070
    41
1040
1.0
1002
}
  0
CIRCLE
  5
818
102
{ACAD_REACTORS
330
C7A
102
}
330
1A
100
AcDbEntity
  8
HAUPTEBENE
  6
Continuous
 62
     7
100
AcDbCircle
 10
234.6042126822532
 20
261.7582561242471
 30
0.0
 40
1.5
1001
PHOENIX7010
1002
{
1070
    62
1070
     7
1070
    41
1040
1.0
1002
}
  0
CIRCLE
  5
81B
102
{ACAD_REACTORS
330
C7B
102
}
330
1A
100
AcDbEntity
  8
HAUPTEBENE
  6
Continuous
 62
     7
100
AcDbCircle
 10
234.6042126822532
 20
266.7582561242471
 30
0.0
 40
2.0
1001
PHOENIX7010
1002
{
1070
    62
1070
     7
1070
    41
1040
1.0
1002
}
  0
CIRCLE
  5
81C
102
{ACAD_REACTORS
330
C7B
102
}
330
1A
100
AcDbEntity
  8
HAUPTEBENE
  6
Continuous
 62
     7
100
AcDbCircle
 10
234.6042126822532
 20
271.758256124247
 30
0.0
 40
1.5
1001
PHOENIX7010
1002
{
1070
    62
1070
     7
1070
    41
1040
1.0
1002
}
  0
CIRCLE
  5
81F
102
{ACAD_REACTORS
330
C7C
102
}
330
1A
100
AcDbEntity
  8
HAUPTEBENE
  6
Continuous
 62
     7
100
AcDbCircle
 10
234.6042126822532
 20
276.7582561242471
 30
0.0
 40
2.0
1001
PHOENIX7010
1002
{
1070
    62
1070
     7
1070
    41
1040
1.0
1002
}
  0
CIRCLE
  5
820
102
{ACAD_REACTORS
330
C7C
102
}
330
1A
100
AcDbEntity
  8
HAUPTEBENE
  6
Continuous
 62
     7
100
AcDbCircle
 10
234.6042126822532
 20
281.758256124247
 30
0.0
 40
1.5
1001
PHOENIX7010
1002
{
1070
    62
1070
     7
1070
    41
1040
1.0
1002
}
  0
CIRCLE
  5
823
102
{ACAD_REACTORS
330
C7D
102
}
330
1A
100
AcDbEntity
  8
HAUPTEBENE
  6
Continuous
 62
     7
100
AcDbCircle
 10
234.6042126822532
 20
286.7582561242471
 30
0.0
 40
2.0
1001
PHOENIX7010
1002
{
1070
    62
1070
     7
1070
    41
1040
1.0
1002
}
  0
CIRCLE
  5
824
102
{ACAD_REACTORS
330
C7D
102
}
330
1A
100
AcDbEntity
  8
HAUPTEBENE
  6
Continuous
 62
     7
100
AcDbCircle
 10
234.6042126822532
 20
291.758256124247
 30
0.0
 40
1.5
1001
PHOENIX7010
1002
{
1070
    62
1070
     7
1070
    41
1040
1.0
1002
}
  0
CIRCLE
  5
827
102
{ACAD_REACTORS
330
C7E
102
}
330
1A
100
AcDbEntity
  8
HAUPTEBENE
  6
Continuous
 62
     7
100
AcDbCircle
 10
234.6042126822532
 20
296.758256124247
 30
0.0
 40
2.0
1001
PHOENIX7010
1002
{
1070
    62
1070
     7
1070
    41
1040
1.0
1002
}
  0
CIRCLE
  5
828
102
{ACAD_REACTORS
330
C7E
102
}
330
1A
100
AcDbEntity
  8
HAUPTEBENE
  6
Continuous
 62
     7
100
AcDbCircle
 10
234.6042126822532
 20
301.7582561242471
 30
0.0
 40
1.5
1001
PHOENIX7010
1002
{
1070
    62
1070
     7
1070
    41
1040
1.0
1002
}
  0
CIRCLE
  5
82B
102
{ACAD_REACTORS
330
C7F
102
}
330
1A
100
AcDbEntity
  8
HAUPTEBENE
  6
Continuous
 62
     7
100
AcDbCircle
 10
234.6042126822532
 20
306.758256124247
 30
0.0
 40
2.0
1001
PHOENIX7010
1002
{
1070
    62
1070
     7
1070
    41
1040
1.0
1002
}
  0
CIRCLE
  5
82C
102
{ACAD_REACTORS
330
C7F
102
}
330
1A
100
AcDbEntity
  8
HAUPTEBENE
  6
Continuous
 62
     7
100
AcDbCircle
 10
234.6042126822532
 20
311.7582561242471
 30
0.0
 40
1.5
1001
PHOENIX7010
1002
{
1070
    62
1070
     7
1070
    41
1040
1.0
1002
}
  0
CIRCLE
  5
82F
102
{ACAD_REACTORS
330
C80
102
}
330
1A
100
AcDbEntity
  8
HAUPTEBENE
  6
Continuous
 62
     7
100
AcDbCircle
 10
234.6042126822532
 20
316.7582561242471
 30
0.0
 40
2.0
1001
PHOENIX7010
1002
{
1070
    62
1070
     7
1070
    41
1040
1.0
1002
}
  0
CIRCLE
  5
830
102
{ACAD_REACTORS
330
C80
102
}
330
1A
100
AcDbEntity
  8
HAUPTEBENE
  6
Continuous
 62
     7
100
AcDbCircle
 10
234.6042126822532
 20
321.758256124247
 30
0.0
 40
1.5
1001
PHOENIX7010
1002
{
1070
    62
1070
     7
1070
    41
1040
1.0
1002
}
  0
CIRCLE
  5
833
102
{ACAD_REACTORS
330
C81
102
}
330
1A
100
AcDbEntity
  8
HAUPTEBENE
  6
Continuous
 62
     7
100
AcDbCircle
 10
234.6042126822532
 20
326.7582561242471
 30
0.0
 40
2.0
1001
PHOENIX7010
1002
{
1070
    62
1070
     7
1070
    41
1040
1.0
1002
}
  0
CIRCLE
  5
834
102
{ACAD_REACTORS
330
C81
102
}
330
1A
100
AcDbEntity
  8
HAUPTEBENE
  6
Continuous
 62
     7
100
AcDbCircle
 10
234.6042126822532
 20
331.758256124247
 30
0.0
 40
1.5
1001
PHOENIX7010
1002
{
1070
    62
1070
     7
1070
    41
1040
1.0
1002
}
  0
CIRCLE
  5
837
102
{ACAD_REACTORS
330
C82
102
}
330
1A
100
AcDbEntity
  8
HAUPTEBENE
  6
Continuous
 62
     7
100
AcDbCircle
 10
234.6042126822532
 20
336.7582561242471
 30
0.0
 40
2.0
1001
PHOENIX7010
1002
{
1070
    62
1070
     7
1070
    41
1040
1.0
1002
}
  0
CIRCLE
  5
838
102
{ACAD_REACTORS
330
C82
102
}
330
1A
100
AcDbEntity
  8
HAUPTEBENE
  6
Continuous
 62
     7
100
AcDbCircle
 10
234.6042126822532
 20
341.7582561242471
 30
0.0
 40
1.5
1001
PHOENIX7010
1002
{
1070
    62
1070
     7
1070
    41
1040
1.0
1002
}
  0
CIRCLE
  5
83B
102
{ACAD_REACTORS
330
C83
102
}
330
1A
100
AcDbEntity
  8
HAUPTEBENE
  6
Continuous
 62
     7
100
AcDbCircle
 10
234.6042126822532
 20
346.758256124247
 30
0.0
 40
2.0
1001
PHOENIX7010
1002
{
1070
    62
1070
     7
1070
    41
1040
1.0
1002
}
  0
CIRCLE
  5
83C
102
{ACAD_REACTORS
330
C83
102
}
330
1A
100
AcDbEntity
  8
HAUPTEBENE
  6
Continuous
 62
     7
100
AcDbCircle
 10
234.6042126822532
 20
351.7582561242471
 30
0.0
 40
1.5
1001
PHOENIX7010
1002
{
1070
    62
1070
     7
1070
    41
1040
1.0
1002
}
  0
CIRCLE
  5
841
102
{ACAD_REACTORS
330
C85
102
}
330
1A
100
AcDbEntity
  8
HAUPTEBENE
  6
Continuous
 62
     7
100
AcDbCircle
 10
223.7541760622532
 20
196.758286644247
 30
0.0
 40
2.0
1001
PHOENIX7010
1002
{
1070
    62
1070
     7
1070
    41
1040
1.0
1002
}
  0
CIRCLE
  5
842
102
{ACAD_REACTORS
330
C85
102
}
330
1A
100
AcDbEntity
  8
HAUPTEBENE
  6
Continuous
 62
     7
100
AcDbCircle
 10
223.7541760622532
 20
201.758286644247
 30
0.0
 40
1.5
1001
PHOENIX7010
1002
{
1070
    62
1070
     7
1070
    41
1040
1.0
1002
}
  0
CIRCLE
  5
845
102
{ACAD_REACTORS
330
C86
102
}
330
1A
100
AcDbEntity
  8
HAUPTEBENE
  6
Continuous
 62
     7
100
AcDbCircle
 10
223.7541760622532
 20
206.758286644247
 30
0.0
 40
2.0
1001
PHOENIX7010
1002
{
1070
    62
1070
     7
1070
    41
1040
1.0
1002
}
  0
CIRCLE
  5
846
102
{ACAD_REACTORS
330
C86
102
}
330
1A
100
AcDbEntity
  8
HAUPTEBENE
  6
Continuous
 62
     7
100
AcDbCircle
 10
223.7541760622532
 20
211.758256124247
 30
0.0
 40
1.5
1001
PHOENIX7010
1002
{
1070
    62
1070
     7
1070
    41
1040
1.0
1002
}
  0
CIRCLE
  5
849
102
{ACAD_REACTORS
330
C87
102
}
330
1A
100
AcDbEntity
  8
HAUPTEBENE
  6
Continuous
 62
     7
100
AcDbCircle
 10
223.7541760622532
 20
216.758256124247
 30
0.0
 40
2.0
1001
PHOENIX7010
1002
{
1070
    62
1070
     7
1070
    41
1040
1.0
1002
}
  0
CIRCLE
  5
84A
102
{ACAD_REACTORS
330
C87
102
}
330
1A
100
AcDbEntity
  8
HAUPTEBENE
  6
Continuous
 62
     7
100
AcDbCircle
 10
223.7541760622532
 20
221.758256124247
 30
0.0
 40
1.5
1001
PHOENIX7010
1002
{
1070
    62
1070
     7
1070
    41
1040
1.0
1002
}
  0
CIRCLE
  5
84D
102
{ACAD_REACTORS
330
C88
102
}
330
1A
100
AcDbEntity
  8
HAUPTEBENE
  6
Continuous
 62
     7
100
AcDbCircle
 10
223.7541760622532
 20
226.758256124247
 30
0.0
 40
2.0
1001
PHOENIX7010
1002
{
1070
    62
1070
     7
1070
    41
1040
1.0
1002
}
  0
CIRCLE
  5
84E
102
{ACAD_REACTORS
330
C88
102
}
330
1A
100
AcDbEntity
  8
HAUPTEBENE
  6
Continuous
 62
     7
100
AcDbCircle
 10
223.7541760622532
 20
231.758256124247
 30
0.0
 40
1.5
1001
PHOENIX7010
1002
{
1070
    62
1070
     7
1070
    41
1040
1.0
1002
}
  0
CIRCLE
  5
851
102
{ACAD_REACTORS
330
C89
102
}
330
1A
100
AcDbEntity
  8
HAUPTEBENE
  6
Continuous
 62
     7
100
AcDbCircle
 10
223.7541760622532
 20
236.758256124247
 30
0.0
 40
2.0
1001
PHOENIX7010
1002
{
1070
    62
1070
     7
1070
    41
1040
1.0
1002
}
  0
CIRCLE
  5
852
102
{ACAD_REACTORS
330
C89
102
}
330
1A
100
AcDbEntity
  8
HAUPTEBENE
  6
Continuous
 62
     7
100
AcDbCircle
 10
223.7541760622532
 20
241.758256124247
 30
0.0
 40
1.5
1001
PHOENIX7010
1002
{
1070
    62
1070
     7
1070
    41
1040
1.0
1002
}
  0
CIRCLE
  5
855
102
{ACAD_REACTORS
330
C8A
102
}
330
1A
100
AcDbEntity
  8
HAUPTEBENE
  6
Continuous
 62
     7
100
AcDbCircle
 10
223.7541760622532
 20
246.758256124247
 30
0.0
 40
2.0
1001
PHOENIX7010
1002
{
1070
    62
1070
     7
1070
    41
1040
1.0
1002
}
  0
CIRCLE
  5
856
102
{ACAD_REACTORS
330
C8A
102
}
330
1A
100
AcDbEntity
  8
HAUPTEBENE
  6
Continuous
 62
     7
100
AcDbCircle
 10
223.7541760622532
 20
251.758256124247
 30
0.0
 40
1.5
1001
PHOENIX7010
1002
{
1070
    62
1070
     7
1070
    41
1040
1.0
1002
}
  0
CIRCLE
  5
859
102
{ACAD_REACTORS
330
C8B
102
}
330
1A
100
AcDbEntity
  8
HAUPTEBENE
  6
Continuous
 62
     7
100
AcDbCircle
 10
223.7541760622532
 20
256.758256124247
 30
0.0
 40
2.0
1001
PHOENIX7010
1002
{
1070
    62
1070
     7
1070
    41
1040
1.0
1002
}
  0
CIRCLE
  5
85A
102
{ACAD_REACTORS
330
C8B
102
}
330
1A
100
AcDbEntity
  8
HAUPTEBENE
  6
Continuous
 62
     7
100
AcDbCircle
 10
223.7541760622532
 20
261.7582561242471
 30
0.0
 40
1.5
1001
PHOENIX7010
1002
{
1070
    62
1070
     7
1070
    41
1040
1.0
1002
}
  0
CIRCLE
  5
85D
102
{ACAD_REACTORS
330
C8C
102
}
330
1A
100
AcDbEntity
  8
HAUPTEBENE
  6
Continuous
 62
     7
100
AcDbCircle
 10
223.7541760622532
 20
266.7582561242471
 30
0.0
 40
2.0
1001
PHOENIX7010
1002
{
1070
    62
1070
     7
1070
    41
1040
1.0
1002
}
  0
CIRCLE
  5
85E
102
{ACAD_REACTORS
330
C8C
102
}
330
1A
100
AcDbEntity
  8
HAUPTEBENE
  6
Continuous
 62
     7
100
AcDbCircle
 10
223.7541760622532
 20
271.758256124247
 30
0.0
 40
1.5
1001
PHOENIX7010
1002
{
1070
    62
1070
     7
1070
    41
1040
1.0
1002
}
  0
CIRCLE
  5
861
102
{ACAD_REACTORS
330
C8D
102
}
330
1A
100
AcDbEntity
  8
HAUPTEBENE
  6
Continuous
 62
     7
100
AcDbCircle
 10
223.7541760622532
 20
276.7582561242471
 30
0.0
 40
2.0
1001
PHOENIX7010
1002
{
1070
    62
1070
     7
1070
    41
1040
1.0
1002
}
  0
CIRCLE
  5
862
102
{ACAD_REACTORS
330
C8D
102
}
330
1A
100
AcDbEntity
  8
HAUPTEBENE
  6
Continuous
 62
     7
100
AcDbCircle
 10
223.7541760622532
 20
281.758256124247
 30
0.0
 40
1.5
1001
PHOENIX7010
1002
{
1070
    62
1070
     7
1070
    41
1040
1.0
1002
}
  0
CIRCLE
  5
865
102
{ACAD_REACTORS
330
C8E
102
}
330
1A
100
AcDbEntity
  8
HAUPTEBENE
  6
Continuous
 62
     7
100
AcDbCircle
 10
223.7541760622532
 20
286.7582561242471
 30
0.0
 40
2.0
1001
PHOENIX7010
1002
{
1070
    62
1070
     7
1070
    41
1040
1.0
1002
}
  0
CIRCLE
  5
866
102
{ACAD_REACTORS
330
C8E
102
}
330
1A
100
AcDbEntity
  8
HAUPTEBENE
  6
Continuous
 62
     7
100
AcDbCircle
 10
223.7541760622532
 20
291.758256124247
 30
0.0
 40
1.5
1001
PHOENIX7010
1002
{
1070
    62
1070
     7
1070
    41
1040
1.0
1002
}
  0
CIRCLE
  5
869
102
{ACAD_REACTORS
330
C8F
102
}
330
1A
100
AcDbEntity
  8
HAUPTEBENE
  6
Continuous
 62
     7
100
AcDbCircle
 10
223.7541760622532
 20
296.758256124247
 30
0.0
 40
2.0
1001
PHOENIX7010
1002
{
1070
    62
1070
     7
1070
    41
1040
1.0
1002
}
  0
CIRCLE
  5
86A
102
{ACAD_REACTORS
330
C8F
102
}
330
1A
100
AcDbEntity
  8
HAUPTEBENE
  6
Continuous
 62
     7
100
AcDbCircle
 10
223.7541760622532
 20
301.7582561242471
 30
0.0
 40
1.5
1001
PHOENIX7010
1002
{
1070
    62
1070
     7
1070
    41
1040
1.0
1002
}
  0
CIRCLE
  5
86D
102
{ACAD_REACTORS
330
C90
102
}
330
1A
100
AcDbEntity
  8
HAUPTEBENE
  6
Continuous
 62
     7
100
AcDbCircle
 10
223.7541760622532
 20
306.758256124247
 30
0.0
 40
2.0
1001
PHOENIX7010
1002
{
1070
    62
1070
     7
1070
    41
1040
1.0
1002
}
  0
CIRCLE
  5
86E
102
{ACAD_REACTORS
330
C90
102
}
330
1A
100
AcDbEntity
  8
HAUPTEBENE
  6
Continuous
 62
     7
100
AcDbCircle
 10
223.7541760622532
 20
311.7582561242471
 30
0.0
 40
1.5
1001
PHOENIX7010
1002
{
1070
    62
1070
     7
1070
    41
1040
1.0
1002
}
  0
CIRCLE
  5
871
102
{ACAD_REACTORS
330
C91
102
}
330
1A
100
AcDbEntity
  8
HAUPTEBENE
  6
Continuous
 62
     7
100
AcDbCircle
 10
223.7541760622532
 20
316.7582561242471
 30
0.0
 40
2.0
1001
PHOENIX7010
1002
{
1070
    62
1070
     7
1070
    41
1040
1.0
1002
}
  0
CIRCLE
  5
872
102
{ACAD_REACTORS
330
C91
102
}
330
1A
100
AcDbEntity
  8
HAUPTEBENE
  6
Continuous
 62
     7
100
AcDbCircle
 10
223.7541760622532
 20
321.758256124247
 30
0.0
 40
1.5
1001
PHOENIX7010
1002
{
1070
    62
1070
     7
1070
    41
1040
1.0
1002
}
  0
CIRCLE
  5
875
102
{ACAD_REACTORS
330
C92
102
}
330
1A
100
AcDbEntity
  8
HAUPTEBENE
  6
Continuous
 62
     7
100
AcDbCircle
 10
223.7541760622532
 20
326.7582561242471
 30
0.0
 40
2.0
1001
PHOENIX7010
1002
{
1070
    62
1070
     7
1070
    41
1040
1.0
1002
}
  0
CIRCLE
  5
876
102
{ACAD_REACTORS
330
C92
102
}
330
1A
100
AcDbEntity
  8
HAUPTEBENE
  6
Continuous
 62
     7
100
AcDbCircle
 10
223.7541760622532
 20
331.758256124247
 30
0.0
 40
1.5
1001
PHOENIX7010
1002
{
1070
    62
1070
     7
1070
    41
1040
1.0
1002
}
  0
CIRCLE
  5
879
102
{ACAD_REACTORS
330
C93
102
}
330
1A
100
AcDbEntity
  8
HAUPTEBENE
  6
Continuous
 62
     7
100
AcDbCircle
 10
223.7541760622532
 20
336.7582561242471
 30
0.0
 40
2.0
1001
PHOENIX7010
1002
{
1070
    62
1070
     7
1070
    41
1040
1.0
1002
}
  0
CIRCLE
  5
87A
102
{ACAD_REACTORS
330
C93
102
}
330
1A
100
AcDbEntity
  8
HAUPTEBENE
  6
Continuous
 62
     7
100
AcDbCircle
 10
223.7541760622532
 20
341.7582561242471
 30
0.0
 40
1.5
1001
PHOENIX7010
1002
{
1070
    62
1070
     7
1070
    41
1040
1.0
1002
}
  0
CIRCLE
  5
87D
102
{ACAD_REACTORS
330
C94
102
}
330
1A
100
AcDbEntity
  8
HAUPTEBENE
  6
Continuous
 62
     7
100
AcDbCircle
 10
223.7541760622532
 20
346.758256124247
 30
0.0
 40
2.0
1001
PHOENIX7010
1002
{
1070
    62
1070
     7
1070
    41
1040
1.0
1002
}
  0
CIRCLE
  5
87E
102
{ACAD_REACTORS
330
C94
102
}
330
1A
100
AcDbEntity
  8
HAUPTEBENE
  6
Continuous
 62
     7
100
AcDbCircle
 10
223.7541760622532
 20
351.7582561242471
 30
0.0
 40
1.5
1001
PHOENIX7010
1002
{
1070
    62
1070
     7
1070
    41
1040
1.0
1002
}
  0
CIRCLE
  5
883
102
{ACAD_REACTORS
330
C96
102
}
330
1A
100
AcDbEntity
  8
HAUPTEBENE
  6
Continuous
 62
     7
100
AcDbCircle
 10
101.2541760622531
 20
196.758286644247
 30
0.0
 40
2.0
1001
PHOENIX7010
1002
{
1070
    62
1070
     7
1070
    41
1040
1.0
1002
}
  0
CIRCLE
  5
884
102
{ACAD_REACTORS
330
C96
102
}
330
1A
100
AcDbEntity
  8
HAUPTEBENE
  6
Continuous
 62
     7
100
AcDbCircle
 10
101.2541760622531
 20
201.7582866442471
 30
0.0
 40
1.5
1001
PHOENIX7010
1002
{
1070
    62
1070
     7
1070
    41
1040
1.0
1002
}
  0
CIRCLE
  5
887
102
{ACAD_REACTORS
330
C97
102
}
330
1A
100
AcDbEntity
  8
HAUPTEBENE
  6
Continuous
 62
     7
100
AcDbCircle
 10
101.2541760622531
 20
206.758286644247
 30
0.0
 40
2.0
1001
PHOENIX7010
1002
{
1070
    62
1070
     7
1070
    41
1040
1.0
1002
}
  0
CIRCLE
  5
888
102
{ACAD_REACTORS
330
C97
102
}
330
1A
100
AcDbEntity
  8
HAUPTEBENE
  6
Continuous
 62
     7
100
AcDbCircle
 10
101.2541760622531
 20
211.7582866442471
 30
0.0
 40
1.5
1001
PHOENIX7010
1002
{
1070
    62
1070
     7
1070
    41
1040
1.0
1002
}
  0
CIRCLE
  5
88B
102
{ACAD_REACTORS
330
C98
102
}
330
1A
100
AcDbEntity
  8
HAUPTEBENE
  6
Continuous
 62
     7
100
AcDbCircle
 10
101.2541760622531
 20
216.7582866442471
 30
0.0
 40
2.0
1001
PHOENIX7010
1002
{
1070
    62
1070
     7
1070
    41
1040
1.0
1002
}
  0
CIRCLE
  5
88C
102
{ACAD_REACTORS
330
C98
102
}
330
1A
100
AcDbEntity
  8
HAUPTEBENE
  6
Continuous
 62
     7
100
AcDbCircle
 10
101.2541760622531
 20
221.758286644247
 30
0.0
 40
1.5
1001
PHOENIX7010
1002
{
1070
    62
1070
     7
1070
    41
1040
1.0
1002
}
  0
CIRCLE
  5
88F
102
{ACAD_REACTORS
330
C99
102
}
330
1A
100
AcDbEntity
  8
HAUPTEBENE
  6
Continuous
 62
     7
100
AcDbCircle
 10
101.2541760622531
 20
226.7582866442471
 30
0.0
 40
2.0
1001
PHOENIX7010
1002
{
1070
    62
1070
     7
1070
    41
1040
1.0
1002
}
  0
CIRCLE
  5
890
102
{ACAD_REACTORS
330
C99
102
}
330
1A
100
AcDbEntity
  8
HAUPTEBENE
  6
Continuous
 62
     7
100
AcDbCircle
 10
101.2541760622531
 20
231.758286644247
 30
0.0
 40
1.5
1001
PHOENIX7010
1002
{
1070
    62
1070
     7
1070
    41
1040
1.0
1002
}
  0
CIRCLE
  5
893
102
{ACAD_REACTORS
330
C9A
102
}
330
1A
100
AcDbEntity
  8
HAUPTEBENE
  6
Continuous
 62
     7
100
AcDbCircle
 10
101.2541760622531
 20
236.7582866442471
 30
0.0
 40
2.0
1001
PHOENIX7010
1002
{
1070
    62
1070
     7
1070
    41
1040
1.0
1002
}
  0
CIRCLE
  5
894
102
{ACAD_REACTORS
330
C9A
102
}
330
1A
100
AcDbEntity
  8
HAUPTEBENE
  6
Continuous
 62
     7
100
AcDbCircle
 10
101.2541760622531
 20
241.7582561242471
 30
0.0
 40
1.5
1001
PHOENIX7010
1002
{
1070
    62
1070
     7
1070
    41
1040
1.0
1002
}
  0
CIRCLE
  5
897
102
{ACAD_REACTORS
330
C9B
102
}
330
1A
100
AcDbEntity
  8
HAUPTEBENE
  6
Continuous
 62
     7
100
AcDbCircle
 10
101.2541760622531
 20
246.758256124247
 30
0.0
 40
2.0
1001
PHOENIX7010
1002
{
1070
    62
1070
     7
1070
    41
1040
1.0
1002
}
  0
CIRCLE
  5
898
102
{ACAD_REACTORS
330
C9B
102
}
330
1A
100
AcDbEntity
  8
HAUPTEBENE
  6
Continuous
 62
     7
100
AcDbCircle
 10
101.2541760622531
 20
251.7582561242471
 30
0.0
 40
1.5
1001
PHOENIX7010
1002
{
1070
    62
1070
     7
1070
    41
1040
1.0
1002
}
  0
CIRCLE
  5
89B
102
{ACAD_REACTORS
330
C9C
102
}
330
1A
100
AcDbEntity
  8
HAUPTEBENE
  6
Continuous
 62
     7
100
AcDbCircle
 10
101.2541760622531
 20
256.758256124247
 30
0.0
 40
2.0
1001
PHOENIX7010
1002
{
1070
    62
1070
     7
1070
    41
1040
1.0
1002
}
  0
CIRCLE
  5
89C
102
{ACAD_REACTORS
330
C9C
102
}
330
1A
100
AcDbEntity
  8
HAUPTEBENE
  6
Continuous
 62
     7
100
AcDbCircle
 10
101.2541760622532
 20
261.7582561242471
 30
0.0
 40
1.5
1001
PHOENIX7010
1002
{
1070
    62
1070
     7
1070
    41
1040
1.0
1002
}
  0
CIRCLE
  5
89F
102
{ACAD_REACTORS
330
C9D
102
}
330
1A
100
AcDbEntity
  8
HAUPTEBENE
  6
Continuous
 62
     7
100
AcDbCircle
 10
101.2541760622532
 20
266.7582561242471
 30
0.0
 40
2.0
1001
PHOENIX7010
1002
{
1070
    62
1070
     7
1070
    41
1040
1.0
1002
}
  0
CIRCLE
  5
8A0
102
{ACAD_REACTORS
330
C9D
102
}
330
1A
100
AcDbEntity
  8
HAUPTEBENE
  6
Continuous
 62
     7
100
AcDbCircle
 10
101.2541760622532
 20
271.758256124247
 30
0.0
 40
1.5
1001
PHOENIX7010
1002
{
1070
    62
1070
     7
1070
    41
1040
1.0
1002
}
  0
CIRCLE
  5
8A3
102
{ACAD_REACTORS
330
C9E
102
}
330
1A
100
AcDbEntity
  8
HAUPTEBENE
  6
Continuous
 62
     7
100
AcDbCircle
 10
101.2541760622532
 20
276.7582561242471
 30
0.0
 40
2.0
1001
PHOENIX7010
1002
{
1070
    62
1070
     7
1070
    41
1040
1.0
1002
}
  0
CIRCLE
  5
8A4
102
{ACAD_REACTORS
330
C9E
102
}
330
1A
100
AcDbEntity
  8
HAUPTEBENE
  6
Continuous
 62
     7
100
AcDbCircle
 10
101.2541760622532
 20
281.758256124247
 30
0.0
 40
1.5
1001
PHOENIX7010
1002
{
1070
    62
1070
     7
1070
    41
1040
1.0
1002
}
  0
CIRCLE
  5
8A7
102
{ACAD_REACTORS
330
C9F
102
}
330
1A
100
AcDbEntity
  8
HAUPTEBENE
  6
Continuous
 62
     7
100
AcDbCircle
 10
101.2541760622532
 20
286.7582561242471
 30
0.0
 40
2.0
1001
PHOENIX7010
1002
{
1070
    62
1070
     7
1070
    41
1040
1.0
1002
}
  0
CIRCLE
  5
8A8
102
{ACAD_REACTORS
330
C9F
102
}
330
1A
100
AcDbEntity
  8
HAUPTEBENE
  6
Continuous
 62
     7
100
AcDbCircle
 10
101.2541760622532
 20
291.758256124247
 30
0.0
 40
1.5
1001
PHOENIX7010
1002
{
1070
    62
1070
     7
1070
    41
1040
1.0
1002
}
  0
CIRCLE
  5
8AB
102
{ACAD_REACTORS
330
CA0
102
}
330
1A
100
AcDbEntity
  8
HAUPTEBENE
  6
Continuous
 62
     7
100
AcDbCircle
 10
101.2541760622532
 20
296.758256124247
 30
0.0
 40
2.0
1001
PHOENIX7010
1002
{
1070
    62
1070
     7
1070
    41
1040
1.0
1002
}
  0
CIRCLE
  5
8AC
102
{ACAD_REACTORS
330
CA0
102
}
330
1A
100
AcDbEntity
  8
HAUPTEBENE
  6
Continuous
 62
     7
100
AcDbCircle
 10
101.2541760622532
 20
301.7582561242471
 30
0.0
 40
1.5
1001
PHOENIX7010
1002
{
1070
    62
1070
     7
1070
    41
1040
1.0
1002
}
  0
CIRCLE
  5
8AF
102
{ACAD_REACTORS
330
CA1
102
}
330
1A
100
AcDbEntity
  8
HAUPTEBENE
  6
Continuous
 62
     7
100
AcDbCircle
 10
101.2541760622532
 20
306.758256124247
 30
0.0
 40
2.0
1001
PHOENIX7010
1002
{
1070
    62
1070
     7
1070
    41
1040
1.0
1002
}
  0
CIRCLE
  5
8B0
102
{ACAD_REACTORS
330
CA1
102
}
330
1A
100
AcDbEntity
  8
HAUPTEBENE
  6
Continuous
 62
     7
100
AcDbCircle
 10
101.2541760622532
 20
311.7582561242471
 30
0.0
 40
1.5
1001
PHOENIX7010
1002
{
1070
    62
1070
     7
1070
    41
1040
1.0
1002
}
  0
CIRCLE
  5
8B3
102
{ACAD_REACTORS
330
CA2
102
}
330
1A
100
AcDbEntity
  8
HAUPTEBENE
  6
Continuous
 62
     7
100
AcDbCircle
 10
101.2541760622532
 20
316.7582561242471
 30
0.0
 40
2.0
1001
PHOENIX7010
1002
{
1070
    62
1070
     7
1070
    41
1040
1.0
1002
}
  0
CIRCLE
  5
8B4
102
{ACAD_REACTORS
330
CA2
102
}
330
1A
100
AcDbEntity
  8
HAUPTEBENE
  6
Continuous
 62
     7
100
AcDbCircle
 10
101.2541760622532
 20
321.758256124247
 30
0.0
 40
1.5
1001
PHOENIX7010
1002
{
1070
    62
1070
     7
1070
    41
1040
1.0
1002
}
  0
CIRCLE
  5
8B7
102
{ACAD_REACTORS
330
CA3
102
}
330
1A
100
AcDbEntity
  8
HAUPTEBENE
  6
Continuous
 62
     7
100
AcDbCircle
 10
101.2541760622532
 20
326.7582561242471
 30
0.0
 40
2.0
1001
PHOENIX7010
1002
{
1070
    62
1070
     7
1070
    41
1040
1.0
1002
}
  0
CIRCLE
  5
8B8
102
{ACAD_REACTORS
330
CA3
102
}
330
1A
100
AcDbEntity
  8
HAUPTEBENE
  6
Continuous
 62
     7
100
AcDbCircle
 10
101.2541760622532
 20
331.758256124247
 30
0.0
 40
1.5
1001
PHOENIX7010
1002
{
1070
    62
1070
     7
1070
    41
1040
1.0
1002
}
  0
CIRCLE
  5
8BB
102
{ACAD_REACTORS
330
CA4
102
}
330
1A
100
AcDbEntity
  8
HAUPTEBENE
  6
Continuous
 62
     7
100
AcDbCircle
 10
101.2541760622532
 20
336.7582561242471
 30
0.0
 40
2.0
1001
PHOENIX7010
1002
{
1070
    62
1070
     7
1070
    41
1040
1.0
1002
}
  0
CIRCLE
  5
8BC
102
{ACAD_REACTORS
330
CA4
102
}
330
1A
100
AcDbEntity
  8
HAUPTEBENE
  6
Continuous
 62
     7
100
AcDbCircle
 10
101.2541760622532
 20
341.7582561242471
 30
0.0
 40
1.5
1001
PHOENIX7010
1002
{
1070
    62
1070
     7
1070
    41
1040
1.0
1002
}
  0
CIRCLE
  5
8BF
102
{ACAD_REACTORS
330
CA5
102
}
330
1A
100
AcDbEntity
  8
HAUPTEBENE
  6
Continuous
 62
     7
100
AcDbCircle
 10
101.2541760622532
 20
346.758256124247
 30
0.0
 40
2.0
1001
PHOENIX7010
1002
{
1070
    62
1070
     7
1070
    41
1040
1.0
1002
}
  0
CIRCLE
  5
8C0
102
{ACAD_REACTORS
330
CA5
102
}
330
1A
100
AcDbEntity
  8
HAUPTEBENE
  6
Continuous
 62
     7
100
AcDbCircle
 10
101.2541760622532
 20
351.7582561242471
 30
0.0
 40
1.5
1001
PHOENIX7010
1002
{
1070
    62
1070
     7
1070
    41
1040
1.0
1002
}
  0
LINE
  5
8C1
102
{ACAD_REACTORS
330
CA8
102
}
330
1A
100
AcDbEntity
  8
HAUPTEBENE
  6
ACAD_ISO04W100
 62
     1
100
AcDbLine
 10
295.8541821722533
 20
356.258256124247
 30
0.0
 11
295.8541821722532
 21
185.638291524247
 31
0.0
1001
PHOENIX7010
1002
{
1070
    62
1070
     1
1070
    41
1040
1.0
1002
}
  0
LINE
  5
8C2
102
{ACAD_REACTORS
330
CA8
102
}
330
1A
100
AcDbEntity
  8
HAUPTEBENE
  6
ACAD_ISO04W100
 62
     1
100
AcDbLine
 10
357.1041821722533
 20
356.258256124247
 30
0.0
 11
357.1041821722532
 21
185.638291524247
 31
0.0
1001
PHOENIX7010
1002
{
1070
    62
1070
     1
1070
    41
1040
1.0
1002
}
  0
LINE
  5
8C3
102
{ACAD_REACTORS
330
CA8
102
}
330
1A
100
AcDbEntity
  8
HAUPTEBENE
  6
ACAD_ISO04W100
 62
     1
100
AcDbLine
 10
234.6042126822532
 20
356.2582561242471
 30
0.0
 11
234.6042126822532
 21
185.638291524247
 31
0.0
1001
PHOENIX7010
1002
{
1070
    62
1070
     1
1070
    41
1040
1.0
1002
}
  0
LINE
  5
8C6
102
{ACAD_REACTORS
330
CA7
102
}
330
1A
100
AcDbEntity
  8
HAUPTEBENE
  6
Continuous
 62
     7
100
AcDbLine
 10
361.3541821722533
 20
354.258256124247
 30
0.0
 11
361.3541821722532
 21
187.638291524247
 31
0.0
1001
PHOENIX7010
1002
{
1070
    62
1070
     7
1070
    41
1040
1.0
1002
}
  0
LINE
  5
8C7
102
{ACAD_REACTORS
330
CA7
102
}
330
1A
100
AcDbEntity
  8
HAUPTEBENE
  6
ACAD_ISO04W100
 62
     1
100
AcDbLine
 10
332.7541455422532
 20
194.638291524247
 30
0.0
 11
258.9541882722532
 21
194.638291524247
 31
0.0
1001
PHOENIX7010
1002
{
1070
    62
1070
     1
1070
    41
1040
1.0
1002
}
  0
CIRCLE
  5
8C8
102
{ACAD_REACTORS
330
CA7
102
}
330
1A
100
AcDbEntity
  8
HAUPTEBENE
  6
Continuous
 62
     7
100
AcDbCircle
 10
267.2541760622532
 20
194.638291524247
 30
0.0
 40
4.29999924
1001
PHOENIX7010
1002
{
1070
    62
1070
     7
1070
    41
1040
1.0
1002
}
  0
CIRCLE
  5
8C9
102
{ACAD_REACTORS
330
CA7
102
}
330
1A
100
AcDbEntity
  8
HAUPTEBENE
  6
Continuous
 62
     7
100
AcDbCircle
 10
267.2541760622532
 20
194.638291524247
 30
0.0
 40
2.299999709999999
1001
PHOENIX7010
1002
{
1070
    62
1070
     7
1070
    41
1040
1.0
1002
}
  0
CIRCLE
  5
8CA
102
{ACAD_REACTORS
330
CA7
102
}
330
1A
100
AcDbEntity
  8
HAUPTEBENE
  6
Continuous
 62
     7
100
AcDbCircle
 10
324.4541577522533
 20
194.638291524247
 30
0.0
 40
4.29999924
1001
PHOENIX7010
1002
{
1070
    62
1070
     7
1070
    41
1040
1.0
1002
}
  0
CIRCLE
  5
8CB
102
{ACAD_REACTORS
330
CA7
102
}
330
1A
100
AcDbEntity
  8
HAUPTEBENE
  6
Continuous
 62
     7
100
AcDbCircle
 10
324.4541577522533
 20
194.638291524247
 30
0.0
 40
2.299999709999999
1001
PHOENIX7010
1002
{
1070
    62
1070
     7
1070
    41
1040
1.0
1002
}
  0
LINE
  5
8CC
102
{ACAD_REACTORS
330
CA7
102
}
330
1A
100
AcDbEntity
  8
HAUPTEBENE
  6
ACAD_ISO04W100
 62
     1
100
AcDbLine
 10
324.4541577522533
 20
202.938279314247
 30
0.0
 11
324.4541577522532
 21
186.338303734247
 31
0.0
1001
PHOENIX7010
1002
{
1070
    62
1070
     1
1070
    41
1040
1.0
1002
}
  0
LINE
  5
8CD
102
{ACAD_REACTORS
330
CA7
102
}
330
1A
100
AcDbEntity
  8
HAUPTEBENE
  6
ACAD_ISO04W100
 62
     1
100
AcDbLine
 10
267.2541760622532
 20
202.938279314247
 30
0.0
 11
267.2541760622532
 21
186.338303734247
 31
0.0
1001
PHOENIX7010
1002
{
1070
    62
1070
     1
1070
    41
1040
1.0
1002
}
  0
LINE
  5
8CE
102
{ACAD_REACTORS
330
CA7
102
}
330
1A
100
AcDbEntity
  8
HAUPTEBENE
  6
ACAD_ISO04W100
 62
     1
100
AcDbLine
 10
199.4041394422532
 20
194.638291524247
 30
0.0
 11
125.6041516522531
 21
194.638291524247
 31
0.0
1001
PHOENIX7010
1002
{
1070
    62
1070
     1
1070
    41
1040
1.0
1002
}
  0
CIRCLE
  5
8CF
102
{ACAD_REACTORS
330
CA7
102
}
330
1A
100
AcDbEntity
  8
HAUPTEBENE
  6
Continuous
 62
     7
100
AcDbCircle
 10
133.9041394422532
 20
194.638291524247
 30
0.0
 40
4.29999924
1001
PHOENIX7010
1002
{
1070
    62
1070
     7
1070
    41
1040
1.0
1002
}
  0
CIRCLE
  5
8D0
102
{ACAD_REACTORS
330
CA7
102
}
330
1A
100
AcDbEntity
  8
HAUPTEBENE
  6
Continuous
 62
     7
100
AcDbCircle
 10
133.9041394422532
 20
194.638291524247
 30
0.0
 40
2.299999709999999
1001
PHOENIX7010
1002
{
1070
    62
1070
     7
1070
    41
1040
1.0
1002
}
  0
CIRCLE
  5
8D1
102
{ACAD_REACTORS
330
CA7
102
}
330
1A
100
AcDbEntity
  8
HAUPTEBENE
  6
Continuous
 62
     7
100
AcDbCircle
 10
191.1041516522531
 20
194.638291524247
 30
0.0
 40
4.29999924
1001
PHOENIX7010
1002
{
1070
    62
1070
     7
1070
    41
1040
1.0
1002
}
  0
CIRCLE
  5
8D2
102
{ACAD_REACTORS
330
CA7
102
}
330
1A
100
AcDbEntity
  8
HAUPTEBENE
  6
Continuous
 62
     7
100
AcDbCircle
 10
191.1041516522531
 20
194.638291524247
 30
0.0
 40
2.299999709999999
1001
PHOENIX7010
1002
{
1070
    62
1070
     7
1070
    41
1040
1.0
1002
}
  0
LINE
  5
8D3
102
{ACAD_REACTORS
330
CA7
102
}
330
1A
100
AcDbEntity
  8
HAUPTEBENE
  6
ACAD_ISO04W100
 62
     1
100
AcDbLine
 10
191.1041516522531
 20
202.938279314247
 30
0.0
 11
191.1041516522531
 21
186.338303734247
 31
0.0
1001
PHOENIX7010
1002
{
1070
    62
1070
     1
1070
    41
1040
1.0
1002
}
  0
LINE
  5
8D4
102
{ACAD_REACTORS
330
CA7
102
}
330
1A
100
AcDbEntity
  8
HAUPTEBENE
  6
ACAD_ISO04W100
 62
     1
100
AcDbLine
 10
133.9041394422532
 20
202.938279314247
 30
0.0
 11
133.9041394422532
 21
186.338303734247
 31
0.0
1001
PHOENIX7010
1002
{
1070
    62
1070
     1
1070
    41
1040
1.0
1002
}
  0
LINE
  5
8D5
102
{ACAD_REACTORS
330
CA7
102
}
330
1A
100
AcDbEntity
  8
HAUPTEBENE
  6
Continuous
 62
     7
100
AcDbLine
 10
97.00417606225318
 20
187.638291524247
 30
0.0
 11
97.00417606225324
 21
354.2582561242471
 31
0.0
1001
PHOENIX7010
1002
{
1070
    62
1070
     7
1070
    41
1040
1.0
1002
}
  0
LINE
  5
8D6
102
{ACAD_REACTORS
330
CA7
102
}
330
1A
100
AcDbEntity
  8
HAUPTEBENE
  6
Continuous
 62
     7
100
AcDbLine
 10
361.3541821722533
 20
354.258256124247
 30
0.0
 11
97.00417606225324
 21
354.2582561242471
 31
0.0
1001
PHOENIX7010
1002
{
1070
    62
1070
     7
1070
    41
1040
1.0
1002
}
  0
LINE
  5
8D7
102
{ACAD_REACTORS
330
CA7
102
}
330
1A
100
AcDbEntity
  8
HAUPTEBENE
  6
Continuous
 62
     7
100
AcDbLine
 10
361.3541821722532
 20
187.638291524247
 30
0.0
 11
97.00417606225318
 21
187.638291524247
 31
0.0
1001
PHOENIX7010
1002
{
1070
    62
1070
     7
1070
    41
1040
1.0
1002
}
  0
LINE
  5
8D8
102
{ACAD_REACTORS
330
CA8
102
}
330
1A
100
AcDbEntity
  8
HAUPTEBENE
  6
ACAD_ISO04W100
 62
     1
100
AcDbLine
 10
162.5041760622532
 20
356.2582561242471
 30
0.0
 11
162.5041760622532
 21
185.638291524247
 31
0.0
1001
PHOENIX7010
1002
{
1070
    62
1070
     1
1070
    41
1040
1.0
1002
}
  0
LINE
  5
8D9
102
{ACAD_REACTORS
330
CA8
102
}
330
1A
100
AcDbEntity
  8
HAUPTEBENE
  6
ACAD_ISO04W100
 62
     1
100
AcDbLine
 10
101.2541760622532
 20
356.2582561242471
 30
0.0
 11
101.2541760622531
 21
185.638291524247
 31
0.0
1001
PHOENIX7010
1002
{
1070
    62
1070
     1
1070
    41
1040
1.0
1002
}
  0
LINE
  5
8DA
102
{ACAD_REACTORS
330
CA8
102
}
330
1A
100
AcDbEntity
  8
HAUPTEBENE
  6
ACAD_ISO04W100
 62
     1
100
AcDbLine
 10
223.7541760622532
 20
356.2582561242471
 30
0.0
 11
223.7541760622532
 21
185.638291524247
 31
0.0
1001
PHOENIX7010
1002
{
1070
    62
1070
     1
1070
    41
1040
1.0
1002
}
  0
TEXT
  5
8DD
330
1A
100
AcDbEntity
  8
HAUPTEBENE
  6
Continuous
 62
     7
100
AcDbText
 10
223.7477288395505
 20
55.87438259785177
 30
0.0
 40
5.0
  1

 41
1.5
100
AcDbText
1001
PHOENIX7010
1002
{
1070
    62
1070
     7
1070
    41
1040
1.0
1002
}
  0
TEXT
  5
8DE
330
1A
100
AcDbEntity
  8
HAUPTEBENE
  6
Continuous
 62
     5
100
AcDbText
 10
201.6301804612042
 20
85.61083593415833
 30
0.0
 40
5.0
  1
l
 41
1.5
100
AcDbText
1001
PHOENIX7010
1002
{
1070
    62
1070
     7
1070
    41
1040
1.0
1002
}
  0
TEXT
  5
8DF
330
1A
100
AcDbEntity
  8
HAUPTEBENE
  6
Continuous
 62
     7
100
AcDbText
 10
184.7477288395505
 20
55.87438259785182
 30
0.0
 40
5.0
  1

 41
1.5
100
AcDbText
1001
PHOENIX7010
1002
{
1070
    62
1070
     7
1070
    41
1040
1.0
1002
}
  0
TEXT
  5
8E0
330
1A
100
AcDbEntity
  8
HAUPTEBENE
  6
Continuous
 62
     5
100
AcDbText
 10
162.6301804612042
 20
85.61083593415839
 30
0.0
 40
5.0
  1
d
 41
1.5
100
AcDbText
1001
PHOENIX7010
1002
{
1070
    62
1070
     7
1070
    41
1040
1.0
1002
}
  0
TEXT
  5
8E1
330
1A
100
AcDbEntity
  8
HAUPTEBENE
  6
Continuous
 62
     7
100
AcDbText
 10
156.7477288395505
 20
55.87438259785187
 30
0.0
 40
5.0
  1

 41
1.5
100
AcDbText
1001
PHOENIX7010
1002
{
1070
    62
1070
     7
1070
    41
1040
1.0
1002
}
  0
TEXT
  5
8E2
330
1A
100
AcDbEntity
  8
HAUPTEBENE
  6
Continuous
 62
     5
100
AcDbText
 10
123.7531055289303
 20
85.61083593415844
 30
0.0
 40
5.0
  1
HE/U
 41
1.5
100
AcDbText
1001
PHOENIX7010
1002
{
1070
    62
1070
     7
1070
    41
1040
1.0
1002
}
  0
TEXT
  5
8E3
330
1A
100
AcDbEntity
  8
HAUPTEBENE
  6
Continuous
 62
     7
100
AcDbText
 10
113.7477288395505
 20
55.87438259785187
 30
0.0
 40
5.0
  1

 41
1.5
100
AcDbText
1001
PHOENIX7010
1002
{
1070
    62
1070
     7
1070
    41
1040
1.0
1002
}
  0
TEXT
  5
8E4
330
1A
100
AcDbEntity
  8
HAUPTEBENE
  6
Continuous
 62
     5
100
AcDbText
 10
84.21399722412592
 20
85.61083593415844
 30
0.0
 40
5.0
  1
TYP
 41
1.5
100
AcDbText
1001
PHOENIX7010
1002
{
1070
    62
1070
     7
1070
    41
1040
1.0
1002
}
  0
LINE
  5
8E5
330
1A
100
AcDbEntity
  8
HAUPTEBENE
  6
Continuous
 62
     1
100
AcDbLine
 10
186.6301804612042
 20
93.11083593415833
 30
0.0
 11
186.6301804612042
 21
43.11083021415834
 31
0.0
1001
PHOENIX7010
1002
{
1070
    62
1070
     1
1070
    41
1040
1.0
1002
}
  0
LINE
  5
8E6
330
1A
100
AcDbEntity
  8
HAUPTEBENE
  6
Continuous
 62
     1
100
AcDbLine
 10
148.6301804612042
 20
43.11082830415836
 30
0.0
 11
148.6301804612042
 21
93.11083593415839
 31
0.0
1001
PHOENIX7010
1002
{
1070
    62
1070
     1
1070
    41
1040
1.0
1002
}
  0
LINE
  5
8E7
330
1A
100
AcDbEntity
  8
HAUPTEBENE
  6
Continuous
 62
     1
100
AcDbLine
 10
121.2762998145044
 20
93.11083593415844
 30
0.0
 11
121.2762998145044
 21
43.11082830415841
 31
0.0
1001
PHOENIX7010
1002
{
1070
    62
1070
     5
1070
    41
1040
1.0
1002
}
  0
LINE
  5
8E8
330
1A
100
AcDbEntity
  8
HAUPTEBENE
  6
Continuous
 62
     1
100
AcDbLine
 10
66.63018046120419
 20
83.11083593415844
 30
0.0
 11
222.6301804612042
 21
83.11083593415833
 31
0.0
1001
PHOENIX7010
1002
{
1070
    62
1070
     5
1070
    41
1040
1.0
1002
}
  0
TEXT
  5
8E9
330
1A
100
AcDbEntity
  8
HAUPTEBENE
  6
Continuous
 62
     5
100
AcDbText
 10
214.7477288395505
 20
19.37437687785177
 30
0.0
 40
5.0
  1

 41
1.5
100
AcDbText
1001
PHOENIX7010
1002
{
1070
    62
1070
     5
1070
    41
1040
1.0
1002
}
  0
TEXT
  5
8EA
330
1A
100
AcDbEntity
  8
HAUPTEBENE
  6
Continuous
 62
     5
100
AcDbText
 10
192.6301804612042
 20
49.11083021415834
 30
0.0
 40
5.0
  1
286,6
 41
1.5
100
AcDbText
1001
PHOENIX7010
1002
{
1070
    62
1070
     5
1070
    41
1040
1.0
1002
}
  0
TEXT
  5
8EB
330
1A
100
AcDbEntity
  8
HAUPTEBENE
  6
Continuous
 62
     5
100
AcDbText
 10
214.7477288395505
 20
31.37437496785179
 30
0.0
 40
5.0
  1

 41
1.5
100
AcDbText
1001
PHOENIX7010
1002
{
1070
    62
1070
     5
1070
    41
1040
1.0
1002
}
  0
TEXT
  5
8EC
330
1A
100
AcDbEntity
  8
HAUPTEBENE
  6
Continuous
 62
     5
100
AcDbText
 10
192.6301804612042
 20
61.11082830415836
 30
0.0
 40
5.0
  1
226,6
 41
1.5
100
AcDbText
1001
PHOENIX7010
1002
{
1070
    62
1070
     5
1070
    41
1040
1.0
1002
}
  0
TEXT
  5
8ED
330
1A
100
AcDbEntity
  8
HAUPTEBENE
  6
Continuous
 62
     5
100
AcDbText
 10
174.7477288395505
 20
19.37437496785179
 30
0.0
 40
5.0
  1

 41
1.5
100
AcDbText
1001
PHOENIX7010
1002
{
1070
    62
1070
     5
1070
    41
1040
1.0
1002
}
  0
TEXT
  5
8EE
330
1A
100
AcDbEntity
  8
HAUPTEBENE
  6
Continuous
 62
     5
100
AcDbText
 10
152.6301804612042
 20
49.11082830415836
 30
0.0
 40
5.0
  1
298.24
 41
1.5
100
AcDbText
1001
PHOENIX7010
1002
{
1070
    62
1070
     5
1070
    41
1040
1.0
1002
}
  0
TEXT
  5
8EF
330
1A
100
AcDbEntity
  8
HAUPTEBENE
  6
Continuous
 62
     5
100
AcDbText
 10
174.7477288395505
 20
31.37437496785179
 30
0.0
 40
5.0
  1

 41
1.5
100
AcDbText
1001
PHOENIX7010
1002
{
1070
    62
1070
     5
1070
    41
1040
1.0
1002
}
  0
TEXT
  5
8F0
330
1A
100
AcDbEntity
  8
HAUPTEBENE
  6
Continuous
 62
     5
100
AcDbText
 10
152.6301804612042
 20
61.11082830415836
 30
0.0
 40
5.0
  1
238.24
 41
1.5
100
AcDbText
1001
PHOENIX7010
1002
{
1070
    62
1070
     5
1070
    41
1040
1.0
1002
}
  0
TEXT
  5
8F1
330
1A
100
AcDbEntity
  8
HAUPTEBENE
  6
Continuous
 62
     5
100
AcDbText
 10
158.7477288395505
 20
19.37437496785179
 30
0.0
 40
5.0
  1

 41
1.5
100
AcDbText
1001
PHOENIX7010
1002
{
1070
    62
1070
     5
1070
    41
1040
1.0
1002
}
  0
TEXT
  5
8F2
330
1A
100
AcDbEntity
  8
HAUPTEBENE
  6
Continuous
 62
     5
100
AcDbText
 10
131.933267503334
 20
48.61669532448451
 30
0.0
 40
5.0
  1
6
 41
1.5
100
AcDbText
1001
PHOENIX7010
1002
{
1070
    62
1070
     5
1070
    41
1040
1.0
1002
}
  0
TEXT
  5
8F3
330
1A
100
AcDbEntity
  8
HAUPTEBENE
  6
Continuous
 62
     5
100
AcDbText
 10
158.7477288395505
 20
31.37437496785179
 30
0.0
 40
5.0
  1

 41
1.5
100
AcDbText
1001
PHOENIX7010
1002
{
1070
    62
1070
     5
1070
    41
1040
1.0
1002
}
  0
TEXT
  5
8F4
330
1A
100
AcDbEntity
  8
HAUPTEBENE
  6
Continuous
 62
     5
100
AcDbText
 10
131.933267503334
 20
60.61669532448451
 30
0.0
 40
5.0
  1
6
 41
1.5
100
AcDbText
1001
PHOENIX7010
1002
{
1070
    62
1070
     5
1070
    41
1040
1.0
1002
}
  0
TEXT
  5
8F5
330
1A
100
AcDbEntity
  8
HAUPTEBENE
  6
Continuous
 62
     5
100
AcDbText
 10
98.74772883955053
 20
19.37437306785188
 30
0.0
 40
5.0
  1

 41
1.5
100
AcDbText
1001
PHOENIX7010
1002
{
1070
    62
1070
     5
1070
    41
1040
1.0
1002
}
  0
TEXT
  5
8F6
330
1A
100
AcDbEntity
  8
HAUPTEBENE
  6
Continuous
 62
     5
100
AcDbText
 10
69.21399722412592
 20
49.11082640415845
 30
0.0
 40
5.0
  1
BSW 30600
 41
1.5
100
AcDbText
1001
PHOENIX7010
1002
{
1070
    62
1070
     5
1070
    41
1040
1.0
1002
}
  0
TEXT
  5
8F7
330
1A
100
AcDbEntity
  8
HAUPTEBENE
  6
Continuous
 62
     5
100
AcDbText
 10
98.74772883955053
 20
31.3743711578519
 30
0.0
 40
5.0
  1

 41
1.5
100
AcDbText
1001
PHOENIX7010
1002
{
1070
    62
1070
     5
1070
    41
1040
1.0
1002
}
  0
TEXT
  5
8F8
330
1A
100
AcDbEntity
  8
HAUPTEBENE
  6
Continuous
 62
     5
100
AcDbText
 10
69.21399722412593
 20
61.11082449415846
 30
0.0
 40
5.0
  1
BSW 24600
 41
1.5
100
AcDbText
1001
PHOENIX7010
1002
{
1070
    62
1070
     5
1070
    41
1040
1.0
1002
}
  0
TEXT
  5
8F9
330
1A
100
AcDbEntity
  8
HAUPTEBENE
  6
Continuous
 62
     5
100
AcDbText
 10
214.7477288395505
 20
43.37438259785176
 30
0.0
 40
5.0
  1

 41
1.5
100
AcDbText
1001
PHOENIX7010
1002
{
1070
    62
1070
     5
1070
    41
1040
1.0
1002
}
  0
TEXT
  5
8FA
330
1A
100
AcDbEntity
  8
HAUPTEBENE
  6
Continuous
 62
     5
100
AcDbText
 10
192.6301804612042
 20
73.11083593415833
 30
0.0
 40
5.0
  1
166,6
 41
1.5
100
AcDbText
1001
PHOENIX7010
1002
{
1070
    62
1070
     5
1070
    41
1040
1.0
1002
}
  0
TEXT
  5
8FB
330
1A
100
AcDbEntity
  8
HAUPTEBENE
  6
Continuous
 62
     5
100
AcDbText
 10
174.7477288395505
 20
43.37438259785182
 30
0.0
 40
5.0
  1

 41
1.5
100
AcDbText
1001
PHOENIX7010
1002
{
1070
    62
1070
     5
1070
    41
1040
1.0
1002
}
  0
TEXT
  5
8FC
330
1A
100
AcDbEntity
  8
HAUPTEBENE
  6
Continuous
 62
     5
100
AcDbText
 10
152.6301804612042
 20
73.11083593415839
 30
0.0
 40
5.0
  1
178.24
 41
1.5
100
AcDbText
1001
PHOENIX7010
1002
{
1070
    62
1070
     5
1070
    41
1040
1.0
1002
}
  0
TEXT
  5
8FD
330
1A
100
AcDbEntity
  8
HAUPTEBENE
  6
Continuous
 62
     5
100
AcDbText
 10
158.7477288395505
 20
43.37438259785182
 30
0.0
 40
5.0
  1

 41
1.5
100
AcDbText
1001
PHOENIX7010
1002
{
1070
    62
1070
     5
1070
    41
1040
1.0
1002
}
  0
TEXT
  5
8FE
330
1A
100
AcDbEntity
  8
HAUPTEBENE
  6
Continuous
 62
     5
100
AcDbText
 10
131.933267503334
 20
72.61670295448453
 30
0.0
 40
5.0
  1
6
 41
1.5
100
AcDbText
1001
PHOENIX7010
1002
{
1070
    62
1070
     5
1070
    41
1040
1.0
1002
}
  0
TEXT
  5
8FF
330
1A
100
AcDbEntity
  8
HAUPTEBENE
  6
Continuous
 62
     5
100
AcDbText
 10
98.74772883955053
 20
43.37438259785187
 30
0.0
 40
5.0
  1

 41
1.5
100
AcDbText
1001
PHOENIX7010
1002
{
1070
    62
1070
     5
1070
    41
1040
1.0
1002
}
  0
TEXT
  5
900
330
1A
100
AcDbEntity
  8
HAUPTEBENE
  6
Continuous
 62
     5
100
AcDbText
 10
69.21399722412593
 20
73.11083593415844
 30
0.0
 40
5.0
  1
BSW 18600
 41
1.5
100
AcDbText
1001
PHOENIX7010
1002
{
1070
    62
1070
     5
1070
    41
1040
1.0
1002
}
  0
LINE
  5
D4B
102
{ACAD_REACTORS
330
D5D
102
}
330
1A
100
AcDbEntity
  8
0
  6
Continuous
 62
     1
370
    50
100
AcDbLine
 10
403.0
 20
0.9999999999998863
 30
0.0
 11
403.0
 21
4.999999999999886
 31
0.0
1001
PHOENIX7010
1002
{
1070
    62
1070
     1
1070
    41
1040
1.0
1002
}
  0
LINE
  5
D4C
102
{ACAD_REACTORS
330
D5D
102
}
330
1A
100
AcDbEntity
  8
0
  6
Continuous
 62
     3
370
    50
100
AcDbLine
 10
589.0
 20
414.9999999999998
 30
0.0
 11
589.0
 21
4.999999999999886
 31
0.0
1001
PHOENIX7010
1002
{
1070
    62
1070
     3
1070
    41
1040
1.0
1002
}
  0
LINE
  5
D4D
102
{ACAD_REACTORS
330
D5D
102
}
330
1A
100
AcDbEntity
  8
0
  6
Continuous
 62
     3
370
    50
100
AcDbLine
 10
20.0
 20
414.9999999999998
 30
0.0
 11
589.0
 21
414.9999999999998
 31
0.0
1001
PHOENIX7010
1002
{
1070
    62
1070
     3
1070
    41
1040
1.0
1002
}
  0
LINE
  5
D4E
102
{ACAD_REACTORS
330
D5D
102
}
330
1A
100
AcDbEntity
  8
0
  6
Continuous
 62
     1
370
    50
100
AcDbLine
 10
116.0
 20
4.999999999999886
 30
0.0
 11
116.0
 21
0.9999999999998863
 31
0.0
1001
PHOENIX7010
1002
{
1070
    62
1070
     1
1070
    41
1040
1.0
1002
}
  0
LINE
  5
D4F
102
{ACAD_REACTORS
330
D5D
102
}
330
1A
100
AcDbEntity
  8
0
  6
Continuous
 62
     1
370
    50
100
AcDbLine
 10
116.0
 20
418.9999999999998
 30
0.0
 11
116.0
 21
414.9999999999998
 31
0.0
1001
PHOENIX7010
1002
{
1070
    62
1070
     1
1070
    41
1040
1.0
1002
}
  0
LINE
  5
D50
102
{ACAD_REACTORS
330
D5D
102
}
330
1A
100
AcDbEntity
  8
0
  6
Continuous
 62
     1
370
    50
100
AcDbLine
 10
213.0
 20
4.999999999999886
 30
0.0
 11
213.0
 21
0.9999999999998863
 31
0.0
1001
PHOENIX7010
1002
{
1070
    62
1070
     1
1070
    41
1040
1.0
1002
}
  0
LINE
  5
D51
102
{ACAD_REACTORS
330
D5D
102
}
330
1A
100
AcDbEntity
  8
0
  6
Continuous
 62
     1
370
    50
100
AcDbLine
 10
213.0
 20
418.9999999999998
 30
0.0
 11
213.0
 21
414.9999999999998
 31
0.0
1001
PHOENIX7010
1002
{
1070
    62
1070
     1
1070
    41
1040
1.0
1002
}
  0
LINE
  5
D52
102
{ACAD_REACTORS
330
D5D
102
}
330
1A
100
AcDbEntity
  8
0
  6
Continuous
 62
     1
370
    50
100
AcDbLine
 10
403.0
 20
418.9999999999998
 30
0.0
 11
403.0
 21
414.9999999999998
 31
0.0
1001
PHOENIX7010
1002
{
1070
    62
1070
     1
1070
    41
1040
1.0
1002
}
  0
LINE
  5
D53
102
{ACAD_REACTORS
330
D5D
102
}
330
1A
100
AcDbEntity
  8
0
  6
Continuous
 62
     3
370
    50
100
AcDbLine
 10
20.0
 20
4.999999999999886
 30
0.0
 11
20.0
 21
414.9999999999998
 31
0.0
1001
PHOENIX7010
1002
{
1070
    62
1070
     3
1070
    41
1040
1.0
1002
}
  0
LINE
  5
D54
102
{ACAD_REACTORS
330
D5D
102
}
330
1A
100
AcDbEntity
  8
0
  6
Continuous
 62
     3
370
    50
100
AcDbLine
 10
589.0
 20
4.999999999999886
 30
0.0
 11
20.0
 21
4.999999999999886
 31
0.0
1001
PHOENIX7010
1002
{
1070
    62
1070
     3
1070
    41
1040
1.0
1002
}
  0
LINE
  5
D55
102
{ACAD_REACTORS
330
D5D
102
}
330
1A
100
AcDbEntity
  8
0
  6
Continuous
 62
     1
370
    50
100
AcDbLine
 10
1.0
 20
0.9999999999998863
 30
0.0
 11
1.0
 21
418.9999999999998
 31
0.0
1001
PHOENIX7010
1002
{
1070
    62
1070
     1
1070
    41
1040
1.0
1002
}
  0
LINE
  5
D56
102
{ACAD_REACTORS
330
D5D
102
}
330
1A
100
AcDbEntity
  8
0
  6
Continuous
 62
     1
370
    50
100
AcDbLine
 10
1.0
 20
418.9999999999998
 30
0.0
 11
593.0
 21
418.9999999999998
 31
0.0
1001
PHOENIX7010
1002
{
1070
    62
1070
     1
1070
    41
1040
1.0
1002
}
  0
LINE
  5
D57
102
{ACAD_REACTORS
330
D5D
102
}
330
1A
100
AcDbEntity
  8
0
  6
Continuous
 62
     1
370
    50
100
AcDbLine
 10
593.0
 20
418.9999999999998
 30
0.0
 11
593.0
 21
0.9999999999998863
 31
0.0
1001
PHOENIX7010
1002
{
1070
    62
1070
     1
1070
    41
1040
1.0
1002
}
  0
LINE
  5
D58
102
{ACAD_REACTORS
330
D5D
102
}
330
1A
100
AcDbEntity
  8
0
  6
Continuous
 62
     1
370
    50
100
AcDbLine
 10
593.0
 20
0.9999999999998863
 30
0.0
 11
1.0
 21
0.9999999999998863
 31
0.0
1001
PHOENIX7010
1002
{
1070
    62
1070
     1
1070
    41
1040
1.0
1002
}
  0
LINE
  5
D59
102
{ACAD_REACTORS
330
D5D
102
}
330
1A
100
AcDbEntity
  8
0
  6
Continuous
 62
     1
370
    50
100
AcDbLine
 10
589.0
 20
296.9999999999999
 30
0.0
 11
593.0
 21
296.9999999999999
 31
0.0
1001
PHOENIX7010
1002
{
1070
    62
1070
     1
1070
    41
1040
1.0
1002
}
  0
MTEXT
  5
D5A
102
{ACAD_REACTORS
330
D5D
102
}
330
1A
100
AcDbEntity
  8
0
  6
Continuous
 62
     7
370
    50
100
AcDbMText
 10
19.70248718641096
 20
55.3935120791333
 30
0.0
 40
2.0
 41
0.0
 71
     7
 72
     5
  1
{\T1.1;\C1;"Schutzvermerk nach DIN ISO 16016 beachten" \Q20;"Please pay attention to copyright note DIN ISO 16016"}
 11
0.0000000000000002
 21
1.0
 31
0.0
 73
     1
 44
1.0
1001
PHOENIX7010
1002
{
1070
    41
1040
1.0
1002
}
1001
ACAD
1000
MTEXTBEGIN
1070
    73
1070
     1
1070
    44
1040
1.0
1070
    74
1070
     0
1000
MTEXTEND
  0
INSERT
  5
D5B
102
{ACAD_REACTORS
330
D5D
102
}
330
1A
100
AcDbEntity
  8
0
  6
Continuous
 62
     1
370
    50
100
AcDbBlockReference
  2
PH_GRPBLK
 10
403.0
 20
0.9999999999998863
 30
0.0
1001
PHOENIX7010
1002
{
1070
    41
1040
1.0
1002
}
  0
HATCH
  5
D9D
102
{ACAD_REACTORS
330
DF1
102
}
330
1A
100
AcDbEntity
  8
0
  6
Continuous
 62
     1
370
    25
100
AcDbHatch
 10
0.0
 20
0.0
 30
0.0
210
0.0
220
0.0
230
1.0
  2
_U
 70
     0
 71
     1
 91
        1
 92
        0
 93
        5
 72
     1
 10
581.4334749940256
 20
35.16453811398026
 11
574.7334749940255
 21
27.36453811398019
 72
     1
 10
574.7334749940255
 20
27.36453811398019
 11
586.7334749940255
 21
27.36453811398019
 72
     1
 10
586.7334749940255
 20
27.36453811398019
 11
586.7334749940255
 21
35.1645381139802
 72
     1
 10
586.7334749940255
 20
35.16453811398014
 11
581.4334749940256
 21
28.26453811398025
 72
     1
 10
581.4334749940256
 20
28.26453811398028
 11
581.4334749940256
 21
35.16453811398026
 97
        1
330
DE1
 75
     0
 76
     0
 52
45.0
 41
0.1
 77
     0
 78
     1
 53
45.0
 43
174.0
 44
-32.08885297207075
 45
-0.0707106781186548
 46
0.0707106781186548
 79
     0
 98
        1
 10
174.0
 20
-32.08885297207075
1001
PHOENIX7010
1002
{
1070
    41
1040
1.0
1002
}
  0
HATCH
  5
D9E
102
{ACAD_REACTORS
330
DF1
102
}
330
1A
100
AcDbEntity
  8
0
  6
Continuous
 62
     1
370
    25
100
AcDbHatch
 10
0.0
 20
0.0
 30
0.0
210
0.0
220
0.0
230
1.0
  2
_U
 70
     0
 71
     1
 91
        1
 92
        0
 93
        3
 72
     1
 10
573.8834749940255
 20
27.36453811398019
 11
573.8834749940255
 21
31.51453811398019
 72
     1
 10
573.8834749940255
 20
31.51453811398017
 11
578.0334749940254
 21
31.51453811398017
 72
     2
 10
573.8834749940255
 20
31.51453811398017
 40
4.149999999999977
 50
0.0000000000001962
 51
270.0
 73
     1
 97
        1
330
DE2
 75
     0
 76
     0
 52
45.0
 41
0.65
 77
     0
 78
     1
 53
45.0
 43
174.0
 44
-32.08885297207075
 45
-0.4596194077712559
 46
0.459619407771256
 79
     0
 98
        1
 10
174.0
 20
-32.08885297207075
1001
PHOENIX7010
1002
{
1070
    41
1040
1.0
1002
}
  0
LINE
  5
D9F
102
{ACAD_REACTORS
330
DF1
102
}
330
1A
100
AcDbEntity
  8
0
  6
Continuous
 62
     7
370
    50
100
AcDbLine
 10
574.7334749940255
 20
27.36453811398019
 30
0.0
 11
586.7334749940255
 21
27.36453811398019
 31
0.0
1001
PHOENIX7010
1002
{
1070
    41
1040
1.0
1002
}
  0
LINE
  5
DA0
102
{ACAD_REACTORS
330
DF1
102
}
330
1A
100
AcDbEntity
  8
0
  6
Continuous
 62
     7
370
    50
100
AcDbLine
 10
586.7334749940255
 20
27.36453811398019
 30
0.0
 11
586.7334749940255
 21
35.16453811398014
 31
0.0
1001
PHOENIX7010
1002
{
1070
    41
1040
1.0
1002
}
  0
LINE
  5
DA1
102
{ACAD_REACTORS
330
DF1
102
}
330
1A
100
AcDbEntity
  8
0
  6
Continuous
 62
     7
370
    50
100
AcDbLine
 10
581.4334749940256
 20
28.26453811398017
 30
0.0
 11
581.4334749940256
 21
35.16453811398014
 31
0.0
1001
PHOENIX7010
1002
{
1070
    41
1040
1.0
1002
}
  0
LINE
  5
DA2
102
{ACAD_REACTORS
330
DF1
102
}
330
1A
100
AcDbEntity
  8
0
  6
Continuous
 62
     7
370
    50
100
AcDbLine
 10
581.4334749940256
 20
35.16453811398014
 30
0.0
 11
574.7334749940255
 21
27.36453811398019
 31
0.0
1001
PHOENIX7010
1002
{
1070
    41
1040
1.0
1002
}
  0
LINE
  5
DA3
102
{ACAD_REACTORS
330
DF1
102
}
330
1A
100
AcDbEntity
  8
0
  6
Continuous
 62
     7
370
    50
100
AcDbLine
 10
586.7334749940255
 20
35.16453811398014
 30
0.0
 11
581.4334749940256
 21
28.26453811398017
 31
0.0
1001
PHOENIX7010
1002
{
1070
    41
1040
1.0
1002
}
  0
INSERT
  5
DA4
102
{ACAD_REACTORS
330
DF1
102
}
330
1A
100
AcDbEntity
  8
0
  6
Continuous
 62
     1
370
    25
100
AcDbBlockReference
  2
PH_GRPBLK
 10
574.7334749940255
 20
27.36453811398019
 30
0.0
1001
PHOENIX7010
1002
{
1070
    41
1040
1.0
1002
}
  0
MTEXT
  5
DA5
102
{ACAD_REACTORS
330
DF2
102
}
330
1A
100
AcDbEntity
  8
0
  6
Continuous
 62
     7
370
    50
100
AcDbMText
 10
555.0842366554657
 20
17.8834606000313
 30
0.0
 40
1.6
 41
0.0
 71
     7
 72
     5
  1
{\fArial|b0|i0|c0|p34;\W1.1;\C1;A Phoenix Mecano Company}
 73
     1
 44
1.0
1001
PHOENIX7010
1002
{
1070
    41
1040
1.0
1002
}
1001
ACAD
1000
MTEXTBEGIN
1070
    73
1070
     1
1070
    44
1040
1.0
1070
    74
1070
     0
1000
MTEXTEND
  0
MTEXT
  5
DA6
102
{ACAD_XDICTIONARY
360
E47
102
}
102
{ACAD_REACTORS
330
DF2
102
}
330
1A
100
AcDbEntity
  8
0
  6
Continuous
 62
     7
370
    50
100
AcDbMText
 10
567.5658807175857
 20
21.46517927327716
 30
0.0
 40
3.7
 41
0.0
 71
     7
 72
     5
  1
{\fArial|b1|i0|c0|p34;\W1.1;BOPLA}
 73
     1
 44
1.135135135135135
1001
PHOENIX7010
1002
{
1070
    41
1040
1.0
1002
}
1001
ACAD
1000
MTEXTBEGIN
1070
    73
1070
     1
1070
    44
1040
1.135135135135135
1070
    74
1070
     0
1000
MTEXTEND
  0
INSERT
  5
DA7
102
{ACAD_REACTORS
330
DF2
102
}
330
1A
100
AcDbEntity
  8
0
  6
Continuous
 62
     7
370
    50
100
AcDbBlockReference
  2
PH_GRPBLK
 10
574.7334749940255
 20
27.36453811398019
 30
0.0
1001
PHOENIX7010
1002
{
1070
    41
1040
1.0
1002
}
  0
MTEXT
  5
DA8
102
{ACAD_REACTORS
330
DF3
102
}
330
1A
100
AcDbEntity
  8
0
  6
Continuous
 62
     5
370
    35
100
AcDbMText
 10
492.9304981780733
 20
52.18090043987103
 30
0.0
 40
3.5
 41
0.0
 71
     7
 72
     5
  1
{\C7;Katalogzeichnung/\Q20;Catalogue drawing}
 73
     1
 44
1.0
1001
PHOENIX7010
1002
{
1070
    41
1040
1.0
1002
}
1001
ACAD
1000
MTEXTBEGIN
1070
    73
1070
     1
1070
    44
1040
1.0
1070
    74
1070
     0
1000
MTEXTEND
  0
MTEXT
  5
DA9
102
{ACAD_REACTORS
330
DF3
102
}
330
1A
100
AcDbEntity
  8
0
  6
Continuous
 62
     5
370
    35
100
AcDbMText
 10
492.9304981780733
 20
59.18090043987104
 30
0.0
 40
4.0
 41
0.0
 71
     7
 72
     5
  1
{\C7;BSW . . 600}
 73
     1
 44
1.0
1001
PHOENIX7010
1002
{
1070
    41
1040
1.0
1002
}
1001
ACAD
1000
MTEXTBEGIN
1070
    73
1070
     1
1070
    44
1040
1.0
1070
    74
1070
     0
1000
MTEXTEND
  0
MTEXT
  5
DAA
102
{ACAD_REACTORS
330
DF3
102
}
330
1A
100
AcDbEntity
  8
0
  6
Continuous
 62
     5
370
    35
100
AcDbMText
 10
492.9304981780733
 20
66.18090043987104
 30
0.0
 40
3.0
 41
0.0
 71
     7
 72
     5
  1
{\C7;BGT Seitenwand 6HE/\Q20;BGT Side panel 6U}
 73
     1
 44
1.0
1001
PHOENIX7010
1002
{
1070
    41
1040
1.0
1002
}
1001
ACAD
1000
MTEXTBEGIN
1070
    73
1070
     1
1070
    44
1040
1.0
1070
    74
1070
     0
1000
MTEXTEND
  0
MTEXT
  5
DAB
102
{ACAD_REACTORS
330
DF3
102
}
330
1A
100
AcDbEntity
  8
0
  6
Continuous
 62
     5
370
    35
100
AcDbMText
 10
514.3074630969179
 20
95.19875800682347
 30
0.0
 40
4.0
 41
0.0
 71
     7
 72
     5
  1
{\C7;-}
 73
     1
 44
1.0
1001
PHOENIX7010
1002
{
1070
    41
1040
1.0
1002
}
1001
ACAD
1000
MTEXTBEGIN
1070
    73
1070
     1
1070
    44
1040
1.0
1070
    74
1070
     0
1000
MTEXTEND
  0
MTEXT
  5
DAC
102
{ACAD_REACTORS
330
DF3
102
}
330
1A
100
AcDbEntity
  8
0
  6
Continuous
 62
     5
370
    35
100
AcDbMText
 10
493.2942762589885
 20
94.24669079255091
 30
0.0
 40
2.5
 41
0.0
 71
     7
 72
     5
  1
{\C1;Maßstab/\P\Q20;Scale:}
 73
     1
 44
1.0
1001
PHOENIX7010
1002
{
1070
    41
1040
1.0
1002
}
1001
ACAD
1000
MTEXTBEGIN
1070
    73
1070
     1
1070
    44
1040
1.0
1070
    74
1070
     0
1000
MTEXTEND
  0
MTEXT
  5
DAD
102
{ACAD_REACTORS
330
DF3
102
}
330
1A
100
AcDbEntity
  8
0
  6
Continuous
 62
     5
370
    35
100
AcDbMText
 10
493.5702130763932
 20
86.57846179300577
 30
0.0
 40
3.0
 41
0.0
 71
     7
 72
     5
  1
Zeichnungs-Nr. / {\Q20;Drawing-No.:}
 73
     1
 44
1.0
1001
PHOENIX7010
1002
{
1070
    41
1040
1.0
1002
}
1001
ACAD
1000
MTEXTBEGIN
1070
    73
1070
     1
1070
    44
1040
1.0
1070
    74
1070
     0
1000
MTEXTEND
  0
MTEXT
  5
DAE
102
{ACAD_REACTORS
330
DF3
102
}
330
1A
100
AcDbEntity
  8
0
  6
Continuous
 62
     5
370
    35
100
AcDbMText
 10
514.6810942169351
 20
80.43630467405547
 30
0.0
 40
4.0
 41
0.0
 71
     7
 72
     5
  1
{\C7;2G 5045.430.01}
 73
     1
 44
1.0
1001
PHOENIX7010
1002
{
1070
    41
1040
1.0
1002
}
1001
ACAD
1000
MTEXTBEGIN
1070
    73
1070
     1
1070
    44
1040
1.0
1070
    74
1070
     0
1000
MTEXTEND
  0
MTEXT
  5
DAF
102
{ACAD_REACTORS
330
DF3
102
}
330
1A
100
AcDbEntity
  8
0
  6
Continuous
 62
     5
370
    35
100
AcDbMText
 10
492.8800602381663
 20
72.4289616716369
 30
0.0
 40
4.0
 41
0.0
 71
     7
 72
     5
  1
{\C7;Artikel / \Q20;Article:}
 73
     1
 44
1.0
1001
PHOENIX7010
1002
{
1070
    41
1040
1.0
1002
}
1001
ACAD
1000
MTEXTBEGIN
1070
    73
1070
     1
1070
    44
1040
1.0
1070
    74
1070
     0
1000
MTEXTEND
  0
MTEXT
  5
DB0
102
{ACAD_REACTORS
330
DF3
102
}
330
1A
100
AcDbEntity
  8
0
  6
Continuous
 62
     5
370
    35
100
AcDbMText
 10
503.5918340418986
 20
15.32304279191066
 30
0.0
 40
2.0
 41
0.0
 71
     7
 72
     5
  1
{\C1;Datum/\P\Q20;Date:}
 73
     1
 44
1.0
1001
PHOENIX7010
1002
{
1070
    41
1040
1.0
1002
}
1001
ACAD
1000
MTEXTBEGIN
1070
    73
1070
     1
1070
    44
1040
1.0
1070
    74
1070
     0
1000
MTEXTEND
  0
MTEXT
  5
DB1
102
{ACAD_REACTORS
330
DF3
102
}
330
1A
100
AcDbEntity
  8
0
  6
Continuous
 62
     5
370
    35
100
AcDbMText
 10
490.167758256943
 20
15.32303913053602
 30
0.0
 40
2.0
 41
0.0
 71
     7
 72
     5
  1
{\C1;Ä.Nr/\P\Q20;Alt-No.:}
 73
     1
 44
1.0
1001
PHOENIX7010
1002
{
1070
    41
1040
1.0
1002
}
1001
ACAD
1000
MTEXTBEGIN
1070
    73
1070
     1
1070
    44
1040
1.0
1070
    74
1070
     0
1000
MTEXTEND
  0
MTEXT
  5
DB2
102
{ACAD_REACTORS
330
DF3
102
}
330
1A
100
AcDbEntity
  8
0
  6
Continuous
 62
     5
370
    35
100
AcDbMText
 10
516.2178658257174
 20
10.60592166613912
 30
0.0
 40
2.5
 41
0.0
 71
     7
 72
     5
  1
2 900 437
 73
     1
 44
1.0
1001
PHOENIX7010
1002
{
1070
    41
1040
1.0
1002
}
1001
ACAD
1000
MTEXTBEGIN
1070
    73
1070
     1
1070
    44
1040
1.0
1070
    74
1070
     0
1000
MTEXTEND
  0
MTEXT
  5
DB3
102
{ACAD_REACTORS
330
DF3
102
}
330
1A
100
AcDbEntity
  8
0
  6
Continuous
 62
     5
370
    35
100
AcDbMText
 10
490.5289912646938
 20
10.49475527098093
 30
0.0
 40
2.5
 41
0.0
 71
     7
 72
     5
  1
DISK:
 73
     1
 44
1.0
1001
PHOENIX7010
1002
{
1070
    41
1040
1.0
1002
}
1001
ACAD
1000
MTEXTBEGIN
1070
    73
1070
     1
1070
    44
1040
1.0
1070
    74
1070
     0
1000
MTEXTEND
  0
MTEXT
  5
DB4
102
{ACAD_REACTORS
330
DF3
102
}
330
1A
100
AcDbEntity
  8
0
  6
Continuous
 62
     5
370
    35
100
AcDbMText
 10
516.2178658257174
 20
6.248887523187477
 30
0.0
 40
2.5
 41
0.0
 71
     7
 72
     5
  1
22.05.89 SM
 73
     1
 44
1.0
1001
PHOENIX7010
1002
{
1070
    41
1040
1.0
1002
}
1001
ACAD
1000
MTEXTBEGIN
1070
    73
1070
     1
1070
    44
1040
1.0
1070
    74
1070
     0
1000
MTEXTEND
  0
MTEXT
  5
DB5
102
{ACAD_REACTORS
330
DF3
102
}
330
1A
100
AcDbEntity
  8
0
  6
Continuous
 62
     5
370
    35
100
AcDbMText
 10
490.5289912646938
 20
6.248887523187477
 30
0.0
 40
2.5
 41
0.0
 71
     7
 72
     5
  1
Datum/{\Q20;Date:}
 73
     1
 44
1.0
1001
PHOENIX7010
1002
{
1070
    41
1040
1.0
1002
}
1001
ACAD
1000
MTEXTBEGIN
1070
    73
1070
     1
1070
    44
1040
1.0
1070
    74
1070
     0
1000
MTEXTEND
  0
LINE
  5
DB6
102
{ACAD_REACTORS
330
DF3
102
}
330
1A
100
AcDbEntity
  8
0
  6
Continuous
 62
     5
370
    35
100
AcDbLine
 10
488.9999999999997
 20
14.5
 30
0.0
 11
589.0
 21
14.5
 31
0.0
1001
PHOENIX7010
1002
{
1070
    41
1040
1.0
1002
}
  0
LINE
  5
DB7
102
{ACAD_REACTORS
330
DF3
102
}
330
1A
100
AcDbEntity
  8
0
  6
Continuous
 62
     5
100
AcDbLine
 10
579.4999999999998
 20
92.49999999999989
 30
0.0
 11
579.4999999999998
 21
99.49999999999988
 31
0.0
1001
PHOENIX7010
1002
{
1070
    62
1070
     5
1070
    41
1040
1.0
1002
}
  0
LINE
  5
DB8
102
{ACAD_REACTORS
330
DF3
102
}
330
1A
100
AcDbEntity
  8
0
  6
ACAD_ISO04W100
 62
     1
 48
0.1451612903225806
100
AcDbLine
 10
584.4999999999997
 20
91.49999999999989
 30
0.0
 11
584.4999999999997
 21
100.4999999999999
 31
0.0
1001
PHOENIX7010
1002
{
1070
    62
1070
     1
1070
    41
1040
1.0
1002
}
  0
CIRCLE
  5
DB9
102
{ACAD_REACTORS
330
DF3
102
}
330
1A
100
AcDbEntity
  8
0
  6
Continuous
 62
     5
100
AcDbCircle
 10
584.4999999999997
 20
95.99999999999988
 30
0.0
 40
1.75
1001
PHOENIX7010
1002
{
1070
    62
1070
     5
1070
    41
1040
1.0
1002
}
  0
CIRCLE
  5
DBA
102
{ACAD_REACTORS
330
DF3
102
}
330
1A
100
AcDbEntity
  8
0
  6
Continuous
 62
     5
100
AcDbCircle
 10
584.4999999999997
 20
95.99999999999988
 30
0.0
 40
3.5
1001
PHOENIX7010
1002
{
1070
    62
1070
     5
1070
    41
1040
1.0
1002
}
  0
LINE
  5
DBB
102
{ACAD_REACTORS
330
DF3
102
}
330
1A
100
AcDbEntity
  8
0
  6
Continuous
 62
     5
100
AcDbLine
 10
572.4999999999997
 20
94.24999999999988
 30
0.0
 11
572.4999999999997
 21
97.74999999999989
 31
0.0
1001
PHOENIX7010
1002
{
1070
    62
1070
     5
1070
    41
1040
1.0
1002
}
  0
LINE
  5
DBC
102
{ACAD_REACTORS
330
DF3
102
}
330
1A
100
AcDbEntity
  8
0
  6
ACAD_ISO04W100
 62
     1
 48
0.282258064516129
100
AcDbLine
 10
588.9999999999997
 20
95.99999999999988
 30
0.0
 11
571.4999999999998
 21
95.99999999999988
 31
0.0
1001
PHOENIX7010
1002
{
1070
    62
1070
     1
1070
    41
1040
1.0
1002
}
  0
LINE
  5
DBD
102
{ACAD_REACTORS
330
DF3
102
}
330
1A
100
AcDbEntity
  8
0
  6
Continuous
 62
     5
100
AcDbLine
 10
579.4999999999998
 20
92.49999999999989
 30
0.0
 11
572.4999999999997
 21
94.24999999999988
 31
0.0
1001
PHOENIX7010
1002
{
1070
    62
1070
     5
1070
    41
1040
1.0
1002
}
  0
LINE
  5
DBE
102
{ACAD_REACTORS
330
DF3
102
}
330
1A
100
AcDbEntity
  8
0
  6
Continuous
 62
     5
100
AcDbLine
 10
579.4999999999998
 20
99.49999999999988
 30
0.0
 11
572.4999999999997
 21
97.74999999999989
 31
0.0
1001
PHOENIX7010
1002
{
1070
    62
1070
     5
1070
    41
1040
1.0
1002
}
  0
ARC
  5
DBF
102
{ACAD_REACTORS
330
DF3
102
}
330
1A
100
AcDbEntity
  8
0
  6
Continuous
 62
     5
100
AcDbCircle
 10
491.4999999999998
 20
88.99999999999989
 30
0.0
 40
2.5
100
AcDbArc
 50
90.0
 51
180.0
1001
PHOENIX7010
1002
{
1070
    62
1070
     5
1070
    41
1040
1.0
1002
}
  0
ARC
  5
DC0
102
{ACAD_REACTORS
330
DF3
102
}
330
1A
100
AcDbEntity
  8
0
  6
Continuous
 62
     5
100
AcDbCircle
 10
491.4999999999998
 20
99.99999999999989
 30
0.0
 40
2.5
100
AcDbArc
 50
90.0
 51
180.0
1001
PHOENIX7010
1002
{
1070
    62
1070
     5
1070
    41
1040
1.0
1002
}
  0
LINE
  5
DC1
102
{ACAD_REACTORS
330
DF3
102
}
330
1A
100
AcDbEntity
  8
0
  6
Continuous
 62
     5
100
AcDbLine
 10
589.0
 20
91.49999999999989
 30
0.0
 11
491.4999999999998
 21
91.49999999999989
 31
0.0
1001
PHOENIX7010
1002
{
1070
    62
1070
     5
1070
    41
1040
1.0
1002
}
  0
LINE
  5
DC2
102
{ACAD_REACTORS
330
DF3
102
}
330
1A
100
AcDbEntity
  8
0
  6
Continuous
 62
     5
100
AcDbLine
 10
589.0
 20
102.4999999999999
 30
0.0
 11
491.4999999999998
 21
102.4999999999999
 31
0.0
1001
PHOENIX7010
1002
{
1070
    62
1070
     5
1070
    41
1040
1.0
1002
}
  0
LINE
  5
DC3
102
{ACAD_REACTORS
330
DF3
102
}
330
1A
100
AcDbEntity
  8
0
  6
Continuous
 62
     5
100
AcDbLine
 10
524.0
 20
48.0
 30
0.0
 11
524.0
 21
14.5
 31
0.0
1001
PHOENIX7010
1002
{
1070
    62
1070
     5
1070
    41
1040
1.0
1002
}
  0
TEXT
  5
DC4
102
{ACAD_REACTORS
330
DF3
102
}
330
1A
100
AcDbEntity
  8
0
  6
Continuous
 62
     1
100
AcDbText
 10
502.9999996997323
 20
42.74999981501344
 30
0.0
 40
2.0
  1
-
 41
1.5
100
AcDbText
1001
PHOENIX7010
1002
{
1070
    62
1070
     1
1070
    41
1040
1.0
1002
}
  0
TEXT
  5
DC5
102
{ACAD_REACTORS
330
DF3
102
}
330
1A
100
AcDbEntity
  8
0
  6
Continuous
 62
     1
100
AcDbText
 10
502.9999996997323
 20
40.24999981501344
 30
0.0
 40
2.0
  1
-
 41
1.5
100
AcDbText
1001
PHOENIX7010
1002
{
1070
    62
1070
     1
1070
    41
1040
1.0
1002
}
  0
TEXT
  5
DC6
102
{ACAD_REACTORS
330
DF3
102
}
330
1A
100
AcDbEntity
  8
0
  6
Continuous
 62
     1
100
AcDbText
 10
502.9999996997323
 20
45.24999981501344
 30
0.0
 40
2.0
  1
-
 41
1.5
100
AcDbText
1001
PHOENIX7010
1002
{
1070
    62
1070
     1
1070
    41
1040
1.0
1002
}
  0
TEXT
  5
DC7
102
{ACAD_REACTORS
330
DF3
102
}
330
1A
100
AcDbEntity
  8
0
  6
Continuous
 62
     1
100
AcDbText
 10
489.9999996997324
 20
42.74999981501344
 30
0.0
 40
2.0
  1
-
 41
1.5
100
AcDbText
1001
PHOENIX7010
1002
{
1070
    62
1070
     1
1070
    41
1040
1.0
1002
}
  0
TEXT
  5
DC8
102
{ACAD_REACTORS
330
DF3
102
}
330
1A
100
AcDbEntity
  8
0
  6
Continuous
 62
     1
100
AcDbText
 10
489.9999996997324
 20
40.24999981501344
 30
0.0
 40
2.0
  1
-
 41
1.5
100
AcDbText
1001
PHOENIX7010
1002
{
1070
    62
1070
     1
1070
    41
1040
1.0
1002
}
  0
TEXT
  5
DC9
102
{ACAD_REACTORS
330
DF3
102
}
330
1A
100
AcDbEntity
  8
0
  6
Continuous
 62
     1
100
AcDbText
 10
489.9999996997324
 20
45.24999981501344
 30
0.0
 40
2.0
  1
-
 41
1.5
100
AcDbText
1001
PHOENIX7010
1002
{
1070
    62
1070
     1
1070
    41
1040
1.0
1002
}
  0
ARC
  5
DCA
102
{ACAD_REACTORS
330
DF3
102
}
330
1A
100
AcDbEntity
  8
0
  6
Continuous
 62
     5
100
AcDbCircle
 10
491.4999999999998
 20
45.49999999999999
 30
0.0
 40
2.5
100
AcDbArc
 50
90.0
 51
180.0
1001
PHOENIX7010
1002
{
1070
    62
1070
     5
1070
    41
1040
1.0
1002
}
  0
ARC
  5
DCB
102
{ACAD_REACTORS
330
DF3
102
}
330
1A
100
AcDbEntity
  8
0
  6
Continuous
 62
     5
100
AcDbCircle
 10
491.4999999999998
 20
76.0
 30
0.0
 40
2.5
100
AcDbArc
 50
90.0
 51
180.0
1001
PHOENIX7010
1002
{
1070
    62
1070
     5
1070
    41
1040
1.0
1002
}
  0
TEXT
  5
DCC
102
{ACAD_REACTORS
330
DF3
102
}
330
1A
100
AcDbEntity
  8
0
  6
Continuous
 62
     1
100
AcDbText
 10
502.9999996997323
 20
25.24999981501344
 30
0.0
 40
2.0
  1
-
 41
1.5
100
AcDbText
1001
PHOENIX7010
1002
{
1070
    62
1070
     1
1070
    41
1040
1.0
1002
}
  0
TEXT
  5
DCD
102
{ACAD_REACTORS
330
DF3
102
}
330
1A
100
AcDbEntity
  8
0
  6
Continuous
 62
     1
100
AcDbText
 10
502.9999996997323
 20
22.74999981501344
 30
0.0
 40
2.0
  1
-
 41
1.5
100
AcDbText
1001
PHOENIX7010
1002
{
1070
    62
1070
     1
1070
    41
1040
1.0
1002
}
  0
TEXT
  5
DCE
102
{ACAD_REACTORS
330
DF3
102
}
330
1A
100
AcDbEntity
  8
0
  6
Continuous
 62
     1
100
AcDbText
 10
502.9999996997323
 20
30.24999981501344
 30
0.0
 40
2.0
  1
-
 41
1.5
100
AcDbText
1001
PHOENIX7010
1002
{
1070
    62
1070
     1
1070
    41
1040
1.0
1002
}
  0
TEXT
  5
DCF
102
{ACAD_REACTORS
330
DF3
102
}
330
1A
100
AcDbEntity
  8
0
  6
Continuous
 62
     1
100
AcDbText
 10
502.9999996997323
 20
27.74999981501344
 30
0.0
 40
2.0
  1
-
 41
1.5
100
AcDbText
1001
PHOENIX7010
1002
{
1070
    62
1070
     1
1070
    41
1040
1.0
1002
}
  0
TEXT
  5
DD0
102
{ACAD_REACTORS
330
DF3
102
}
330
1A
100
AcDbEntity
  8
0
  6
Continuous
 62
     1
100
AcDbText
 10
502.9999996997323
 20
32.74999981501344
 30
0.0
 40
2.0
  1
-
 41
1.5
100
AcDbText
1001
PHOENIX7010
1002
{
1070
    62
1070
     1
1070
    41
1040
1.0
1002
}
  0
TEXT
  5
DD1
102
{ACAD_REACTORS
330
DF3
102
}
330
1A
100
AcDbEntity
  8
0
  6
Continuous
 62
     1
100
AcDbText
 10
502.9999996997323
 20
35.24999981501344
 30
0.0
 40
2.0
  1
-
 41
1.5
100
AcDbText
1001
PHOENIX7010
1002
{
1070
    62
1070
     1
1070
    41
1040
1.0
1002
}
  0
TEXT
  5
DD2
102
{ACAD_REACTORS
330
DF3
102
}
330
1A
100
AcDbEntity
  8
0
  6
Continuous
 62
     1
100
AcDbText
 10
502.9999996997323
 20
37.74999981501344
 30
0.0
 40
2.0
  1
-
 41
1.5
100
AcDbText
1001
PHOENIX7010
1002
{
1070
    62
1070
     1
1070
    41
1040
1.0
1002
}
  0
TEXT
  5
DD3
102
{ACAD_REACTORS
330
DF3
102
}
330
1A
100
AcDbEntity
  8
0
  6
Continuous
 62
     1
100
AcDbText
 10
489.9999996997324
 20
25.24999981501344
 30
0.0
 40
2.0
  1
-
 41
1.5
100
AcDbText
1001
PHOENIX7010
1002
{
1070
    62
1070
     1
1070
    41
1040
1.0
1002
}
  0
TEXT
  5
DD4
102
{ACAD_REACTORS
330
DF3
102
}
330
1A
100
AcDbEntity
  8
0
  6
Continuous
 62
     1
100
AcDbText
 10
489.9999996997324
 20
22.74999981501344
 30
0.0
 40
2.0
  1
-
 41
1.5
100
AcDbText
1001
PHOENIX7010
1002
{
1070
    62
1070
     1
1070
    41
1040
1.0
1002
}
  0
TEXT
  5
DD5
102
{ACAD_REACTORS
330
DF3
102
}
330
1A
100
AcDbEntity
  8
0
  6
Continuous
 62
     1
100
AcDbText
 10
489.9999996997324
 20
30.24999981501344
 30
0.0
 40
2.0
  1
-
 41
1.5
100
AcDbText
1001
PHOENIX7010
1002
{
1070
    62
1070
     1
1070
    41
1040
1.0
1002
}
  0
TEXT
  5
DD6
102
{ACAD_REACTORS
330
DF3
102
}
330
1A
100
AcDbEntity
  8
0
  6
Continuous
 62
     1
100
AcDbText
 10
489.9999996997324
 20
27.74999981501344
 30
0.0
 40
2.0
  1
-
 41
1.5
100
AcDbText
1001
PHOENIX7010
1002
{
1070
    62
1070
     1
1070
    41
1040
1.0
1002
}
  0
TEXT
  5
DD7
102
{ACAD_REACTORS
330
DF3
102
}
330
1A
100
AcDbEntity
  8
0
  6
Continuous
 62
     1
100
AcDbText
 10
489.9999996997324
 20
32.74999981501344
 30
0.0
 40
2.0
  1
-
 41
1.5
100
AcDbText
1001
PHOENIX7010
1002
{
1070
    62
1070
     1
1070
    41
1040
1.0
1002
}
  0
TEXT
  5
DD8
102
{ACAD_REACTORS
330
DF3
102
}
330
1A
100
AcDbEntity
  8
0
  6
Continuous
 62
     1
100
AcDbText
 10
489.9999996997324
 20
35.24999981501344
 30
0.0
 40
2.0
  1
-
 41
1.5
100
AcDbText
1001
PHOENIX7010
1002
{
1070
    62
1070
     1
1070
    41
1040
1.0
1002
}
  0
TEXT
  5
DD9
102
{ACAD_REACTORS
330
DF3
102
}
330
1A
100
AcDbEntity
  8
0
  6
Continuous
 62
     1
100
AcDbText
 10
489.9999996997324
 20
37.74999981501344
 30
0.0
 40
2.0
  1
-
 41
1.5
100
AcDbText
1001
PHOENIX7010
1002
{
1070
    62
1070
     1
1070
    41
1040
1.0
1002
}
  0
LINE
  5
DDA
102
{ACAD_REACTORS
330
DF3
102
}
330
1A
100
AcDbEntity
  8
0
  6
Continuous
 62
     1
100
AcDbLine
 10
501.9999999999997
 20
48.0
 30
0.0
 11
501.9999999999997
 21
14.5
 31
0.0
1001
PHOENIX7010
1002
{
1070
    62
1070
     1
1070
    41
1040
1.0
1002
}
  0
LINE
  5
DDB
102
{ACAD_REACTORS
330
DF3
102
}
330
1A
100
AcDbEntity
  8
0
  6
Continuous
 62
     1
100
AcDbLine
 10
488.9999999999997
 20
21.5
 30
0.0
 11
524.0
 21
21.5
 31
0.0
1001
PHOENIX7010
1002
{
1070
    62
1070
     1
1070
    41
1040
1.0
1002
}
  0
LINE
  5
DDC
102
{ACAD_REACTORS
330
DF3
102
}
330
1A
100
AcDbEntity
  8
0
  6
Continuous
 62
     5
100
AcDbLine
 10
589.0
 20
78.5
 30
0.0
 11
491.4999999999998
 21
78.5
 31
0.0
1001
PHOENIX7010
1002
{
1070
    62
1070
     5
1070
    41
1040
1.0
1002
}
  0
LINE
  5
DDD
102
{ACAD_REACTORS
330
DF3
102
}
330
1A
100
AcDbEntity
  8
0
  6
Continuous
 62
     5
100
AcDbLine
 10
589.0
 20
48.0
 30
0.0
 11
491.4999999999998
 21
48.0
 31
0.0
1001
PHOENIX7010
1002
{
1070
    62
1070
     5
1070
    41
1040
1.0
1002
}
  0
LINE
  5
DDE
102
{ACAD_REACTORS
330
DF3
102
}
330
1A
100
AcDbEntity
  8
0
  6
Continuous
 62
     5
100
AcDbLine
 10
488.9999999999997
 20
99.99999999999989
 30
0.0
 11
488.9999999999997
 21
5.0
 31
0.0
1001
PHOENIX7010
1002
{
1070
    62
1070
     5
1070
    41
1040
1.0
1002
}
  0
INSERT
  5
DDF
102
{ACAD_REACTORS
330
DF3
102
}
330
1A
100
AcDbEntity
  8
0
  6
Continuous
 62
     5
370
    35
100
AcDbBlockReference
  2
PH_GRPBLK
 10
488.9999999999997
 20
14.5
 30
0.0
1001
PHOENIX7010
1002
{
1070
    41
1040
1.0
1002
}
  0
LWPOLYLINE
  5
DE1
102
{ACAD_REACTORS
330
D9D
102
}
330
1A
100
AcDbEntity
  8
0
  6
Continuous
 62
     7
 60
     1
370
    50
100
AcDbPolyline
 90
        5
 70
     1
 43
0.0
 10
581.4334749940256
 20
35.16453811398026
 10
574.7334749940255
 20
27.36453811398019
 10
586.7334749940255
 20
27.36453811398019
 10
586.7334749940255
 20
35.16453811398014
 10
581.4334749940256
 20
28.26453811398028
1001
PHOENIX7010
1002
{
1070
    41
1040
1.0
1002
}
  0
LWPOLYLINE
  5
DE2
102
{ACAD_REACTORS
330
D9E
102
}
330
1A
100
AcDbEntity
  8
0
  6
Continuous
 62
     7
 60
     1
370
    50
100
AcDbPolyline
 90
        3
 70
     1
 43
0.0
 10
573.8834749940255
 20
27.36453811398019
 10
573.8834749940255
 20
31.51453811398017
 10
578.0334749940254
 20
31.51453811398017
 42
2.414213562373094
1001
PHOENIX7010
1002
{
1070
    41
1040
1.0
1002
}
  0
MTEXT
  5
E1D
330
1A
100
AcDbEntity
  8
4
  6
Continuous
 62
     5
370
    35
100
AcDbMText
 10
145.8877834319574
 20
221.9002465915955
 30
0.0
 40
5.0
 41
0.0
 71
     7
 72
     5
  1
Senkung Am4 DIN74/\P{\Q20;countersunk Am4 DIN74}
 11
0.0000000000000002
 21
1.0
 31
0.0
 73
     1
 44
1.0
1001
PHOENIX7010
1002
{
1070
    41
1040
1.0
1002
}
1001
ACAD
1000
MTEXTBEGIN
1070
    73
1070
     1
1070
    44
1040
1.0
1070
    74
1070
     0
1000
MTEXTEND
  0
ENDSEC
  0
SECTION
  2
OBJECTS
  0
DICTIONARY
  5
C
330
0
100
AcDbDictionary
281
     1
  3
ACAD_COLOR
350
C08
  3
ACAD_GROUP
350
D
  3
ACAD_LAYOUT
350
C2F
  3
ACAD_MATERIAL
350
BDB
  3
ACAD_MLEADERSTYLE
350
C2D
  3
ACAD_MLINESTYLE
350
E
  3
ACAD_PLOTSETTINGS
350
C30
  3
ACAD_PLOTSTYLENAME
350
BD9
  3
ACAD_SCALELIST
350
C0B
  3
ACAD_TABLESTYLE
350
C09
  3
ACAD_VISUALSTYLE
350
BF4
  3
ACASAPPOBJECT
350
D4
  3
ACASGREF_MASTER
350
84
  3
ACCELVIEW
350
DA
  3
ACDB_RECOMPOSE_DATA
350
E49
  3
AcDbVariableDictionary
350
E28
  3
ACDMSYSVARMGR
350
A0
  3
ACGREF_MASTER
350
82
  3
ACME_COMMAND_HISTORY
350
80
  3
ACME_SCOPE_NAME
350
7F
  3
AD_APPL
350
93
  3
AD_DRAWMGR_NAME
350
B4
  3
AD_GREF_MODULE
350
9B
  3
AD_HOLENOTE_REPOSITORY
350
9A
  3
ADSYSVARMGR
350
89
  3
AMI_MASTER
350
83
  3
AUTOCAD_ASSEMBLIES_PROJECT
350
C0
  3
DESIGNER_ASSEMBLIES_SYSVARS
350
BB
  3
DWGPROPS
350
E4A
  3
PH_OBJREACTOR_DICT
350
3C
  3
PH_ROOTGROUP_DICT
350
3B
  3
PH_VARS
350
31
  0
DICTIONARY
  5
CE1
330
2
100
AcDbDictionary
280
     1
281
     1
  3
ACAD_LAYERSTATES
360
CE2
  0
DICTIONARY
  5
D5E
330
F
100
AcDbDictionary
280
     1
281
     1
  3
ADSK_XREC_LAYER_RECONCILED
360
D5F
  0
DICTIONARY
  5
D60
330
44
100
AcDbDictionary
280
     1
281
     1
  3
ADSK_XREC_LAYER_RECONCILED
360
D61
  0
DICTIONARY
  5
D62
330
48
100
AcDbDictionary
280
     1
281
     1
  3
ADSK_XREC_LAYER_RECONCILED
360
D63
  0
DICTIONARY
  5
D64
330
4A
100
AcDbDictionary
280
     1
281
     1
  3
ADSK_XREC_LAYER_RECONCILED
360
D65
  0
DICTIONARY
  5
D66
330
B6
100
AcDbDictionary
280
     1
281
     1
  3
ADSK_XREC_LAYER_RECONCILED
360
D67
  0
DICTIONARY
  5
D68
330
B7
100
AcDbDictionary
280
     1
281
     1
  3
ADSK_XREC_LAYER_RECONCILED
360
D69
  0
DICTIONARY
  5
D6A
330
B8
100
AcDbDictionary
280
     1
281
     1
  3
ADSK_XREC_LAYER_RECONCILED
360
D6B
  0
DICTIONARY
  5
D6C
330
B9
100
AcDbDictionary
280
     1
281
     1
  3
ADSK_XREC_LAYER_RECONCILED
360
D6D
  0
DICTIONARY
  5
D6E
330
BA
100
AcDbDictionary
280
     1
281
     1
  3
ADSK_XREC_LAYER_RECONCILED
360
D6F
  0
DICTIONARY
  5
D70
330
CB
100
AcDbDictionary
280
     1
281
     1
  3
ADSK_XREC_LAYER_RECONCILED
360
D71
  0
DICTIONARY
  5
D72
330
CC
100
AcDbDictionary
280
     1
281
     1
  3
ADSK_XREC_LAYER_RECONCILED
360
D73
  0
DICTIONARY
  5
D74
330
CD
100
AcDbDictionary
280
     1
281
     1
  3
ADSK_XREC_LAYER_RECONCILED
360
D75
  0
DICTIONARY
  5
D76
330
68B
100
AcDbDictionary
280
     1
281
     1
  3
ADSK_XREC_LAYER_RECONCILED
360
D77
  0
DICTIONARY
  5
D78
330
697
100
AcDbDictionary
280
     1
281
     1
  3
ADSK_XREC_LAYER_RECONCILED
360
D79
  0
DICTIONARY
  5
D7A
330
6AD
100
AcDbDictionary
280
     1
281
     1
  3
ADSK_XREC_LAYER_RECONCILED
360
D7B
  0
DICTIONARY
  5
D7C
330
CE0
100
AcDbDictionary
280
     1
281
     1
  3
ADSK_XREC_LAYER_RECONCILED
360
D7D
  0
DICTIONARY
  5
E47
330
DA6
100
AcDbDictionary
280
     1
281
     1
  3
ACAD_MTEXT_2008_RT
360
E48
  0
DICTIONARY
  5
C08
102
{ACAD_REACTORS
330
C
102
}
330
C
100
AcDbDictionary
281
     1
  0
DICTIONARY
  5
D
102
{ACAD_REACTORS
330
C
102
}
330
C
100
AcDbDictionary
281
     1
  3
PH_BOUNDARYLIST
350
3D
  0
DICTIONARY
  5
C2F
102
{ACAD_REACTORS
330
C
102
}
330
C
100
AcDbDictionary
281
     1
  3
Layout1
350
C32
  3
Model
350
C31
  0
DICTIONARY
  5
BDB
102
{ACAD_REACTORS
330
C
102
}
330
C
100
AcDbDictionary
281
     1
  3
ByBlock
350
BE4
  3
ByLayer
350
BDC
  3
Global
350
BEC
  0
DICTIONARY
  5
C2D
102
{ACAD_REACTORS
330
C
102
}
330
C
100
AcDbDictionary
281
     1
  3
Standard
350
C2E
  0
DICTIONARY
  5
E
102
{ACAD_REACTORS
330
C
102
}
330
C
100
AcDbDictionary
281
     1
  3
STANDARD
350
13
  0
DICTIONARY
  5
C30
102
{ACAD_REACTORS
330
C
102
}
330
C
100
AcDbDictionary
281
     1
  0
ACDBDICTIONARYWDFLT
  5
BD9
102
{ACAD_REACTORS
330
C
102
}
330
C
100
AcDbDictionary
281
     1
  3
Normal
350
BDA
100
AcDbDictionaryWithDefault
340
BDA
  0
DICTIONARY
  5
C0B
102
{ACAD_REACTORS
330
C
102
}
330
C
100
AcDbDictionary
281
     1
  3
A0
350
C0C
  3
A1
350
C0D
  3
A2
350
C0E
  3
A3
350
C0F
  3
A4
350
C10
  3
A5
350
C11
  3
A6
350
C12
  3
A7
350
C13
  3
A8
350
C14
  3
A9
350
C15
  3
B0
350
C16
  3
B1
350
C17
  3
B2
350
C18
  3
B3
350
C19
  3
B4
350
C1A
  3
B5
350
C1B
  3
B6
350
C1C
  3
B7
350
C1D
  3
B8
350
C1E
  3
B9
350
C1F
  3
C0
350
C20
  3
C1
350
C21
  3
C2
350
C22
  3
C3
350
C23
  3
C4
350
C24
  3
C5
350
C25
  3
C6
350
C26
  3
C7
350
C27
  3
C8
350
C28
  3
C9
350
C29
  3
D0
350
C2A
  3
D1
350
C2B
  3
D2
350
C2C
  0
DICTIONARY
  5
C09
102
{ACAD_REACTORS
330
C
102
}
330
C
100
AcDbDictionary
281
     1
  3
Standard
350
C0A
  0
DICTIONARY
  5
BF4
102
{ACAD_REACTORS
330
C
102
}
330
C
100
AcDbDictionary
281
     1
  3
2dWireframe
350
BFA
  3
3D Hidden
350
BFC
  3
3dWireframe
350
BFB
  3
Basic
350
BF9
  3
Brighten
350
C00
  3
ColorChange
350
C04
  3
Conceptual
350
BFD
  3
Dim
350
BFF
  3
EdgeColorOff
350
C07
  3
Facepattern
350
C03
  3
Flat
350
BF5
  3
FlatWithEdges
350
BF6
  3
Gouraud
350
BF7
  3
GouraudWithEdges
350
BF8
  3
JitterOff
350
C05
  3
Linepattern
350
C02
  3
OverhangOff
350
C06
  3
Realistic
350
BFE
  3
Thicken
350
C01
  0
ACAD_PROXY_OBJECT
  5
D4
102
{ACAD_REACTORS
330
C
102
}
330
C
100
AcDbProxyObject
 90
      499
 91
      540
 95
   393235
 70
     0
 93
        2
310
BF
360
D2
 94
        0
1001
ACAD
1000
AcRTDxfName
1000
ASAPP
  0
ACAD_PROXY_OBJECT
  5
84
102
{ACAD_REACTORS
330
C
102
}
330
C
100
AcDbProxyObject
 90
      499
 91
      506
 95
   393235
 70
     0
 93
       34
310
010000407F
 94
        0
1001
ACAD
1000
AcRTDxfName
1000
ACASGREFMASTER
  0
ACAD_PROXY_OBJECT
  5
DA
102
{ACAD_REACTORS
330
C
102
}
330
C
100
AcDbProxyObject
 90
      499
 91
      541
 95
   393235
 70
     0
 93
       12
310
901F
330
0
 94
        0
1001
ACAD
1000
AcRTDxfName
1000
AGDICTIONARY
  0
XRECORD
  5
E49
102
{ACAD_REACTORS
330
C
102
}
330
C
100
AcDbXrecord
280
     1
 90
        1
330
C0A
330
DA6
  0
DICTIONARY
  5
E28
102
{ACAD_REACTORS
330
C
102
}
330
C
100
AcDbDictionary
281
     1
  3
CANNOSCALE
350
E2C
  3
CMLEADERSTYLE
350
E2A
  3
CTABLESTYLE
350
E29
  3
DIMASSOC
350
E43
  3
INDEXCTL
350
E42
  3
LAYEREVAL
350
E2E
  3
LAYERNOTIFY
350
E2F
  3
LIGHTINGUNITS
350
E2D
  3
MSLTSCALE
350
E2B
  3
SORTENTS
350
E41
  3
XCLIPFRAME
350
E44
  0
ACAD_PROXY_OBJECT
  5
A0
102
{ACAD_REACTORS
330
C
102
}
330
C
100
AcDbProxyObject
 90
      499
 91
      511
 95
   393235
 70
     0
 93
      184
310
4C5124810100000000000000000000000000000000000000
330
A1
330
A2
330
A3
330
A4
330
A5
330
A6
330
A7
330
A9
330
AA
330
AB
330
AC
330
AD
330
AE
330
AF
330
B0
330
B1
330
B2
330
B3
 94
        0
1001
ACAD
1000
AcRTDxfName
1000
"IM_SYSVAR_MAN"
  0
ACAD_PROXY_OBJECT
  5
82
102
{ACAD_REACTORS
330
C
102
}
330
C
100
AcDbProxyObject
 90
      499
 91
      504
 95
   393235
 70
     0
 93
      114
310
01010041000000000000000000003F
 94
        0
1001
ACAD
1000
AcRTDxfName
1000
ACGREFMASTER
  0
ACAD_PROXY_OBJECT
  5
80
102
{ACAD_REACTORS
330
C
102
}
330
C
100
AcDbProxyObject
 90
      499
 91
      502
 95
   393235
 70
     0
 93
     1726
310
4280508554E444546494E4580508554E444546494E458050C41445F434F4E56455254523140805084E202D20554E444F014213880B4815539113C050C414D4C54595045434845434B41405084E202D20554E444F014313880B481312539155165411405094E202D204C41594552014313880B481312539155165411405084E
310
202D20554E444F01431053531516541150D21150D2D03014213880B4815539113C05094E202D204C41594552014213880B4815539113C0504554E444F80504554E444F80504554E444F80504554E444F80506534156454153B
 94
        0
1001
ACAD
1000
AcRTDxfName
1000
ACMECOMMANDHISTORY
  0
ACAD_PROXY_OBJECT
  5
7F
102
{ACAD_REACTORS
330
C
102
}
330
C
100
AcDbProxyObject
 90
      499
 91
      501
 95
   393235
 70
     0
 93
      464
310
0101004093200000000000000000000000000000000000000000000000000000000000000000000000000000000000000000000000000009010074
360
85
360
86
360
87
360
88
360
8A
360
8B
360
8C
360
8D
360
8E
360
8F
360
90
360
91
360
92
360
95
360
96
360
97
360
98
360
99
360
9C
360
9D
360
9E
360
9F
360
A1
360
A2
360
A3
360
A4
360
A5
360
A6
360
A7
360
A9
360
AA
360
AB
360
AC
360
AD
360
AE
360
AF
360
B0
360
B1
360
B2
360
B3
360
BC
360
BD
360
BE
360
BF
360
C6
360
C7
360
C8
360
C9
360
CA
360
CE
330
0
 94
        0
1001
ACAD
1000
AcRTDxfName
1000
ACMESCOPE
  0
ACAD_PROXY_OBJECT
  5
93
102
{ACAD_REACTORS
330
C
102
}
330
C
100
AcDbProxyObject
 90
      499
 91
      515
 95
   393235
 70
     0
 93
       42
310
00010200453F
330
85
 94
        0
1001
ACAD
1000
AcRTDxfName
1000
NAMEDAPPL
  0
ACAD_PROXY_OBJECT
  5
B4
102
{ACAD_REACTORS
330
C
102
}
330
C
100
AcDbProxyObject
 90
      499
 91
      527
 95
   393235
 70
     0
 93
       42
310
00010000453F
330
9C
 94
        0
1001
ACAD
1000
AcRTDxfName
1000
AM_DWGMGR_NAME
  0
ACAD_PROXY_OBJECT
  5
9B
102
{ACAD_REACTORS
330
C
102
}
330
C
100
AcDbProxyObject
 90
      499
 91
      522
 95
   393235
 70
     0
 93
      114
310
00000042800000000000000000003F
 94
        0
1001
ACAD
1000
AcRTDxfName
1000
AcAdGrefModule
  0
ACAD_PROXY_OBJECT
  5
9A
102
{ACAD_REACTORS
330
C
102
}
330
C
100
AcDbProxyObject
 90
      499
 91
      521
 95
   393235
 70
     0
 93
        8
310
0000
330
99
 94
        0
1001
ACAD
1000
AcRTDxfName
1000
AM_HNTEMPLATE_MGR_NAME
  0
ACAD_PROXY_OBJECT
  5
89
102
{ACAD_REACTORS
330
C
102
}
330
C
100
AcDbProxyObject
 90
      499
 91
      511
 95
   393235
 70
     0
 93
      104
310
9094410100000000000000000000
330
8A
330
8B
330
8C
330
8D
330
8E
330
8F
330
90
330
91
330
92
 94
        0
1001
ACAD
1000
AcRTDxfName
1000
"IM_SYSVAR_MAN"
  0
ACAD_PROXY_OBJECT
  5
83
102
{ACAD_REACTORS
330
C
102
}
330
C
100
AcDbProxyObject
 90
      499
 91
      505
 95
   393235
 70
     0
 93
       34
310
010000407F
 94
        0
1001
ACAD
1000
AcRTDxfName
1000
AmiMaster
  0
ACAD_PROXY_OBJECT
  5
C0
102
{ACAD_REACTORS
330
C
102
}
330
C
100
AcDbProxyObject
 90
      499
 91
      528
 95
   393235
 70
     0
 93
       58
310
010200420000003F
330
C8
330
CE
330
C9
 94
        0
1001
ACAD
1000
AcRTDxfName
1000
ACAMPROJECT
  0
ACAD_PROXY_OBJECT
  5
BB
102
{ACAD_REACTORS
330
C
102
}
330
C
100
AcDbProxyObject
 90
      499
 91
      511
 95
   393235
 70
     0
 93
       64
310
904441010000000000
330
BC
330
BD
330
BE
330
BF
 94
        0
1001
ACAD
1000
AcRTDxfName
1000
"IM_SYSVAR_MAN"
  0
XRECORD
  5
E4A
102
{ACAD_REACTORS
330
C
102
}
330
C
100
AcDbXrecord
280
     1
  1
DWGPROPS COOKIE
  2

  3

  4

  6

  7

  8
kleemann
  9

300
=
301
=
302
=
303
=
304
=
305
=
306
=
307
=
308
=
309
=
 40
0.0183255671296296
 41
2450973.508783102
 42
2457003.39723441
  1

 90
        0
  0
DICTIONARY
  5
3C
102
{ACAD_REACTORS
330
C
102
}
330
C
100
AcDbDictionary
281
     1
  0
DICTIONARY
  5
3B
102
{ACAD_REACTORS
330
C
102
}
330
C
100
AcDbDictionary
281
     1
  3
$PH$AAAA
350
688
  3
$PH$AAAB
350
695
  3
$PH$AAAC
350
69F
  3
$PH$AAAD
350
6A9
  3
$PH$AAAE
350
6B6
  3
$PH$AAAF
350
6C2
  3
$PH$AAAG
350
6D2
  3
$PH$AAAH
350
6E4
  3
$PH$AAAI
350
6F0
  3
$PH$AAAJ
350
6FE
  3
$PH$AAAK
350
708
  3
$PH$AAAL
350
718
  3
$PH$AAAM
350
722
  3
$PH$AAAN
350
72C
  3
$PH$AAAO
350
73A
  3
$PH$AAAP
350
741
  3
$PH$AAAQ
350
7AC
  3
$PH$AABB2H
350
D5C
  3
$PH$AABE
350
DEE
  3
PH_GRPMEMBERS
350
DF6
  0
PH_VARS
  5
31
102
{ACAD_REACTORS
330
C
102
}
330
C
  0
DICTIONARY
  5
CE2
102
{ACAD_REACTORS
330
CE1
102
}
330
CE1
100
AcDbDictionary
281
     1
  0
XRECORD
  5
D5F
102
{ACAD_REACTORS
330
D5E
102
}
330
D5E
100
AcDbXrecord
280
     1
290
     1
  0
XRECORD
  5
D61
102
{ACAD_REACTORS
330
D60
102
}
330
D60
100
AcDbXrecord
280
     1
290
     1
  0
XRECORD
  5
D63
102
{ACAD_REACTORS
330
D62
102
}
330
D62
100
AcDbXrecord
280
     1
290
     1
  0
XRECORD
  5
D65
102
{ACAD_REACTORS
330
D64
102
}
330
D64
100
AcDbXrecord
280
     1
290
     1
  0
XRECORD
  5
D67
102
{ACAD_REACTORS
330
D66
102
}
330
D66
100
AcDbXrecord
280
     1
290
     1
  0
XRECORD
  5
D69
102
{ACAD_REACTORS
330
D68
102
}
330
D68
100
AcDbXrecord
280
     1
290
     1
  0
XRECORD
  5
D6B
102
{ACAD_REACTORS
330
D6A
102
}
330
D6A
100
AcDbXrecord
280
     1
290
     1
  0
XRECORD
  5
D6D
102
{ACAD_REACTORS
330
D6C
102
}
330
D6C
100
AcDbXrecord
280
     1
290
     1
  0
XRECORD
  5
D6F
102
{ACAD_REACTORS
330
D6E
102
}
330
D6E
100
AcDbXrecord
280
     1
290
     1
  0
XRECORD
  5
D71
102
{ACAD_REACTORS
330
D70
102
}
330
D70
100
AcDbXrecord
280
     1
290
     1
  0
XRECORD
  5
D73
102
{ACAD_REACTORS
330
D72
102
}
330
D72
100
AcDbXrecord
280
     1
290
     1
  0
XRECORD
  5
D75
102
{ACAD_REACTORS
330
D74
102
}
330
D74
100
AcDbXrecord
280
     1
290
     1
  0
XRECORD
  5
D77
102
{ACAD_REACTORS
330
D76
102
}
330
D76
100
AcDbXrecord
280
     1
290
     1
  0
XRECORD
  5
D79
102
{ACAD_REACTORS
330
D78
102
}
330
D78
100
AcDbXrecord
280
     1
290
     1
  0
XRECORD
  5
D7B
102
{ACAD_REACTORS
330
D7A
102
}
330
D7A
100
AcDbXrecord
280
     1
290
     1
  0
XRECORD
  5
D7D
102
{ACAD_REACTORS
330
D7C
102
}
330
D7C
100
AcDbXrecord
280
     1
290
     1
  0
XRECORD
  5
E48
102
{ACAD_REACTORS
330
E47
102
}
330
E47
100
AcDbXrecord
280
     1
 40
46997.0
  1
\pxql;{\fArial|b1|i0|c0|p34;\W1.1;BOPLA}
  0
GROUP
  5
3D
102
{ACAD_REACTORS
330
D
102
}
330
D
100
AcDbGroup
300

 70
     0
 71
     0
  0
LAYOUT
  5
C32
102
{ACAD_XDICTIONARY
360
E77
102
}
102
{ACAD_REACTORS
330
C2F
102
}
330
C2F
100
AcDbPlotSettings
  1

  2
\\boplaprint3\dev_konstuktion
  4

  6

 40
0.0
 41
0.0
 42
0.0
 43
0.0
 44
0.0
 45
0.0
 46
0.0
 47
0.0
 48
0.0
 49
0.0
140
0.0
141
0.0
142
1.0
143
1.0
 70
   688
 72
     0
 73
     0
 74
     5
  7
HP_SW.ctb
 75
    16
147
1.0
148
0.0
149
0.0
100
AcDbLayout
  1
Layout1
 70
     1
 71
     1
 10
0.0
 20
0.0
 11
420.0
 21
297.0
 12
0.0
 22
0.0
 32
0.0
 14
1.000000000000000E+20
 24
1.000000000000000E+20
 34
1.000000000000000E+20
 15
-1.000000000000000E+20
 25
-1.000000000000000E+20
 35
-1.000000000000000E+20
146
0.0
 13
0.0
 23
0.0
 33
0.0
 16
1.0
 26
0.0
 36
0.0
 17
0.0
 27
1.0
 37
0.0
 76
     0
330
17
  0
LAYOUT
  5
C31
102
{ACAD_XDICTIONARY
360
D85
102
}
102
{ACAD_REACTORS
330
C2F
102
}
330
C2F
100
AcDbPlotSettings
  1

  2
\\boplaprint3\dev_konstuktion
  4
A4
  6

 40
5.027082920074462
 41
5.027099609375
 42
5.027069091796875
 43
5.027069091796875
 44
209.8886566162109
 45
297.0530090332031
 46
0.0
 47
0.0
 48
0.0
 49
0.0
140
0.0
141
0.0
142
1.0
143
64.65976233288484
 70
 11952
 72
     0
 73
     1
 74
     0
  7
HP_SW.ctb
 75
     0
147
0.015465568754363
148
1734.991073408744
149
9.663412665523537
100
AcDbLayout
  1
Model
 70
     1
 71
     0
 10
0.0
 20
0.0
 11
12.0
 21
9.0
 12
0.0
 22
0.0
 32
0.0
 14
0.0
 24
0.0
 34
0.0
 15
0.0
 25
0.0
 35
0.0
146
0.0
 13
0.0
 23
0.0
 33
0.0
 16
1.0
 26
0.0
 36
0.0
 17
0.0
 27
1.0
 37
0.0
 76
     0
330
1A
331
BD7
1001
ACAD_PSEXT
1000
\\boplaprint3\dev_konstuktion
1000
Generic 35C-4 Series PS
1000
Flur Konstruktion
1000
F-Ineo
1070
     0
  0
MATERIAL
  5
BE4
102
{ACAD_XDICTIONARY
360
BE5
102
}
102
{ACAD_REACTORS
330
BDB
102
}
330
BDB
100
AcDbMaterial
  1
ByBlock
 72
     0
 43
0.0208333333333333
 43
0.0
 43
0.0
 43
0.0
 43
0.0
 43
0.0208333333333333
 43
0.0
 43
0.0
 43
0.0
 43
0.0
 43
1.0
 43
0.0
 43
0.0
 43
0.0
 43
0.0
 43
1.0
 77
     0
 47
0.0208333333333333
 47
0.0
 47
0.0
 47
0.0
 47
0.0
 47
0.0208333333333333
 47
0.0
 47
0.0
 47
0.0
 47
0.0
 47
1.0
 47
0.0
 47
0.0
 47
0.0
 47
0.0
 47
1.0
171
     0
 49
0.0208333333333333
 49
0.0
 49
0.0
 49
0.0
 49
0.0
 49
0.0208333333333333
 49
0.0
 49
0.0
 49
0.0
 49
0.0
 49
1.0
 49
0.0
 49
0.0
 49
0.0
 49
0.0
 49
1.0
175
     0
142
0.0208333333333333
142
0.0
142
0.0
142
0.0
142
0.0
142
0.0208333333333333
142
0.0
142
0.0
142
0.0
142
0.0
142
1.0
142
0.0
142
0.0
142
0.0
142
0.0
142
1.0
179
     0
144
0.0208333333333333
144
0.0
144
0.0
144
0.0
144
0.0
144
0.0208333333333333
144
0.0
144
0.0
144
0.0
144
0.0
144
1.0
144
0.0
144
0.0
144
0.0
144
0.0
144
1.0
147
0.0208333333333333
147
0.0
147
0.0
147
0.0
147
0.0
147
0.0208333333333333
147
0.0
147
0.0
147
0.0
147
0.0
147
1.0
147
0.0
147
0.0
147
0.0
147
0.0
147
1.0
  0
MATERIAL
  5
BDC
102
{ACAD_XDICTIONARY
360
BDD
102
}
102
{ACAD_REACTORS
330
BDB
102
}
330
BDB
100
AcDbMaterial
  1
ByLayer
 72
     0
 43
0.0208333333333333
 43
0.0
 43
0.0
 43
0.0
 43
0.0
 43
0.0208333333333333
 43
0.0
 43
0.0
 43
0.0
 43
0.0
 43
1.0
 43
0.0
 43
0.0
 43
0.0
 43
0.0
 43
1.0
 77
     0
 47
0.0208333333333333
 47
0.0
 47
0.0
 47
0.0
 47
0.0
 47
0.0208333333333333
 47
0.0
 47
0.0
 47
0.0
 47
0.0
 47
1.0
 47
0.0
 47
0.0
 47
0.0
 47
0.0
 47
1.0
171
     0
 49
0.0208333333333333
 49
0.0
 49
0.0
 49
0.0
 49
0.0
 49
0.0208333333333333
 49
0.0
 49
0.0
 49
0.0
 49
0.0
 49
1.0
 49
0.0
 49
0.0
 49
0.0
 49
0.0
 49
1.0
175
     0
142
0.0208333333333333
142
0.0
142
0.0
142
0.0
142
0.0
142
0.0208333333333333
142
0.0
142
0.0
142
0.0
142
0.0
142
1.0
142
0.0
142
0.0
142
0.0
142
0.0
142
1.0
179
     0
144
0.0208333333333333
144
0.0
144
0.0
144
0.0
144
0.0
144
0.0208333333333333
144
0.0
144
0.0
144
0.0
144
0.0
144
1.0
144
0.0
144
0.0
144
0.0
144
0.0
144
1.0
147
0.0208333333333333
147
0.0
147
0.0
147
0.0
147
0.0
147
0.0208333333333333
147
0.0
147
0.0
147
0.0
147
0.0
147
1.0
147
0.0
147
0.0
147
0.0
147
0.0
147
1.0
  0
MATERIAL
  5
BEC
102
{ACAD_XDICTIONARY
360
BED
102
}
102
{ACAD_REACTORS
330
BDB
102
}
330
BDB
100
AcDbMaterial
  1
Global
 72
     0
 43
0.0208333333333333
 43
0.0
 43
0.0
 43
0.0
 43
0.0
 43
0.0208333333333333
 43
0.0
 43
0.0
 43
0.0
 43
0.0
 43
1.0
 43
0.0
 43
0.0
 43
0.0
 43
0.0
 43
1.0
 77
     0
 47
0.0208333333333333
 47
0.0
 47
0.0
 47
0.0
 47
0.0
 47
0.0208333333333333
 47
0.0
 47
0.0
 47
0.0
 47
0.0
 47
1.0
 47
0.0
 47
0.0
 47
0.0
 47
0.0
 47
1.0
171
     0
 49
0.0208333333333333
 49
0.0
 49
0.0
 49
0.0
 49
0.0
 49
0.0208333333333333
 49
0.0
 49
0.0
 49
0.0
 49
0.0
 49
1.0
 49
0.0
 49
0.0
 49
0.0
 49
0.0
 49
1.0
175
     0
142
0.0208333333333333
142
0.0
142
0.0
142
0.0
142
0.0
142
0.0208333333333333
142
0.0
142
0.0
142
0.0
142
0.0
142
1.0
142
0.0
142
0.0
142
0.0
142
0.0
142
1.0
179
     0
144
0.0208333333333333
144
0.0
144
0.0
144
0.0
144
0.0
144
0.0208333333333333
144
0.0
144
0.0
144
0.0
144
0.0
144
1.0
144
0.0
144
0.0
144
0.0
144
0.0
144
1.0
147
0.0208333333333333
147
0.0
147
0.0
147
0.0
147
0.0
147
0.0208333333333333
147
0.0
147
0.0
147
0.0
147
0.0
147
1.0
147
0.0
147
0.0
147
0.0
147
0.0
147
1.0
  0
MLEADERSTYLE
  5
C2E
102
{ACAD_REACTORS
330
C2D
102
}
330
C2D
100
AcDbMLeaderStyle
170
     2
171
     1
172
     0
 90
        2
 40
0.0
 41
0.0
173
     1
 91
-1056964608
340
14
 92
       -2
290
     1
 42
0.09
291
     1
 43
0.36
  3
Standard
 44
0.18
300

342
10
174
     1
178
     6
175
     1
176
     0
 93
-1056964608
 45
0.18
292
     0
297
     0
 46
0.18
 94
-1056964608
 47
1.0
 49
1.0
140
1.0
293
     1
141
0.0
294
     1
177
     0
142
1.0
295
     0
296
     0
143
0.125
1001
ACAD_MLEADERVER
1070
     2
  0
MLINESTYLE
  5
13
102
{ACAD_REACTORS
330
E
102
}
330
E
100
AcDbMlineStyle
  2
STANDARD
 70
     0
  3

 62
     0
 51
90.0
 52
90.0
 71
     2
 49
0.5
 62
   256
  6
BYLAYER
 49
-0.5
 62
   256
  6
BYLAYER
  0
ACDBPLACEHOLDER
  5
BDA
102
{ACAD_REACTORS
330
BD9
102
}
330
BD9
  0
SCALE
  5
C0C
102
{ACAD_REACTORS
330
C0B
102
}
330
C0B
100
AcDbScale
 70
     0
300
1:1
140
1.0
141
1.0
290
     1
  0
SCALE
  5
C0D
102
{ACAD_REACTORS
330
C0B
102
}
330
C0B
100
AcDbScale
 70
     0
300
1:2
140
1.0
141
2.0
290
     0
  0
SCALE
  5
C0E
102
{ACAD_REACTORS
330
C0B
102
}
330
C0B
100
AcDbScale
 70
     0
300
1:4
140
1.0
141
4.0
290
     0
  0
SCALE
  5
C0F
102
{ACAD_REACTORS
330
C0B
102
}
330
C0B
100
AcDbScale
 70
     0
300
1:5
140
1.0
141
5.0
290
     0
  0
SCALE
  5
C10
102
{ACAD_REACTORS
330
C0B
102
}
330
C0B
100
AcDbScale
 70
     0
300
1:8
140
1.0
141
8.0
290
     0
  0
SCALE
  5
C11
102
{ACAD_REACTORS
330
C0B
102
}
330
C0B
100
AcDbScale
 70
     0
300
1:10
140
1.0
141
10.0
290
     0
  0
SCALE
  5
C12
102
{ACAD_REACTORS
330
C0B
102
}
330
C0B
100
AcDbScale
 70
     0
300
1:16
140
1.0
141
16.0
290
     0
  0
SCALE
  5
C13
102
{ACAD_REACTORS
330
C0B
102
}
330
C0B
100
AcDbScale
 70
     0
300
1:20
140
1.0
141
20.0
290
     0
  0
SCALE
  5
C14
102
{ACAD_REACTORS
330
C0B
102
}
330
C0B
100
AcDbScale
 70
     0
300
1:30
140
1.0
141
30.0
290
     0
  0
SCALE
  5
C15
102
{ACAD_REACTORS
330
C0B
102
}
330
C0B
100
AcDbScale
 70
     0
300
1:40
140
1.0
141
40.0
290
     0
  0
SCALE
  5
C16
102
{ACAD_REACTORS
330
C0B
102
}
330
C0B
100
AcDbScale
 70
     0
300
1:50
140
1.0
141
50.0
290
     0
  0
SCALE
  5
C17
102
{ACAD_REACTORS
330
C0B
102
}
330
C0B
100
AcDbScale
 70
     0
300
1:100
140
1.0
141
100.0
290
     0
  0
SCALE
  5
C18
102
{ACAD_REACTORS
330
C0B
102
}
330
C0B
100
AcDbScale
 70
     0
300
2:1
140
2.0
141
1.0
290
     0
  0
SCALE
  5
C19
102
{ACAD_REACTORS
330
C0B
102
}
330
C0B
100
AcDbScale
 70
     0
300
4:1
140
4.0
141
1.0
290
     0
  0
SCALE
  5
C1A
102
{ACAD_REACTORS
330
C0B
102
}
330
C0B
100
AcDbScale
 70
     0
300
8:1
140
8.0
141
1.0
290
     0
  0
SCALE
  5
C1B
102
{ACAD_REACTORS
330
C0B
102
}
330
C0B
100
AcDbScale
 70
     0
300
10:1
140
10.0
141
1.0
290
     0
  0
SCALE
  5
C1C
102
{ACAD_REACTORS
330
C0B
102
}
330
C0B
100
AcDbScale
 70
     0
300
100:1
140
100.0
141
1.0
290
     0
  0
SCALE
  5
C1D
102
{ACAD_REACTORS
330
C0B
102
}
330
C0B
100
AcDbScale
 70
     0
300
1/128" = 1'-0"
140
0.0078125
141
12.0
290
     0
  0
SCALE
  5
C1E
102
{ACAD_REACTORS
330
C0B
102
}
330
C0B
100
AcDbScale
 70
     0
300
1/64" = 1'-0"
140
0.015625
141
12.0
290
     0
  0
SCALE
  5
C1F
102
{ACAD_REACTORS
330
C0B
102
}
330
C0B
100
AcDbScale
 70
     0
300
1/32" = 1'-0"
140
0.03125
141
12.0
290
     0
  0
SCALE
  5
C20
102
{ACAD_REACTORS
330
C0B
102
}
330
C0B
100
AcDbScale
 70
     0
300
1/16" = 1'-0"
140
0.0625
141
12.0
290
     0
  0
SCALE
  5
C21
102
{ACAD_REACTORS
330
C0B
102
}
330
C0B
100
AcDbScale
 70
     0
300
3/32" = 1'-0"
140
0.09375
141
12.0
290
     0
  0
SCALE
  5
C22
102
{ACAD_REACTORS
330
C0B
102
}
330
C0B
100
AcDbScale
 70
     0
300
1/8" = 1'-0"
140
0.125
141
12.0
290
     0
  0
SCALE
  5
C23
102
{ACAD_REACTORS
330
C0B
102
}
330
C0B
100
AcDbScale
 70
     0
300
3/16" = 1'-0"
140
0.1875
141
12.0
290
     0
  0
SCALE
  5
C24
102
{ACAD_REACTORS
330
C0B
102
}
330
C0B
100
AcDbScale
 70
     0
300
1/4" = 1'-0"
140
0.25
141
12.0
290
     0
  0
SCALE
  5
C25
102
{ACAD_REACTORS
330
C0B
102
}
330
C0B
100
AcDbScale
 70
     0
300
3/8" = 1'-0"
140
0.375
141
12.0
290
     0
  0
SCALE
  5
C26
102
{ACAD_REACTORS
330
C0B
102
}
330
C0B
100
AcDbScale
 70
     0
300
1/2" = 1'-0"
140
0.5
141
12.0
290
     0
  0
SCALE
  5
C27
102
{ACAD_REACTORS
330
C0B
102
}
330
C0B
100
AcDbScale
 70
     0
300
3/4" = 1'-0"
140
0.75
141
12.0
290
     0
  0
SCALE
  5
C28
102
{ACAD_REACTORS
330
C0B
102
}
330
C0B
100
AcDbScale
 70
     0
300
1" = 1'-0"
140
1.0
141
12.0
290
     0
  0
SCALE
  5
C29
102
{ACAD_REACTORS
330
C0B
102
}
330
C0B
100
AcDbScale
 70
     0
300
1-1/2" = 1'-0"
140
1.5
141
12.0
290
     0
  0
SCALE
  5
C2A
102
{ACAD_REACTORS
330
C0B
102
}
330
C0B
100
AcDbScale
 70
     0
300
3" = 1'-0"
140
3.0
141
12.0
290
     0
  0
SCALE
  5
C2B
102
{ACAD_REACTORS
330
C0B
102
}
330
C0B
100
AcDbScale
 70
     0
300
6" = 1'-0"
140
6.0
141
12.0
290
     0
  0
SCALE
  5
C2C
102
{ACAD_REACTORS
330
C0B
102
}
330
C0B
100
AcDbScale
 70
     0
300
1'-0" = 1'-0"
140
12.0
141
12.0
290
     0
  0
TABLESTYLE
  5
C0A
102
{ACAD_XDICTIONARY
360
E45
102
}
102
{ACAD_REACTORS
330
C09
102
}
330
C09
100
AcDbTableStyle
  3
Standard
 70
     0
 71
     0
 40
0.06
 41
0.06
280
     0
281
     0
  7
STANDARD
140
0.18
170
     2
 62
     0
 63
     7
283
     0
274
    -2
284
     1
 64
     0
275
    -2
285
     1
 65
     0
276
    -2
286
     1
 66
     0
277
    -2
287
     1
 67
     0
278
    -2
288
     1
 68
     0
279
    -2
289
     1
 69
     0
  7
STANDARD
140
0.25
170
     5
 62
     0
 63
     7
283
     0
274
    -2
284
     1
 64
     0
275
    -2
285
     1
 65
     0
276
    -2
286
     1
 66
     0
277
    -2
287
     1
 67
     0
278
    -2
288
     1
 68
     0
279
    -2
289
     1
 69
     0
  7
STANDARD
140
0.18
170
     5
 62
     0
 63
     7
283
     0
274
    -2
284
     1
 64
     0
275
    -2
285
     1
 65
     0
276
    -2
286
     1
 66
     0
277
    -2
287
     1
 67
     0
278
    -2
288
     1
 68
     0
279
    -2
289
     1
 69
     0
  0
VISUALSTYLE
  5
BFA
102
{ACAD_XDICTIONARY
360
E58
102
}
102
{ACAD_REACTORS
330
BF4
102
}
330
BF4
100
AcDbVisualStyle
  2
2dWireframe
 70
     4
 71
     0
 72
     2
 73
     0
 90
        0
 40
-0.6
 41
-30.0
 62
     5
 63
     7
 74
     1
 91
        4
 64
     7
 65
   257
 75
     1
175
     1
 42
1.0
 92
        0
 66
   257
 43
1.0
 76
     1
 77
     6
 78
     2
 67
     7
 79
     5
170
     0
171
     0
290
     0
174
     0
 93
        1
 44
0.0
173
     0
291
     0
 45
0.0
1001
ACAD
1000
AcDbSavedByObjectVersion
1070
     0
  0
VISUALSTYLE
  5
BFC
102
{ACAD_XDICTIONARY
360
E5C
102
}
102
{ACAD_REACTORS
330
BF4
102
}
330
BF4
100
AcDbVisualStyle
  2
3D Hidden
 70
     6
 71
     1
 72
     2
 73
     2
 90
        0
 40
-0.6
 41
-30.0
 62
     5
 63
     7
 74
     2
 91
        2
 64
     7
 65
   257
 75
     2
175
     1
 42
179.0
 92
        0
 66
   257
 43
1.0
 76
     1
 77
     6
 78
     2
 67
     7
 79
     3
170
     0
171
     0
290
     0
174
     0
 93
        1
 44
0.0
173
     0
291
     0
 45
0.0
1001
ACAD
1000
AcDbSavedByObjectVersion
1070
     0
  0
VISUALSTYLE
  5
BFB
102
{ACAD_XDICTIONARY
360
E5A
102
}
102
{ACAD_REACTORS
330
BF4
102
}
330
BF4
100
AcDbVisualStyle
  2
3dWireframe
 70
     5
 71
     0
 72
     2
 73
     0
 90
        0
 40
-0.6
 41
-30.0
 62
     5
 63
     7
 74
     1
 91
        4
 64
     7
 65
   257
 75
     1
175
     1
 42
1.0
 92
        0
 66
   257
 43
1.0
 76
     1
 77
     6
 78
     2
 67
     7
 79
     5
170
     0
171
     0
290
     0
174
     0
 93
        1
 44
0.0
173
     0
291
     0
 45
0.0
1001
ACAD
1000
AcDbSavedByObjectVersion
1070
     0
  0
VISUALSTYLE
  5
BF9
102
{ACAD_XDICTIONARY
360
E56
102
}
102
{ACAD_REACTORS
330
BF4
102
}
330
BF4
100
AcDbVisualStyle
  2
Basic
 70
     7
 71
     1
 72
     0
 73
     1
 90
        0
 40
-0.6
 41
-30.0
 62
     5
 63
     7
 74
     0
 91
        4
 64
     7
 65
   257
 75
     1
175
     1
 42
1.0
 92
        8
 66
     7
 43
1.0
 76
     1
 77
     6
 78
     2
 67
     7
 79
     5
170
     0
171
     0
290
     0
174
     0
 93
        1
 44
0.0
173
     0
291
     1
 45
0.0
1001
ACAD
1000
AcDbSavedByObjectVersion
1070
     0
  0
VISUALSTYLE
  5
C00
102
{ACAD_XDICTIONARY
360
E64
102
}
102
{ACAD_REACTORS
330
BF4
102
}
330
BF4
100
AcDbVisualStyle
  2
Brighten
 70
    12
 71
     2
 72
     2
 73
     0
 90
        0
 40
-0.6
 41
-30.0
 62
     5
 63
     7
 74
     1
 91
        4
 64
     7
 65
   257
 75
     1
175
     1
 42
1.0
 92
        8
 66
     7
 43
1.0
 76
     1
 77
     6
 78
     2
 67
     7
 79
     5
170
     0
171
     0
290
     0
174
     0
 93
        1
 44
50.0
173
     0
291
     1
 45
0.0
1001
ACAD
1000
AcDbSavedByObjectVersion
1070
     0
  0
VISUALSTYLE
  5
C04
102
{ACAD_XDICTIONARY
360
E6C
102
}
102
{ACAD_REACTORS
330
BF4
102
}
330
BF4
100
AcDbVisualStyle
  2
ColorChange
 70
    16
 71
     2
 72
     2
 73
     3
 90
        0
 40
-0.6
 41
-30.0
 62
     5
 63
     8
 74
     1
 91
        4
 64
     7
 65
   257
 75
     1
175
     1
 42
1.0
 92
        8
 66
     8
 43
1.0
 76
     1
 77
     6
 78
     2
 67
     7
 79
     5
170
     0
171
     0
290
     0
174
     0
 93
        1
 44
0.0
173
     0
291
     1
 45
0.0
1001
ACAD
1000
AcDbSavedByObjectVersion
1070
     0
  0
VISUALSTYLE
  5
BFD
102
{ACAD_XDICTIONARY
360
E5E
102
}
102
{ACAD_REACTORS
330
BF4
102
}
330
BF4
100
AcDbVisualStyle
  2
Conceptual
 70
     9
 71
     3
 72
     2
 73
     0
 90
        0
 40
-0.6
 41
-30.0
 62
     5
 63
     7
 74
     2
 91
        2
 64
     7
 65
   257
 75
     1
175
     1
 42
179.0
 92
        8
 66
     7
 43
1.0
 76
     1
 77
     6
 78
     2
 67
     7
 79
     3
170
     0
171
     0
290
     0
174
     0
 93
        1
 44
0.0
173
     0
291
     0
 45
0.0
1001
ACAD
1000
AcDbSavedByObjectVersion
1070
     0
  0
VISUALSTYLE
  5
BFF
102
{ACAD_XDICTIONARY
360
E62
102
}
102
{ACAD_REACTORS
330
BF4
102
}
330
BF4
100
AcDbVisualStyle
  2
Dim
 70
    11
 71
     2
 72
     2
 73
     0
 90
        0
 40
-0.6
 41
-30.0
 62
     5
 63
     7
 74
     1
 91
        4
 64
     7
 65
   257
 75
     1
175
     1
 42
1.0
 92
        8
 66
     7
 43
1.0
 76
     1
 77
     6
 78
     2
 67
     7
 79
     5
170
     0
171
     0
290
     0
174
     0
 93
        1
 44
-50.0
173
     0
291
     1
 45
0.0
1001
ACAD
1000
AcDbSavedByObjectVersion
1070
     0
  0
VISUALSTYLE
  5
C07
102
{ACAD_XDICTIONARY
360
E72
102
}
102
{ACAD_REACTORS
330
BF4
102
}
330
BF4
100
AcDbVisualStyle
  2
EdgeColorOff
 70
    22
 71
     2
 72
     2
 73
     0
 90
        0
 40
-0.6
 41
-30.0
 62
     5
 63
     7
 74
     1
 91
        4
 64
     7
 65
   257
 75
     1
175
     1
 42
1.0
 92
        8
 66
     7
 43
1.0
 76
     1
 77
     6
 78
     2
 67
     7
 79
     5
170
     0
171
     0
290
     0
174
     0
 93
        1
 44
0.0
173
     0
291
     1
 45
0.0
1001
ACAD
1000
AcDbSavedByObjectVersion
1070
     0
  0
VISUALSTYLE
  5
C03
102
{ACAD_XDICTIONARY
360
E6A
102
}
102
{ACAD_REACTORS
330
BF4
102
}
330
BF4
100
AcDbVisualStyle
  2
Facepattern
 70
    15
 71
     2
 72
     2
 73
     0
 90
        0
 40
-0.6
 41
-30.0
 62
     5
 63
     7
 74
     1
 91
        4
 64
     7
 65
   257
 75
     1
175
     1
 42
1.0
 92
        8
 66
     7
 43
1.0
 76
     1
 77
     6
 78
     2
 67
     7
 79
     5
170
     0
171
     0
290
     0
174
     0
 93
        1
 44
0.0
173
     0
291
     1
 45
0.0
1001
ACAD
1000
AcDbSavedByObjectVersion
1070
     0
  0
VISUALSTYLE
  5
BF5
102
{ACAD_XDICTIONARY
360
E4E
102
}
102
{ACAD_REACTORS
330
BF4
102
}
330
BF4
100
AcDbVisualStyle
  2
Flat
 70
     0
 71
     2
 72
     1
 73
     1
 90
        2
 40
-0.6
 41
30.0
 62
     5
 63
     7
 74
     0
 91
        4
 64
     7
 65
   257
 75
     1
175
     1
 42
1.0
 92
        8
 66
     7
 43
1.0
 76
     1
 77
     6
 78
     2
 67
     7
 79
     5
170
     0
171
     0
290
     0
174
     0
 93
       13
 44
0.0
173
     0
291
     1
 45
0.0
1001
ACAD
1000
AcDbSavedByObjectVersion
1070
     0
  0
VISUALSTYLE
  5
BF6
102
{ACAD_XDICTIONARY
360
E50
102
}
102
{ACAD_REACTORS
330
BF4
102
}
330
BF4
100
AcDbVisualStyle
  2
FlatWithEdges
 70
     1
 71
     2
 72
     1
 73
     1
 90
        2
 40
-0.6
 41
30.0
 62
     5
 63
     7
 74
     1
 91
        4
 64
     7
 65
   257
 75
     1
175
     1
 42
1.0
 92
        0
 66
   257
 43
1.0
 76
     1
 77
     6
 78
     2
 67
     7
 79
     5
170
     0
171
     0
290
     0
174
     0
 93
       13
 44
0.0
173
     0
291
     1
 45
0.0
1001
ACAD
1000
AcDbSavedByObjectVersion
1070
     0
  0
VISUALSTYLE
  5
BF7
102
{ACAD_XDICTIONARY
360
E52
102
}
102
{ACAD_REACTORS
330
BF4
102
}
330
BF4
100
AcDbVisualStyle
  2
Gouraud
 70
     2
 71
     2
 72
     2
 73
     1
 90
        2
 40
-0.6
 41
30.0
 62
     5
 63
     7
 74
     0
 91
        4
 64
     7
 65
   257
 75
     1
175
     1
 42
1.0
 92
        0
 66
     7
 43
1.0
 76
     1
 77
     6
 78
     2
 67
     7
 79
     5
170
     0
171
     0
290
     0
174
     0
 93
       13
 44
0.0
173
     0
291
     1
 45
0.0
1001
ACAD
1000
AcDbSavedByObjectVersion
1070
     0
  0
VISUALSTYLE
  5
BF8
102
{ACAD_XDICTIONARY
360
E54
102
}
102
{ACAD_REACTORS
330
BF4
102
}
330
BF4
100
AcDbVisualStyle
  2
GouraudWithEdges
 70
     3
 71
     2
 72
     2
 73
     1
 90
        2
 40
-0.6
 41
30.0
 62
     5
 63
     7
 74
     1
 91
        4
 64
     7
 65
   257
 75
     1
175
     1
 42
1.0
 92
        0
 66
   257
 43
1.0
 76
     1
 77
     6
 78
     2
 67
     7
 79
     5
170
     0
171
     0
290
     0
174
     0
 93
       13
 44
0.0
173
     0
291
     1
 45
0.0
1001
ACAD
1000
AcDbSavedByObjectVersion
1070
     0
  0
VISUALSTYLE
  5
C05
102
{ACAD_XDICTIONARY
360
E6E
102
}
102
{ACAD_REACTORS
330
BF4
102
}
330
BF4
100
AcDbVisualStyle
  2
JitterOff
 70
    20
 71
     2
 72
     2
 73
     0
 90
        0
 40
-0.6
 41
-30.0
 62
     5
 63
     7
 74
     1
 91
        4
 64
     7
 65
   257
 75
     1
175
     1
 42
1.0
 92
       10
 66
     7
 43
1.0
 76
     1
 77
     6
 78
     2
 67
     7
 79
     5
170
     0
171
     0
290
     0
174
     0
 93
        1
 44
0.0
173
     0
291
     1
 45
0.0
1001
ACAD
1000
AcDbSavedByObjectVersion
1070
     0
  0
VISUALSTYLE
  5
C02
102
{ACAD_XDICTIONARY
360
E68
102
}
102
{ACAD_REACTORS
330
BF4
102
}
330
BF4
100
AcDbVisualStyle
  2
Linepattern
 70
    14
 71
     2
 72
     2
 73
     0
 90
        0
 40
-0.6
 41
-30.0
 62
     5
 63
     7
 74
     1
 91
        4
 64
     7
 65
   257
 75
     7
175
     7
 42
1.0
 92
        8
 66
     7
 43
1.0
 76
     1
 77
     6
 78
     2
 67
     7
 79
     5
170
     0
171
     0
290
     0
174
     0
 93
        1
 44
0.0
173
     0
291
     1
 45
0.0
1001
ACAD
1000
AcDbSavedByObjectVersion
1070
     0
  0
VISUALSTYLE
  5
C06
102
{ACAD_XDICTIONARY
360
E70
102
}
102
{ACAD_REACTORS
330
BF4
102
}
330
BF4
100
AcDbVisualStyle
  2
OverhangOff
 70
    21
 71
     2
 72
     2
 73
     0
 90
        0
 40
-0.6
 41
-30.0
 62
     5
 63
     7
 74
     1
 91
        4
 64
     7
 65
   257
 75
     1
175
     1
 42
1.0
 92
        9
 66
     7
 43
1.0
 76
     1
 77
     6
 78
     2
 67
     7
 79
     5
170
     0
171
     0
290
     0
174
     0
 93
        1
 44
0.0
173
     0
291
     1
 45
0.0
1001
ACAD
1000
AcDbSavedByObjectVersion
1070
     0
  0
VISUALSTYLE
  5
BFE
102
{ACAD_XDICTIONARY
360
E60
102
}
102
{ACAD_REACTORS
330
BF4
102
}
330
BF4
100
AcDbVisualStyle
  2
Realistic
 70
     8
 71
     2
 72
     2
 73
     0
 90
        0
 40
-0.6
 41
-30.0
 62
     5
 63
     7
 74
     1
 91
        0
 64
     7
 65
   257
 75
     1
175
     1
 42
1.0
 92
        8
 66
     8
 43
1.0
 76
     1
 77
     6
 78
     2
 67
     7
 79
     5
170
     0
171
     0
290
     0
174
     0
 93
       13
 44
0.0
173
     0
291
     0
 45
0.0
1001
ACAD
1000
AcDbSavedByObjectVersion
1070
     0
  0
VISUALSTYLE
  5
C01
102
{ACAD_XDICTIONARY
360
E66
102
}
102
{ACAD_REACTORS
330
BF4
102
}
330
BF4
100
AcDbVisualStyle
  2
Thicken
 70
    13
 71
     2
 72
     2
 73
     0
 90
        0
 40
-0.6
 41
-30.0
 62
     5
 63
     7
 74
     1
 91
        4
 64
     7
 65
   257
 75
     1
175
     1
 42
1.0
 92
       12
 66
     7
 43
1.0
 76
     1
 77
     6
 78
     2
 67
     7
 79
     5
170
     0
171
     0
290
     0
174
     0
 93
        1
 44
0.0
173
     0
291
     1
 45
0.0
1001
ACAD
1000
AcDbSavedByObjectVersion
1070
     0
  0
ACAD_PROXY_OBJECT
  5
D2
330
0
100
AcDbProxyObject
 90
      499
 91
      538
 95
   393235
 70
     0
 93
      736
310
9084D2E312E3232336407014B7269BC41100000000000000E03F1EC52B91F85EA10FE1EC52B91F85EA10FD034153471EC52B91F85EA10FC000000FC83D797414650540C000000000000E03F3F2A7C749358940FC000000FC83D7974100
 94
        0
1001
ACAD
1000
AcRTDxfName
1000
ASSYSVARS
  0
DICTIONARYVAR
  5
E2C
102
{ACAD_REACTORS
330
E28
102
}
330
E28
100
DictionaryVariables
280
     0
  1
1:1
  0
DICTIONARYVAR
  5
E2A
102
{ACAD_REACTORS
330
E28
102
}
330
E28
100
DictionaryVariables
280
     0
  1
STANDARD
  0
DICTIONARYVAR
  5
E29
102
{ACAD_REACTORS
330
E28
102
}
330
E28
100
DictionaryVariables
280
     0
  1
STANDARD
  0
DICTIONARYVAR
  5
E43
102
{ACAD_REACTORS
330
E28
102
}
330
E28
100
DictionaryVariables
280
     0
  1
1
  0
DICTIONARYVAR
  5
E42
102
{ACAD_REACTORS
330
E28
102
}
330
E28
100
DictionaryVariables
280
     0
  1
0
  0
DICTIONARYVAR
  5
E2E
102
{ACAD_REACTORS
330
E28
102
}
330
E28
100
DictionaryVariables
280
     0
  1
1
  0
DICTIONARYVAR
  5
E2F
102
{ACAD_REACTORS
330
E28
102
}
330
E28
100
DictionaryVariables
280
     0
  1
15
  0
DICTIONARYVAR
  5
E2D
102
{ACAD_REACTORS
330
E28
102
}
330
E28
100
DictionaryVariables
280
     0
  1
0
  0
DICTIONARYVAR
  5
E2B
102
{ACAD_REACTORS
330
E28
102
}
330
E28
100
DictionaryVariables
280
     0
  1
0
  0
DICTIONARYVAR
  5
E41
102
{ACAD_REACTORS
330
E28
102
}
330
E28
100
DictionaryVariables
280
     0
  1
127
  0
DICTIONARYVAR
  5
E44
102
{ACAD_REACTORS
330
E28
102
}
330
E28
100
DictionaryVariables
280
     0
  1
2
  0
ACAD_PROXY_OBJECT
  5
85
330
0
100
AcDbProxyObject
 90
      499
 91
      507
 95
   393235
 70
     0
 93
      354
310
000000000000405AA6A9AA40504646174650142118B8C4B8C8C8CD9C0504646174650142118B8C4B8C8C8CD9FF
330
7F
330
86
330
87
330
89
330
0
330
0
 94
        0
1001
ACAD
1000
AcRTDxfName
1000
ADAPPL
  0
ACAD_PROXY_OBJECT
  5
86
330
0
100
AcDbProxyObject
 90
      499
 91
      508
 95
   393235
 70
     0
 93
      120
310
00009024410100000092080002A6A600
330
7F
330
96
330
95
330
0
 94
        0
1001
ACAD
1000
AcRTDxfName
1000
DEPMGR
  0
ACAD_PROXY_OBJECT
  5
87
330
0
100
AcDbProxyObject
 90
      499
 91
      509
 95
   393235
 70
     0
 93
       46
310
00000000920B
330
7F
330
0
330
88
 94
        0
1001
ACAD
1000
AcRTDxfName
1000
PARAMMGR
  0
ACAD_PROXY_OBJECT
  5
88
330
0
100
AcDbProxyObject
 90
      499
 91
      510
 95
   393235
 70
     0
 93
       22
310
0000AB
330
7F
 94
        0
1001
ACAD
1000
AcRTDxfName
1000
PARAMSCOPE
  0
ACAD_PROXY_OBJECT
  5
8A
330
0
100
AcDbProxyObject
 90
      499
 91
      512
 95
   393235
 70
     0
 93
      124
310
00000142905350D3D39114D414D6905F
330
7F
 94
        0
1001
ACAD
1000
AcRTDxfName
1000
SYSTEM_VAR_INT
  0
ACAD_PROXY_OBJECT
  5
8B
330
0
100
AcDbProxyObject
 90
      499
 91
      512
 95
   393235
 70
     0
 93
      124
310
000001429053549553115353D111501F
330
7F
 94
        0
1001
ACAD
1000
AcRTDxfName
1000
SYSTEM_VAR_INT
  0
ACAD_PROXY_OBJECT
  5
8C
330
0
100
AcDbProxyObject
 90
      499
 91
      512
 95
   393235
 70
     0
 93
      108
310
00000142105354D2D353D111501F
330
7F
 94
        0
1001
ACAD
1000
AcRTDxfName
1000
SYSTEM_VAR_INT
  0
ACAD_PROXY_OBJECT
  5
8D
330
0
100
AcDbProxyObject
 90
      499
 91
      512
 95
   393235
 70
     0
 93
      140
310
000001435053511253511254D41353D1116F
330
7F
 94
        0
1001
ACAD
1000
AcRTDxfName
1000
SYSTEM_VAR_INT
  0
ACAD_PROXY_OBJECT
  5
8E
330
0
100
AcDbProxyObject
 90
      499
 91
      513
 95
   393235
 70
     0
 93
      180
310
00000142905354D2D05391D513D300000000000001040F
330
7F
 94
        0
1001
ACAD
1000
AcRTDxfName
1000
SYSTEM_VAR_REAL
  0
ACAD_PROXY_OBJECT
  5
8F
330
0
100
AcDbProxyObject
 90
      499
 91
      514
 95
   393235
 70
     0
 93
      164
310
00000142505354D2D4D516531140505434F4E542AF
330
7F
 94
        0
1001
ACAD
1000
AcRTDxfName
1000
SYSTEM_VAR_STR
  0
ACAD_PROXY_OBJECT
  5
90
330
0
100
AcDbProxyObject
 90
      499
 91
      512
 95
   393235
 70
     0
 93
      108
310
00000142105350D351111253501F
330
7F
 94
        0
1001
ACAD
1000
AcRTDxfName
1000
SYSTEM_VAR_INT
  0
ACAD_PROXY_OBJECT
  5
91
330
0
100
AcDbProxyObject
 90
      499
 91
      514
 95
   393235
 70
     0
 93
      116
310
00000142505354105491925311406F
330
7F
 94
        0
1001
ACAD
1000
AcRTDxfName
1000
SYSTEM_VAR_STR
  0
ACAD_PROXY_OBJECT
  5
92
330
0
100
AcDbProxyObject
 90
      499
 91
      512
 95
   393235
 70
     0
 93
      100
310
00000142105350D3D35414D5AF
330
7F
 94
        0
1001
ACAD
1000
AcRTDxfName
1000
SYSTEM_VAR_INT
  0
ACAD_PROXY_OBJECT
  5
95
330
0
100
AcDbProxyObject
 90
      499
 91
      517
 95
   393235
 70
     0
 93
      164
310
000092090148200A00000440000FFFFFFFF000000F
330
7F
330
96
330
86
330
0
 94
        0
1001
ACAD
1000
AcRTDxfName
1000
ADBASE
  0
ACAD_PROXY_OBJECT
  5
96
330
0
100
AcDbProxyObject
 90
      499
 91
      518
 95
   393235
 70
     0
 93
       82
310
000040520802482A80003F
330
7F
330
95
330
86
330
0
 94
        0
1001
ACAD
1000
AcRTDxfName
1000
BODYID
  0
ACAD_PROXY_OBJECT
  5
97
330
0
100
AcDbProxyObject
 90
      499
 91
      510
 95
   393235
 70
     0
 93
       22
310
0000AB
330
7F
 94
        0
1001
ACAD
1000
AcRTDxfName
1000
PARAMSCOPE
  0
ACAD_PROXY_OBJECT
  5
98
330
0
100
AcDbProxyObject
 90
      499
 91
      519
 95
   393235
 70
     0
 93
       38
310
000000920B
330
7F
330
0
 94
        0
1001
ACAD
1000
AcRTDxfName
1000
WORKPLANEDISPLAYMGR
  0
ACAD_PROXY_OBJECT
  5
99
330
0
100
AcDbProxyObject
 90
      499
 91
      520
 95
   393235
 70
     0
 93
     3204
310
0000419208050A44555243485F424F4852014254D050D2D7D093D2148050C44555243485F5A594C494E440142D4D050D2D7D696531253910050B44555243485F4B4547454C014294D050D2D7D2D151D15310648201451EC94958C8094950535112504811155490D20B9F4051D7B252563202525414D4449412058202525414
310
D4445502054494546457D014F5EC94958C8094950535112504811155490D20B9F57141ED6965312539108094958C80949505350D112504816080949505350D09111540815125151915F405467B252563202525414D4449412058202525414D4445502054494546457D5C507B5A594C494E4420252563202525414D43444941
310
2058202525414D43424445502054494546457D014E5EC94958C8094950535112504811155490D20B9F57141ED2D151D15308094958C80949505350D112504816080949505350D4D05391C949591F405427B252563202525414D4449412058202525414D4445502054494546457D5C507B4B4547454C20252563202525414D4
310
34449412058202525414D4353414E472525647DF
330
7F
 94
        0
1001
ACAD
1000
AcRTDxfName
1000
ADHNTMPLT
  0
ACAD_PROXY_OBJECT
  5
9C
330
0
100
AcDbProxyObject
 90
      499
 91
      523
 95
   393235
 70
     0
 93
      332
310
0000014119185D1940508442E312E32323362014119185D1940508442E312E323233624050100000000F
330
7F
330
9D
330
9F
330
A0
330
0
 94
        0
1001
ACAD
1000
AcRTDxfName
1000
AM_DRAWING_MGR
  0
ACAD_PROXY_OBJECT
  5
9D
330
0
100
AcDbProxyObject
 90
      499
 91
      524
 95
   393235
 70
     0
 93
       56
310
00009014410100D7
330
7F
330
9E
 94
        0
1001
ACAD
1000
AcRTDxfName
1000
AM_DWG_DOCUMENT
  0
ACAD_PROXY_OBJECT
  5
9E
330
0
100
AcDbProxyObject
 90
      499
 91
      525
 95
   393235
 70
     0
 93
       40
310
0000A4410100
330
7F
 94
        0
1001
ACAD
1000
AcRTDxfName
1000
AM_DWG_SHEET
  0
ACAD_PROXY_OBJECT
  5
9F
330
0
100
AcDbProxyObject
 90
      499
 91
      526
 95
   393235
 70
     0
 93
       68
310
0000A44101920A482F
330
7F
 94
        0
1001
ACAD
1000
AcRTDxfName
1000
AM_VIEWDIMPARMAP
  0
ACAD_PROXY_OBJECT
  5
A1
330
0
100
AcDbProxyObject
 90
      499
 91
      512
 95
   393235
 70
     0
 93
      108
310
000001421053521310D05310D01F
330
7F
 94
        0
1001
ACAD
1000
AcRTDxfName
1000
SYSTEM_VAR_INT
  0
ACAD_PROXY_OBJECT
  5
A2
330
0
100
AcDbProxyObject
 90
      499
 91
      512
 95
   393235
 70
     0
 93
      124
310
000001429053541493D295165411501F
330
7F
 94
        0
1001
ACAD
1000
AcRTDxfName
1000
SYSTEM_VAR_INT
  0
ACAD_PROXY_OBJECT
  5
A3
330
0
100
AcDbProxyObject
 90
      499
 91
      512
 95
   393235
 70
     0
 93
      124
310
00000142905354915554D1511253501F
330
7F
 94
        0
1001
ACAD
1000
AcRTDxfName
1000
SYSTEM_VAR_INT
  0
ACAD_PROXY_OBJECT
  5
A4
330
0
100
AcDbProxyObject
 90
      499
 91
      512
 95
   393235
 70
     0
 93
      132
310
00000143105354D150D51253D39112536F
330
7F
 94
        0
1001
ACAD
1000
AcRTDxfName
1000
SYSTEM_VAR_INT
  0
ACAD_PROXY_OBJECT
  5
A5
330
0
100
AcDbProxyObject
 90
      499
 91
      512
 95
   393235
 70
     0
 93
      124
310
00000142905355941093D4911154901F
330
7F
 94
        0
1001
ACAD
1000
AcRTDxfName
1000
SYSTEM_VAR_INT
  0
ACAD_PROXY_OBJECT
  5
A6
330
0
100
AcDbProxyObject
 90
      499
 91
      512
 95
   393235
 70
     0
 93
      116
310
0000014290535115D1D0D3D313D4AF
330
7F
 94
        0
1001
ACAD
1000
AcRTDxfName
1000
SYSTEM_VAR_INT
  0
ACAD_PROXY_OBJECT
  5
A7
330
0
100
AcDbProxyObject
 90
      499
 91
      514
 95
   393235
 70
     0
 93
      196
310
0000014290535212511315165411405085645524445434B54F
330
7F
 94
        0
1001
ACAD
1000
AcRTDxfName
1000
SYSTEM_VAR_STR
  0
ACAD_PROXY_OBJECT
  5
A9
330
0
100
AcDbProxyObject
 90
      499
 91
      514
 95
   393235
 70
     0
 93
      196
310
00000142905354D150D315165411405085048414E544F4D32F
330
7F
 94
        0
1001
ACAD
1000
AcRTDxfName
1000
SYSTEM_VAR_STR
  0
ACAD_PROXY_OBJECT
  5
AA
330
0
100
AcDbProxyObject
 90
      499
 91
      512
 95
   393235
 70
     0
 93
      108
310
00000142105354D51114D0D5102F
330
7F
 94
        0
1001
ACAD
1000
AcRTDxfName
1000
SYSTEM_VAR_INT
  0
ACAD_PROXY_OBJECT
  5
AB
330
0
100
AcDbProxyObject
 90
      499
 91
      512
 95
   393235
 70
     0
 93
      108
310
00000142105354D511151054102F
330
7F
 94
        0
1001
ACAD
1000
AcRTDxfName
1000
SYSTEM_VAR_INT
  0
ACAD_PROXY_OBJECT
  5
AC
330
0
100
AcDbProxyObject
 90
      499
 91
      512
 95
   393235
 70
     0
 93
      108
310
00000142105354D511111513102F
330
7F
 94
        0
1001
ACAD
1000
AcRTDxfName
1000
SYSTEM_VAR_INT
  0
ACAD_PROXY_OBJECT
  5
AD
330
0
100
AcDbProxyObject
 90
      499
 91
      513
 95
   393235
 70
     0
 93
      148
310
00000141905350D310D34295C8FC2F528BC3FF
330
7F
 94
        0
1001
ACAD
1000
AcRTDxfName
1000
SYSTEM_VAR_REAL
  0
ACAD_PROXY_OBJECT
  5
AE
330
0
100
AcDbProxyObject
 90
      499
 91
      513
 95
   393235
 70
     0
 93
      156
310
00000141D05350D311D05402B8716D9CEF7C33FF
330
7F
 94
        0
1001
ACAD
1000
AcRTDxfName
1000
SYSTEM_VAR_REAL
  0
ACAD_PROXY_OBJECT
  5
AF
330
0
100
AcDbProxyObject
 90
      499
 91
      513
 95
   393235
 70
     0
 93
      164
310
00000142105350D313D4D2150295C8FC2F528BC3FF
330
7F
 94
        0
1001
ACAD
1000
AcRTDxfName
1000
SYSTEM_VAR_REAL
  0
ACAD_PROXY_OBJECT
  5
B0
330
0
100
AcDbProxyObject
 90
      499
 91
      512
 95
   393235
 70
     0
 93
      100
310
00000141D05350D3141054901F
330
7F
 94
        0
1001
ACAD
1000
AcRTDxfName
1000
SYSTEM_VAR_INT
  0
ACAD_PROXY_OBJECT
  5
B1
330
0
100
AcDbProxyObject
 90
      499
 91
      512
 95
   393235
 70
     0
 93
      100
310
0000014210535590539254D22F
330
7F
 94
        0
1001
ACAD
1000
AcRTDxfName
1000
SYSTEM_VAR_INT
  0
ACAD_PROXY_OBJECT
  5
B2
330
0
100
AcDbProxyObject
 90
      499
 91
      513
 95
   393235
 70
     0
 93
      188
310
00000142D0535312539155121250D2C295C8FC2F5289C3FF
330
7F
 94
        0
1001
ACAD
1000
AcRTDxfName
1000
SYSTEM_VAR_REAL
  0
ACAD_PROXY_OBJECT
  5
B3
330
0
100
AcDbProxyObject
 90
      499
 91
      514
 95
   393235
 70
     0
 93
      156
310
00000142105350D315165411405054D49545445F
330
7F
 94
        0
1001
ACAD
1000
AcRTDxfName
1000
SYSTEM_VAR_STR
  0
ACAD_PROXY_OBJECT
  5
BC
330
0
100
AcDbProxyObject
 90
      499
 91
      512
 95
   393235
 70
     0
 93
      132
310
00000142D05050555513D4D3D31591501F
330
7F
 94
        0
1001
ACAD
1000
AcRTDxfName
1000
SYSTEM_VAR_INT
  0
ACAD_PROXY_OBJECT
  5
BD
330
0
100
AcDbProxyObject
 90
      499
 91
      512
 95
   393235
 70
     0
 93
      156
310
00000143905050555513D054D4D153509311501F
330
7F
 94
        0
1001
ACAD
1000
AcRTDxfName
1000
SYSTEM_VAR_INT
  0
ACAD_PROXY_OBJECT
  5
BE
330
0
100
AcDbProxyObject
 90
      499
 91
      512
 95
   393235
 70
     0
 93
      148
310
00000143505055925155D49154D513D491501F
330
7F
 94
        0
1001
ACAD
1000
AcRTDxfName
1000
SYSTEM_VAR_INT
  0
ACAD_PROXY_OBJECT
  5
BF
330
0
100
AcDbProxyObject
 90
      499
 91
      512
 95
   393235
 70
     0
 93
      124
310
00000142D050525394D15495105094EF
330
7F
 94
        0
1001
ACAD
1000
AcRTDxfName
1000
SYSTEM_VAR_INT
  0
ACAD_PROXY_OBJECT
  5
C6
330
0
100
AcDbProxyObject
 90
      499
 91
      531
 95
   393235
 70
     0
 93
       32
310
0000000000
330
7F
340
C3
330
C7
330
C3
 94
        0
1001
ACAD
1000
AcRTDxfName
1000
ACAMGRCOMPDEF
  0
ACAD_PROXY_OBJECT
  5
C7
330
0
100
AcDbProxyObject
 90
      499
 91
      532
 95
   393235
 70
     0
 93
      143
310
0000014213905351539313D4D0400522080D
330
7F
330
C6
 94
        0
1001
ACAD
1000
AcRTDxfName
1000
ACAMCOMPDEF
  0
ACAD_PROXY_OBJECT
  5
C8
330
0
100
AcDbProxyObject
 90
      499
 91
      533
 95
   393235
 70
     0
 93
       72
310
000000A44101A4410100
330
7F
330
C7
 94
        0
1001
ACAD
1000
AcRTDxfName
1000
ACAMCOMPDEFMGR
  0
ACAD_PROXY_OBJECT
  5
C9
330
0
100
AcDbProxyObject
 90
      499
 91
      534
 95
   393235
 70
     0
 93
       80
310
0000901441010000000000
330
7F
330
CA
330
CA
330
CA
330
CA
 94
        0
1001
ACAD
1000
AcRTDxfName
1000
AMCONTEXTMGR
  0
ACAD_PROXY_OBJECT
  5
CA
330
0
100
AcDbProxyObject
 90
      499
 91
      535
 95
   393235
 70
     0
 93
      173
310
00000000406AAAAAAAAAAAAAAAAA806A44101A441017
330
7F
330
C9
330
C7
 94
        0
1001
ACAD
1000
AcRTDxfName
1000
ACAMCONTEXTMODELER
  0
ACAD_PROXY_OBJECT
  5
CE
330
0
100
AcDbProxyObject
 90
      499
 91
      536
 95
   393235
 70
     0
 93
       26
310
0000803F
330
7F
330
0
 94
        0
1001
ACAD
1000
AcRTDxfName
1000
ACAMDRAWINGMAN
  0
DICTIONARY
  5
688
102
{ACAD_REACTORS
330
3B
102
}
330
3B
100
AcDbDictionary
281
     1
  3
PH_GRPMEMBERS
350
C36
  0
DICTIONARY
  5
695
102
{ACAD_REACTORS
330
3B
102
}
330
3B
100
AcDbDictionary
281
     1
  3
PH_GRPMEMBERS
350
C37
  0
DICTIONARY
  5
69F
102
{ACAD_REACTORS
330
3B
102
}
330
3B
100
AcDbDictionary
281
     1
  3
PH_GRPMEMBERS
350
C38
  0
DICTIONARY
  5
6A9
102
{ACAD_REACTORS
330
3B
102
}
330
3B
100
AcDbDictionary
281
     1
  3
$PH$AAAA
350
6AF
  3
PH_GRPMEMBERS
350
C3A
  0
DICTIONARY
  5
6B6
102
{ACAD_REACTORS
330
3B
102
}
330
3B
100
AcDbDictionary
281
     1
  3
$PH$AAAA
350
6BB
  3
PH_GRPMEMBERS
350
C3C
  0
DICTIONARY
  5
6C2
102
{ACAD_REACTORS
330
3B
102
}
330
3B
100
AcDbDictionary
281
     1
  3
$PH$AAAA
350
6C7
  3
$PH$AAAB
350
6CC
  3
PH_GRPMEMBERS
350
C3F
  0
DICTIONARY
  5
6D2
102
{ACAD_REACTORS
330
3B
102
}
330
3B
100
AcDbDictionary
281
     1
  3
$PH$AAAA
350
6D7
  3
$PH$AAAB
350
6DC
  3
PH_GRPMEMBERS
350
C42
  0
DICTIONARY
  5
6E4
102
{ACAD_REACTORS
330
3B
102
}
330
3B
100
AcDbDictionary
281
     1
  3
PH_GRPMEMBERS
350
C43
  0
DICTIONARY
  5
6F0
102
{ACAD_REACTORS
330
3B
102
}
330
3B
100
AcDbDictionary
281
     1
  3
PH_GRPMEMBERS
350
C44
  0
DICTIONARY
  5
6FE
102
{ACAD_REACTORS
330
3B
102
}
330
3B
100
AcDbDictionary
281
     1
  3
PH_GRPMEMBERS
350
C45
  0
DICTIONARY
  5
708
102
{ACAD_REACTORS
330
3B
102
}
330
3B
100
AcDbDictionary
281
     1
  3
$PH$AAAA
350
70D
  3
$PH$AAAB
350
711
  3
PH_GRPMEMBERS
350
C48
  0
DICTIONARY
  5
718
102
{ACAD_REACTORS
330
3B
102
}
330
3B
100
AcDbDictionary
281
     1
  3
PH_GRPMEMBERS
350
C49
  0
DICTIONARY
  5
722
102
{ACAD_REACTORS
330
3B
102
}
330
3B
100
AcDbDictionary
281
     1
  3
PH_GRPMEMBERS
350
C4A
  0
DICTIONARY
  5
72C
102
{ACAD_REACTORS
330
3B
102
}
330
3B
100
AcDbDictionary
281
     1
  3
$PH$AAAA
350
730
  3
$PH$AAAB
350
734
  3
PH_GRPMEMBERS
350
C4D
  0
DICTIONARY
  5
73A
102
{ACAD_REACTORS
330
3B
102
}
330
3B
100
AcDbDictionary
281
     1
  3
PH_GRPMEMBERS
350
C4E
  0
DICTIONARY
  5
741
102
{ACAD_REACTORS
330
3B
102
}
330
3B
100
AcDbDictionary
281
     1
  3
$PH$AAAA
350
743
  3
$PH$AAAB
350
752
  3
PH_GRPMEMBERS
350
C61
  0
DICTIONARY
  5
7AC
102
{ACAD_REACTORS
330
3B
102
}
330
3B
100
AcDbDictionary
281
     1
  3
$PH$AAAA
350
7AE
  3
$PH$AAAB
350
7B6
  3
PH_GRPMEMBERS
350
CA9
  0
DICTIONARY
  5
D5C
102
{ACAD_REACTORS
330
3B
102
}
330
3B
100
AcDbDictionary
281
     1
  3
PH_GRPMEMBERS
350
D5D
  0
DICTIONARY
  5
DEE
102
{ACAD_REACTORS
330
3B
102
}
330
3B
100
AcDbDictionary
281
     1
  3
$PH$AAAA
350
DEF
  3
PH_GRPMEMBERS
350
DF3
  0
PH_GROUP
  5
DF6
102
{ACAD_REACTORS
330
3B
102
}
330
3B
  0
DICTIONARY
  5
E77
330
C32
100
AcDbDictionary
280
     1
281
     1
  3
ACAD_XREC_ROUNDTRIP
360
E78
  0
DICTIONARY
  5
D85
330
C31
100
AcDbDictionary
280
     1
281
     1
  3
ACAD_XREC_ROUNDTRIP
360
E76
  3
ADSK_XREC_LAYOUTTHUMBNAIL
360
D86
  0
DICTIONARY
  5
BE5
330
BE4
100
AcDbDictionary
280
     1
281
     1
  3
ACAD_XREC_ROUNDTRIP
360
E4C
  3
BUMPTILE
360
BE7
  3
DIFFUSETILE
360
BE6
  3
OPACITYTILE
360
BEA
  3
REFLECTIONTILE
360
BE9
  3
REFRACTIONTILE
360
BEB
  3
SPECULARTILE
360
BE8
  0
DICTIONARY
  5
BDD
330
BDC
100
AcDbDictionary
280
     1
281
     1
  3
ACAD_XREC_ROUNDTRIP
360
E4B
  3
BUMPTILE
360
BDF
  3
DIFFUSETILE
360
BDE
  3
OPACITYTILE
360
BE2
  3
REFLECTIONTILE
360
BE1
  3
REFRACTIONTILE
360
BE3
  3
SPECULARTILE
360
BE0
  0
DICTIONARY
  5
BED
330
BEC
100
AcDbDictionary
280
     1
281
     1
  3
ACAD_XREC_ROUNDTRIP
360
E4D
  3
BUMPTILE
360
BEF
  3
DIFFUSETILE
360
BEE
  3
OPACITYTILE
360
BF2
  3
REFLECTIONTILE
360
BF1
  3
REFRACTIONTILE
360
BF3
  3
SPECULARTILE
360
BF0
  0
DICTIONARY
  5
E45
330
C0A
100
AcDbDictionary
280
     1
281
     1
  3
ACAD_ROUNDTRIP_2008_TABLESTYLE_CELLSTYLEMAP
360
E46
  3
ACAD_XREC_ROUNDTRIP
360
E74
  0
DICTIONARY
  5
E58
330
BFA
100
AcDbDictionary
280
     1
281
     1
  3
ACAD_XREC_ROUNDTRIP
360
E59
  0
DICTIONARY
  5
E5C
330
BFC
100
AcDbDictionary
280
     1
281
     1
  3
ACAD_XREC_ROUNDTRIP
360
E5D
  0
DICTIONARY
  5
E5A
330
BFB
100
AcDbDictionary
280
     1
281
     1
  3
ACAD_XREC_ROUNDTRIP
360
E5B
  0
DICTIONARY
  5
E56
330
BF9
100
AcDbDictionary
280
     1
281
     1
  3
ACAD_XREC_ROUNDTRIP
360
E57
  0
DICTIONARY
  5
E64
330
C00
100
AcDbDictionary
280
     1
281
     1
  3
ACAD_XREC_ROUNDTRIP
360
E65
  0
DICTIONARY
  5
E6C
330
C04
100
AcDbDictionary
280
     1
281
     1
  3
ACAD_XREC_ROUNDTRIP
360
E6D
  0
DICTIONARY
  5
E5E
330
BFD
100
AcDbDictionary
280
     1
281
     1
  3
ACAD_XREC_ROUNDTRIP
360
E5F
  0
DICTIONARY
  5
E62
330
BFF
100
AcDbDictionary
280
     1
281
     1
  3
ACAD_XREC_ROUNDTRIP
360
E63
  0
DICTIONARY
  5
E72
330
C07
100
AcDbDictionary
280
     1
281
     1
  3
ACAD_XREC_ROUNDTRIP
360
E73
  0
DICTIONARY
  5
E6A
330
C03
100
AcDbDictionary
280
     1
281
     1
  3
ACAD_XREC_ROUNDTRIP
360
E6B
  0
DICTIONARY
  5
E4E
330
BF5
100
AcDbDictionary
280
     1
281
     1
  3
ACAD_XREC_ROUNDTRIP
360
E4F
  0
DICTIONARY
  5
E50
330
BF6
100
AcDbDictionary
280
     1
281
     1
  3
ACAD_XREC_ROUNDTRIP
360
E51
  0
DICTIONARY
  5
E52
330
BF7
100
AcDbDictionary
280
     1
281
     1
  3
ACAD_XREC_ROUNDTRIP
360
E53
  0
DICTIONARY
  5
E54
330
BF8
100
AcDbDictionary
280
     1
281
     1
  3
ACAD_XREC_ROUNDTRIP
360
E55
  0
DICTIONARY
  5
E6E
330
C05
100
AcDbDictionary
280
     1
281
     1
  3
ACAD_XREC_ROUNDTRIP
360
E6F
  0
DICTIONARY
  5
E68
330
C02
100
AcDbDictionary
280
     1
281
     1
  3
ACAD_XREC_ROUNDTRIP
360
E69
  0
DICTIONARY
  5
E70
330
C06
100
AcDbDictionary
280
     1
281
     1
  3
ACAD_XREC_ROUNDTRIP
360
E71
  0
DICTIONARY
  5
E60
330
BFE
100
AcDbDictionary
280
     1
281
     1
  3
ACAD_XREC_ROUNDTRIP
360
E61
  0
DICTIONARY
  5
E66
330
C01
100
AcDbDictionary
280
     1
281
     1
  3
ACAD_XREC_ROUNDTRIP
360
E67
  0
PH_GROUP
  5
C36
102
{ACAD_REACTORS
330
688
102
}
330
688
  0
PH_GROUP
  5
C37
102
{ACAD_REACTORS
330
695
102
}
330
695
  0
PH_GROUP
  5
C38
102
{ACAD_REACTORS
330
69F
102
}
330
69F
  0
DICTIONARY
  5
6AF
102
{ACAD_REACTORS
330
6A9
102
}
330
6A9
100
AcDbDictionary
281
     1
  3
PH_GRPMEMBERS
350
C39
  0
PH_GROUP
  5
C3A
102
{ACAD_REACTORS
330
6A9
102
}
330
6A9
  0
DICTIONARY
  5
6BB
102
{ACAD_REACTORS
330
6B6
102
}
330
6B6
100
AcDbDictionary
281
     1
  3
PH_GRPMEMBERS
350
C3B
  0
PH_GROUP
  5
C3C
102
{ACAD_REACTORS
330
6B6
102
}
330
6B6
  0
DICTIONARY
  5
6C7
102
{ACAD_REACTORS
330
6C2
102
}
330
6C2
100
AcDbDictionary
281
     1
  3
PH_GRPMEMBERS
350
C3D
  0
DICTIONARY
  5
6CC
102
{ACAD_REACTORS
330
6C2
102
}
330
6C2
100
AcDbDictionary
281
     1
  3
PH_GRPMEMBERS
350
C3E
  0
PH_GROUP
  5
C3F
102
{ACAD_REACTORS
330
6C2
102
}
330
6C2
  0
DICTIONARY
  5
6D7
102
{ACAD_REACTORS
330
6D2
102
}
330
6D2
100
AcDbDictionary
281
     1
  3
PH_GRPMEMBERS
350
C40
  0
DICTIONARY
  5
6DC
102
{ACAD_REACTORS
330
6D2
102
}
330
6D2
100
AcDbDictionary
281
     1
  3
PH_GRPMEMBERS
350
C41
  0
PH_GROUP
  5
C42
102
{ACAD_REACTORS
330
6D2
102
}
330
6D2
  0
PH_GROUP
  5
C43
102
{ACAD_REACTORS
330
6E4
102
}
330
6E4
  0
PH_GROUP
  5
C44
102
{ACAD_REACTORS
330
6F0
102
}
330
6F0
  0
PH_GROUP
  5
C45
102
{ACAD_REACTORS
330
6FE
102
}
330
6FE
  0
DICTIONARY
  5
70D
102
{ACAD_REACTORS
330
708
102
}
330
708
100
AcDbDictionary
281
     1
  3
PH_GRPMEMBERS
350
C46
  0
DICTIONARY
  5
711
102
{ACAD_REACTORS
330
708
102
}
330
708
100
AcDbDictionary
281
     1
  3
PH_GRPMEMBERS
350
C47
  0
PH_GROUP
  5
C48
102
{ACAD_REACTORS
330
708
102
}
330
708
  0
PH_GROUP
  5
C49
102
{ACAD_REACTORS
330
718
102
}
330
718
  0
PH_GROUP
  5
C4A
102
{ACAD_REACTORS
330
722
102
}
330
722
  0
DICTIONARY
  5
730
102
{ACAD_REACTORS
330
72C
102
}
330
72C
100
AcDbDictionary
281
     1
  3
PH_GRPMEMBERS
350
C4B
  0
DICTIONARY
  5
734
102
{ACAD_REACTORS
330
72C
102
}
330
72C
100
AcDbDictionary
281
     1
  3
PH_GRPMEMBERS
350
C4C
  0
PH_GROUP
  5
C4D
102
{ACAD_REACTORS
330
72C
102
}
330
72C
  0
PH_GROUP
  5
C4E
102
{ACAD_REACTORS
330
73A
102
}
330
73A
  0
DICTIONARY
  5
743
102
{ACAD_REACTORS
330
741
102
}
330
741
100
AcDbDictionary
281
     1
  3
PH_GRPMEMBERS
350
C4F
  0
DICTIONARY
  5
752
102
{ACAD_REACTORS
330
741
102
}
330
741
100
AcDbDictionary
281
     1
  3
$PH$AAAA
350
754
  3
$PH$AAAB
350
75D
  3
PH_GRPMEMBERS
350
C60
  0
PH_GROUP
  5
C61
102
{ACAD_REACTORS
330
741
102
}
330
741
  0
DICTIONARY
  5
7AE
102
{ACAD_REACTORS
330
7AC
102
}
330
7AC
100
AcDbDictionary
281
     1
  3
PH_GRPMEMBERS
350
C62
  0
DICTIONARY
  5
7B6
102
{ACAD_REACTORS
330
7AC
102
}
330
7AC
100
AcDbDictionary
281
     1
  3
$PH$AAAA
350
7B9
  3
$PH$AAAB
350
7FB
  3
$PH$AAAC
350
83D
  3
$PH$AAAD
350
87F
  3
$PH$AAAE
350
8C4
  3
PH_GRPMEMBERS
350
CA8
  0
PH_GROUP
  5
CA9
102
{ACAD_REACTORS
330
7AC
102
}
330
7AC
  0
PH_GROUP
  5
D5D
102
{ACAD_REACTORS
330
D5C
102
}
330
D5C
  0
DICTIONARY
  5
DEF
102
{ACAD_REACTORS
330
DEE
102
}
330
DEE
100
AcDbDictionary
281
     1
  3
$PH$AAAA
350
DF0
  3
PH_GRPMEMBERS
350
DF2
  0
PH_GROUP
  5
DF3
102
{ACAD_REACTORS
330
DEE
102
}
330
DEE
  0
XRECORD
  5
E78
102
{ACAD_REACTORS
330
E77
102
}
330
E77
100
AcDbXrecord
280
     1
102
SHADEPLOT
 70
     0
102
SHADEPLOTRESLEVEL
 70
     2
102
SHADEPLOTCUSTOMDPI
 70
   300
  0
XRECORD
  5
E76
102
{ACAD_REACTORS
330
D85
102
}
330
D85
100
AcDbXrecord
280
     1
102
SHADEPLOT
 70
     0
102
SHADEPLOTRESLEVEL
 70
     2
102
SHADEPLOTCUSTOMDPI
 70
   300
  0
XRECORD
  5
D86
102
{ACAD_REACTORS
330
D85
102
}
330
D85
100
AcDbXrecord
280
     1
310
28000000000100008600000001000800000000000086000000000000000000000001000000000000F0FCFE0000000000FFFFFF000000000000000000000000000000000000000000000000000000000000000000330000006600000099000000CC000000FF00000000330000333300006633000099330000CC330000FF3300
310
0000660000336600006666000099660000CC660000FF66000000990000339900006699000099990000CC990000FF99000000CC000033CC000066CC000099CC0000CCCC0000FFCC000000FF000033FF000066FF000099FF0000CCFF0000FFFF000000003300330033006600330099003300CC003300FF003300003333003333
310
33006633330099333300CC333300FF33330000663300336633006666330099663300CC663300FF66330000993300339933006699330099993300CC993300FF99330000CC330033CC330066CC330099CC3300CCCC3300FFCC330000FF330033FF330066FF330099FF3300CCFF3300FFFF330000006600330066006600660099
310
006600CC006600FF00660000336600333366006633660099336600CC336600FF33660000666600336666006666660099666600CC666600FF66660000996600339966006699660099996600CC996600FF99660000CC660033CC660066CC660099CC6600CCCC6600FFCC660000FF660033FF660066FF660099FF6600CCFF6600
310
FFFF660000009900330099006600990099009900CC009900FF00990000339900333399006633990099339900CC339900FF33990000669900336699006666990099669900CC669900FF66990000999900339999006699990099999900CC999900FF99990000CC990033CC990066CC990099CC9900CCCC9900FFCC990000FF99
310
0033FF990066FF990099FF9900CCFF9900FFFF99000000CC003300CC006600CC009900CC00CC00CC00FF00CC000033CC003333CC006633CC009933CC00CC33CC00FF33CC000066CC003366CC006666CC009966CC00CC66CC00FF66CC000099CC003399CC006699CC009999CC00CC99CC00FF99CC0000CCCC0033CCCC0066CC
310
CC0099CCCC00CCCCCC00FFCCCC0000FFCC0033FFCC0066FFCC0099FFCC00CCFFCC00FFFFCC000000FF003300FF006600FF009900FF00CC00FF00FF00FF000033FF003333FF006633FF009933FF00CC33FF00FF33FF000066FF003366FF006666FF009966FF00CC66FF00FF66FF000099FF003399FF006699FF009999FF00CC
310
99FF00FF99FF0000CCFF0033CCFF0066CCFF0099CCFF00CCCCFF00FFCCFF0000FFFF0033FFFF0066FFFF0099FFFF00CCFFFF00FFFFFF00000000000D0D0D001A1A1A00282828003535350043434300505050005D5D5D006B6B6B00787878008686860093939300A1A1A100AEAEAE00BBBBBB00C9C9C900D6D6D600E4E4E400
310
F1F1F100FFFFFF0000000000000000000000000000000000000000000000000000000000000000000000000000000000E1E1E1E1E1E1E1E1E1E1E1E1E1E1E1E1E1E1E1E1E1E1E1E1E1E1E1E1E1E1E1E1E1E1BEBEBEBEBEBEBEBEBEBEBEBEBEBEBEBEBEBEBEBEBEBEBEBEBEBEBEBEBEBEBEBEBEBEBEBEBEBEBEBEBEBEBEBEBE
310
BEBEBEBEBEBEBEBEBEBEBEBEBEBEBEBEBEBEBEBEBEBEBEBEBEBEBEBEBEBEBEBEBEBEBEBEBEBEBEBEBEBEBEBEBEBEBEBEBEBEBEBEBEBEBEBEBEBEBEBEBEBEBEBEBEBEBEBEBEBEBEBEBEBEBEBEBEBEBEBEBEBEBEBEBEBEBEBEBEBEBEBEBEBEBEBEBEBEBEBEBEBEBEBEBEBEBEBEBEBEBEBEBEBEBEBEBEBEBEBEBEBEBEBEBEBEBE
310
BEBEBEBEBEBEBEBEBEBEBEBEBEBEBEBEE1E1E1E1E1E1E1E1E1E1E1E1E1E1E1E1E1E1E1E1E1E1E1E1E1E1E1E1E1E1E1E1E1E1E1E1E1E1E1E1E1E1E1E1E1E1E1E1E1E1E1E1E1E1E1E1E1E1E1E1E1E1E1E1E1E1E1E1BEE1E1E1E1E1E1E1E1E1E1E1E1E1E1E1E1E1E1E1E1E1E1E1E1E1E1E1E1E1E1E1E1E1E1E1BEE1E1E1E1E1E1
310
E1E1E1E1E1E1E1E1E1E1E1E1E1E1E1E1E1E1E1E1E1E1E1E1BEE1E1E1E1E1E1E1E1E1E1E1E1E1E1E1E1E1E1E1E1E1E1E1E1E1E1E1E1E1E1E1E1E1E1E1E1E1E1E1E1E1E1E1E1E1E1E1E1E1E1E1E1E1E1E1E1E1E1E1BEE1E1E1E1E1E1E1E1E1E1E1E1E1E1E1E1E1E1E1E1E1E1E1E1E1E1E1E1E1E1E1E1E1E1E1E1E1E1E1E1E1E1
310
E1E1E1E1E1E1E1E1E1E1E1E1E1E1E1E1E1BEE1E1E1E1E1E1E1E1E1E1E1E1E1E1E1E1E1E1E1E1E1E1E1E1E1E1E1E1E1E1E1E1E1E1E1E1E1E1E1E1E1E1E1E1E1E1E1E1E1E1E1E1E1E1E1E1E1E1E1E1E1E1E1E1E1E1E1E1BEE1E1E1E1E12828282828282828282828282828282828282828282828282828282828282828282828
310
28282828282828282828282828282828282828282828282828282828282828282828282828282828282828282828282828282828282828282828282828282828282828282828282828282828282828282828282828282828282828282828282828282828282828282828282828282828280F0F0F0F0F0F0F0F0F0F0F0F0F0F
310
0F0F2828282828282828282828282828282828BEE1E1E1E1E1E1E1E1E1E1E1E1E1E1E1E1E1E1E1E1E1E1E1E1E1E1E1E1E1E1E1E1E1E1E1E1E1E1E1E1E1E1E1E1E1E1E1E1E1E1E1E1E1E1E1E1E1E1E1E1E1E1E1E1E1E1E1E1BEE1E1E1E1E128E1E1E1E1E1E1E1E1E1E1E1E1E1E1E1E1E1E1E1E1E1E1E1E1E1E1E1E1E1E1E1E1
310
E1E1E1E1E1E1E1E1E1E1E1E1E1E1E1E1E1E1E1E1E1E1E1E1E1E1E1E1E1E1E1E1E1E1E1E1E1E1E1E1E1E1E1E1E1E1E1E1E1E1E1E1E1E1E1E1E1E1E1E1E1E1E1E1E1E1E1E1E1E1E1E1E1E1E1E1E1E1E1E1E1E1E1E1E1E1E1E1E1E1E1E1E1E1E1E1E1E1E1E1E1E1E1E1E1E1E1E1E1E1E1E1E1E1E10F0F0F0F0F0F0F0F0F0F0F0F
310
0F0F0F0FE1E1E1E1E1E1E1E1E1E1E1E1E1E1E1E128BEE1E1E1E1E1E1E1E1E1E1E1E1E1E1E1E1E1E1E1E1E1E1E1E1E1E1E1E1E1E1E1E1E1E1E1E1E1E1E1E1E1E1E1E1E1E1E1E1E1E1E1E1E1E1E1E1E1E1E1E1E1E1E1E1E1E1E1E1BEE1E1E1E1E128E1E1E1E1E1E1E1E1E1E1E1E1E1E1E1E1E1E1E1E1E1E1E1E1E1E1E1E1E1E1
310
E1E1E1E1E1E1E1E1E1E1E1E1E1E1E1E1E1E1E1E1E1E1E1E1E1E1E1E1E1E1E1E1E1E1E1E1E1E1E1E1E1E1E1E1E1E1E1E1E1E1E1E1E1E1E1E1E1E1E1E1E1E1E1E1E1E1E1E1E1E1E1E1E1E1E1E1E1E1E1E1E1E1E1E1E1E1E1E1E1E1E1E1E1E1E1E1E1E1E1E1E1E1E1E1E1E1E1E1E1E1E1E1E1E1E1E1E10F0F0F0FE1E1E1E1E10F
310
0F0F0F0F0FE1E1E1E1E1E1E1E1E1E1E1E1E1E1E1E1E128BEE1E1E1E1E1E1E1E1E1E1E1E1E1E1E1E1E1E1E1E1E1E1E1E1E1E1E1E1E1E1E1E1E1E1E1E1E1E1E1E1E1E1E1E1E1E1E1E1E1E1E1E1E1E1E1E1E1E1E1E1E1E1E1E1E1E1E1E1BEE1E1E1E1E128E1E1E1E1E1E1E1E1E1E1E1E1E1E1E1E1E1E1E1E1E1E1E1E1E1E1E1E1
310
E1E1E1E1E1E1E1E1E1E1E1E1E1E1E1E1E1E1E1E1E1E1E1E1E1E1E1E1E1E1E1E1E1E1E1E1E1E1E1E1E1E1E1E1E1E1E1E1E1E1E1E1E1E1E1E1E1E1E1E1E1E1E1E1E1E1E1E1E1E1E1E1E1E1E1E1E1E1E1E1E1E1E1E1E1E1E1E1E1E1E1E1E1E1E1E1E1E1E1E1E1E1E1E1E1E1E1E1E1E1E1E1E1E1E1E1E1E1E10FBEBEBEBEBEBEBE
310
0F0F0F0F0F0F0F0F0F0F0F0F0F0F0F0F0F0F0F0F0F0F0F0F0FBEE1E1E1E1E1E1E1E1E1E1E1E1E1E1E1E1E1E1E1E1E1E1E1E1E1E1E1E1E1E1E1E1E1E1E1E1E1E1E1E1E1E1E1E1E1E1E1E1E1E1E1E1E1E1E1E1E1E1E1E1E1E1E1E1E1E1E1E1BEE1E1E1E1E128E1E1E1E1E1E1E1E1E1E1E1E1E1E1E1E1E1E1E1E1E1E1E1E1E1E1
310
E1E1E1E1E1E1E1E1E1E1E1E1E1E1E1E1E1E1E1E1E1E1E1E1E1E1E1E1E1E1E1E1E1E1E1E1E1E1E1E1E1E1E1E1E1E1E1E1E1E1E1E1E1E1E1E1E1E1E1E1E1E1E1E1E1E1E1E1E1E1E1E1E1E1E1E1E1E1E1E1E1E1E1E1E1E1E1E1E1E1E1E1E1E1E1E1E1E1E1E1E1E1E1E1E1E1E1E1E1E1E1E1E1E1E1E1E1E1E1E1E10FBEBEBEE1BE
310
BEBEBEE1E1E10FE1E1E1E1E1E1E1E1BEBEBEBEBEBEBEBEBEBEBE28BEE1E1E1E1E1E1E1E1E1E1E1E1E1E1E1E1E1E1E1E1E1E1E1E1E1E1E1E1E1E1E1E1E1E1E1E1E1E1E1E1E1E1E1E1E1E1E1E1E1E1E1E1E1E1E1E1E1E1E1E1E1E1E1E1E1E1E1E1BEE1E1E1E1E128E1E1E1E1E1E1E1E1E1E1E1E1E1E1E1E1E1E1E1E1E1E1E1E1
310
E1E1E1E1E1E1E1E1E1E1E1E1E1E1E1E1E1E1E1E1E1E1E1E1E1E1E1E1E1E1E1E1E1E1E1E1E1E1E1E1E1E1E1E1E1E1E1E1E1E1E1E1E1E1E1E1E1E1E1E1E1E1E1E1E1E1E1E1E1E1E1E1E1E1E1E1E1E1E1E1E1E1E1E1E1E1E1E1E1E1E1E1E1E1E1E1E1E1E1E1E1E1E1E1E1E1E1E1E1E1E1E1E1E1E1E1E1E1E1E1E1E1E10FBEBEBE
310
BEBEBEBEBEBEBEBEBEE1E1E1E1E1E1E1E1E1E1E1E1E2E2E2E2E2E2E228BEE1E1E1E1E1E1E1E1E1E1E1E1E1E1E1E1E1E1E1E1E1E1E1E1E1E1E1E1E1E1E1E1E1E1E1E1E1E1E1E1E1E1E1E1E1E1E1E1E1E1E1E1E1E1E1E1E1E1E1E1E1E1E1E1E1E1E1E1BEE1E1E1E1E128E1E1E1E1E1E1E1E1E1E1E1E1E1E1E1E1E1E1E1E1E1E1
310
E1E1E1E1E1E1E1E1E1E1E1E1E1E1E1E1E1E1E1E1E1E1E1E1E1E1E1E1E1E1E1E1E1E1E1E1E1E1E1E1E1E1E1E1E1E1E1E1E1E1E1E1E1E1E1E1E1E1E1E1E1E1E1E1E1E1E1E1E1E1E1E1E1E1E1E1E1E1E1E1E1E1E1E1E1E1E1E1E1E1E1E1E1E1E1E1E1E1E1E1E1E1E1E1E1E1E1E1E1E1E1E1E1E1E1E1E1E1E1E1E1E1E1E1E10FBE
310
E1E1E1BEE1E1E1E1E1E10FE1E1E1E1E1E1E1E1E1E1E1E1E1E1E1E1E1E1E128BEE1E1E1E1E1E1E1E1E1E1E1E1E1E1E1E1E1E1E1E1E1E1E1E1E1E1E1E1E1E1E1E1E1E1E1E1E1E1E1E1E1E1E1E1E1E1E1E1E1E1E1E1E1E1E1E1E1E1E1E1E1E1E1E1E1E1E1E1BEE1E1E1E1E128E1E1E1E1E1E1E1E1E1E1E1E1E1E1E1E1E1E1E1E1
310
E1E1E1E1E1E1E1E1E1E1E1E1E1E1E1E1E1E1E1E1E1E1E1E1E1E1E1E1E1E1E1E1E1E1E1E1E1E1E1E1E1E1E1E1E1E1E1E1E1E1E1E1E1E1E1E1E1E1E1E1E1E1E1E1E1E1E1E1E1E1E1E1E1E1E1E1E1E1E1E1E1E1E1E1E1E1E1E1E1E1E1E1E1E1E1E1E1E1E1E1E1E1E1E1E1E1E1E1E1E1E1E1E1E1E1E1E1E1E1E1E1E1E1E1E1E1E1
310
0FBEE1E1E1BEE1E1E1E1E1E10FE1E1E1E1E1E1E1E1E1E1E1E1E1BEBEE2E2E2E228BEE1E1E1E1E1E1E1E1E1E1E1E1E1E1E1E1E1E1E1E1E1E1E1E1E1E1E1E1E1E1E1E1E1E1E1E1E1E1E1E1E1E1E1E1E1E1E1E1E1E1E1E1E1E1E1E1E1E1E1E1E1E1E1E1E1E1E1E1BEE1E1E1E1E128E1E1E1E1E1E1E1E1E1E1E1E1E1E1E1E1E1E1
310
E1E1E1E1E1E1E1E1E1E1E1E1E1E1E1E1E1E1E1E1E1E1E1E1E1E1E1E1E1E1E1E1E1E1E1E1E1E1E1E1E1E1E1E1E1E1E1E1E1E1E1E1E1E1E1E1E1E1E1E1E1E1E1E1E1E1E1E1E1E1E1E1E1E1E1E1E1E1E1E1E1E1E1E1E1E1E1E1E1E1E1E1E1E1E1E1E1E1E1E1E1E1E1E1E1E1E1E1E1E1E1E1E1E1E1E1E1E1E1E1E1E1E1E1E1E1E1
310
E1E10FBEE1E1E1BEE1E1E1E1E1E10FE1E1E1E1E1E1E1E1E1E1E1E1E1BEBEBEE2E2E228BEE1E1E1E1E1E1E1E1E1E1E1E1E1E1E1E1E1E1E1E1E1E1E1E1E1E1E1E1E1E1E1E1E1E1E1E1E1E1E1E1E1E1E1E1E1E1E1E1E1E1E1E1E1E1E1E1E1E1E1E1E1E1E1E1E1E1E1E1BEE1E1E1E1E128E1E1E1E1E1E1E1E1E1E1E1E1E1E1E1E1
310
E1E1E1E1E1E1E1E1E1E1E1E1E1E1E1E1E1E1E1E1E1E1E1E1E1E1E1E1E1E1E1E1E1E1E1E1E1E1E1E1E1E1E1E1E1E1E1E1E1E1E1E1E1E1E1E1E1E1E1E1E1E1E1E1E1E1E1E1E1E1E1E1E1E1E1E1E1E1E1E1E1E1E1E1E1E1E1E1E1E1E1E1E1E1E1E1E1E1E1E1E1E1E1E1E1E1E1E1E1E1E1E1E1E1E1E1E1E1E1E1E1E1E1E1E1E1E1
310
E1E1E1E10FBEE1E1E1BEE1E1E1E1E1E10FE1E1E1E1E1E1E1E1E1E1E1E1E1BEBEBEBEE2E228BEE1E1E1E1E1E1E1E1E1E1E1E1E1E1E1E1E1E1E1E1E1E1E1E1E1E1E1E1E1E1E1E1E1E1E1E1E1E1E1E1E1E1E1E1E1E1E1E1E1E1E1E1E1E1E1E1E1E1E1E1E1E1E1E1E1E1E1E1BEE1E1E1E1E128E1E1E1E1E1E1E1E1E1E1E1E1E1E1
310
E1E1E1E1E1E1E1E1E1E1E1E1E1E1E1E1E1E1E1E1E1E1E1E1E1E1E1E1E1E1E1E1E1E1E1E1E1E1E1E1E1E1E1E1E1E1E1E1E1E1E1E1E1E1E1E1E1E1E1E1E1E1E1E1E1E1E1E1E1E1E1E1E1E1E1E1E1E1E1E1E1E1E1E1E1E1E1E1E1E1E1E1E1E1E1E1E1E1E1E1E1E1E1E1E1E1E1E1E1E1E1E1E1E1E1E1E1E1E1E1E1E1E1E1E1E1E1
310
E1E1E1E1E1E10FBEE1E1E1BEE1E1E1E1E1E10FE1E1E1E1E1E1E1E1E1E1E1E1E1E1E1E1E1E1E128BEE1E1E1E1E1E1E1E1E1E1E1E1E1E1E1E1E1E1E1E1E1E1E1E1E1E1E1E1E1E1E1E1E1E1E1E1E1E1E1E1E1E1E1E1E1E1E1E1E1E1E1E1E1E1E1E1E1E1E1E1E1E1E1E1E1E1E1E1BEE1E1E1E1E128E1E1E1E1E1E1E1E1E1E1E1E1
310
E1E1E1E1E1E1E1E1E1E1E1E1E1E1E1E1E1E1E1E1E1E1E1E1E1E1E1E1E1E1E1E1E1E1E1E1E1E1E1E1E1E1E1E1E1E1E1E1E1E1E1E1E1E1E1E1E1E1E1E1E1E1E1E1E1E1E1E1E1E1E1E1E1E1E1E1E1E1E1E1E1E1E1E1E1E1E1E1E1E1E1E1E1E1E1E1E1E1E1E1E1E1E1E1E1E1E1E1E1E1E1E1E1E1E1E1E1E1E1E1E1E1E1E1E1E1E1
310
E1E1E1E1E1E1E1E10FBEE1E1E1BEE1E1E1E1E1E10FE1E1E1E1E1E1E1E1E1E1E1E1E1E1E1E1E1E1E128BEE1E1E1E1E1E1E1E1E1E1E1E1E1E1E1E1E1E1E1E1E1E1E1E1E1E1E1E1E1E1E1E1E1E1E1E1E1E1E1E1E1E1E1E1E1E1E1E1E1E1E1E1E1E1E1E1E1E1E1E1E1E1E1E1E1E1E1E1BEE1E1E1E1E128E1E1E1E1E1E1E1E1E1E1
310
E1E1E1E1E1E1E1E1E1E1E1E1E1E1E1E1E1E1E1E1E1BEE1E1E1E1E1E1E1BEE1E1E1E1E1E1E1E1E1E1E1BEE1E1E1E1E1E1E1E1E1E1E1E1E1E1E1E1E1E1E1E1E1E1E1E1E1E1E1E1E1E1E1E1E1E1E1E1E1E1E1E1E1E1E1E1E1E1E1E1E1E1E1E1E1E1E1E1E1E1E1E1E1E1E1E1E1E1E1E1E1E1E1E1E1E1E1E1E1E1E1E1E1E1E1E1E1
310
E1E1E1E1E1E1E1E1E1E10FBEE1E1E1BEE1E1E1E1E1E10FE1E1E1E1E1E1E1E1E1E1E1E1E1E1E1E1E1E1E128BEE1E1E1E1E1E1E1E1E1E1E1E1E1E1E1E1E1E1E1E1E1E1E1E1E1E1E1E1E1E1E1E1E1E1E1E1E1E1E1E1E1E1E1E1E1E1E1E1E1E1E1E1E1E1E1E1E1E1E1E1E1E1E1E1E1E1E1E1BEE1E1E1E1E128E1E1E1E1E1E1E1E1
310
E1E1E1E1E1E1E1E1E1E1E1E1E1E1E1E1E1E1E1E1E1E1E1BEE1E1E1E1E1E1E1BEE1E1E1E1E1E1E1E1E1E1E1BEE1E1E1E1E1E1E10FE1E1E1E1E1E1E1E1E1E1E1E1E1E1E1E1E1E1E1E1E1E1E1E1E1E1E1E1E1E1E1E1E1E1E1E1E1E1E1E1E1E1E1E1E1E1E1E1E1E1E1E1E1E1E1E1E1E1E1E1E1E1E1E1E1E1E1E1E1E1E1E1E1E1E1
310
E1E1E1E1E1E1E1E1E1E1E1E10FBE0F0F0FBE0F0F0F0F0F0F0F0F0F0F0F0F0F0F0F0F0F0F0F0F0F0F0F0F0F0F0FBEE1E1E1E1E1E1E1E1E1E1E1E1E1E1E1E1E1E1E1E1E1E1E1E1E1E1E1E1E1E1E1E1E1E1E1E1E1E1E1E1E1E1E1E1E1E1E1E1E1E1E1E1E1E1E1E1E1E1E1E1E1E1E1E1E1E1E1E1BEE1E1E1E1E128E1E1E1E1E1E1
310
E1E1E1E1E1E1E1E1E10F0F0F0F0F0FE10F0F0F0F0F0F0F0F0FBEE1E10F0FE1E1E1BEE10F0F0F0F0F0F0F0F0F0FBEE1E10F0F0F0F0F0F0F0FE1E1E1E1E1E1E1E1E1E1E1E1E1E1E1E1E1E1E1E1E1E1E1E1E1E1E1E1E1E1E1E1E1E1E1E1E1E1E1E1E1E1E1E1E1E1E1E1E1E1E1E1E1E1E1E1E1E1E1E1E1E1E1E1E1E1E1E1E1E1E1
310
E1E1E1E1E1E1E1E1E1E1E1E1E1E10FE1E1E1E1E1E1E1E1E1E1E1E1E1E1E1E1E1E1E1E1E1E1E1E1E1E1E1E1E1E1E128BEE1E1E1E1E1E1E1E1E1E1E1E1E1E1E1E1E1E1E1E1E1E1E1E1E1E1E1E1E1E1E1E1E1E1E1E1E1E1E1E1E1E1E1E1E1E1E1E1E1E1E1E1E1E1E1E1E1E1E1E1E1E1E1E1E1E1E1E1BEE1E1E1E1E128E1E1E1E1
310
E1E1E1E1E1E1E1E1E1E1E10F0F0F0F0F0FE10F0F0F0F0F0F0F0F0FBEE1E10F0FE1E1E1BEE10F0F0F0F0FE10F0F0FE1BEE1E10F0F0F0F0FE10FE1E1E1E1E1E1E1E1E1E1E1E1E1E1E1E1E1E1E1E1E1E1E1E1E1E1E1E1E1E1E1E1E1E1E1E1E1E1E1E1E1E1E1E1E1E1E1E1E1E1E1E1E1E1E1E1E1E1E1E1E1E1E1E1E1E1E1E1E1E1
310
E1E1E1E1E1E1E1E1E1E1E1E1E1E1E1E10FE1E2E2E2E2E2E2E2E2E2E2E2E2E2E2E2E2E2E2E2E2E2E2E2E2E2E2E2E2E2E228BEE1E1E1E1E1E1E1E1E1E1E1E1E1E1E1E1E1E1E1E1E1E1E1E1E1E1E1E1E1E1E1E1E1E1E1E1E1E1E1E1E1E1E1E1E1E1E1E1E1E1E1E1E1E1E1E1E1E1E1E1E1E1E1E1E1E1E1E1BEE1E1E1E1BE28E1E1
310
E1E1E1E1E1E1E1E1E1E1E1E1E1E1E1E1E1E1E1E1E1E1E1E1E1E1E1E1E1BEE1E1E1E1E1E1E1BEE1E1E1E1E1E1E1E1E1E1E1BEE1E1E1E1E1E1E1E1E1E1E1E1E1E1E1E1E1E1E1E1E1E1E1E1E1E1E1E1E1E1E1E1E1E1E1E1E1E1E1E1E1E1E1E1E1E1E1E1E1E1E1E1E1E1E1E1E1E1E1E1E1E1E1E1E1E1E1E1E1E1E1E1E1E1E1E1E1
310
E1E1E1E1E1E1E1E1E1E1E1E1E1E1E1E1E1E10FE1E2E2E2E2E2E2E2E2E2E2E2E2E2E2E2E2E2E2E2E2E2E2E2E2E2E2E2E2E2E228BEE1E1E1E1E1E1E1E1E1E1E1E1E1E1E1E1E1E1E1E1E1E1E1E1E1E1E1E1E1E1E1E1E1E1E1E1E1E1E1E1E1E1E1E1E1E1E1E1E1E1E1E1E1E1E1E1E1E1E1E1E1E1E1E1E1E1E1E1BEE1E1E1E1BE28
310
E1E1E1E1E1E1E1E1E1E1E1E1E1E1E1E1E1E1E1E1E1E1E1E1E1E1E1E1E1E1E1BEE1E1E10FE1E1E1BEE1E1E1E1E1E1E1E1E1E1E1BEE1E1E1E1E1E1E10FE1E1E1E1E1E1E1E1E1E1E1E1E1E1E1E1E1E1E1E1E1E1E1E1E1E1E1E1E1E1E1E1E1E1E1E1E1E1E1E1E1E1E1E1E1E1E1E1E1E1E1E1E1E1E1E1E1E1E1E1E1E1E1E1E1E1E1
310
E1E1E1E1E1E1E1E1E1E1E1E1E1E1E1E1E1E1E1E10FE1E2E2E2E2E2E2E1E2E2E2E1E1E1E1E1E1E1E1E1E1E1E1E1E1E1E1E1E1E1E128BEE1E1E1E1E1E1E1E1E1E1E1E1E1E1E1E1E1E1E1E1E1E1E1E1E1E1E1E1E1E1E1E1E1E1E1E1E1E1E1E1E1E1E1E1E1E1E1E1E1E1E1E1E1E1E1E1E1E1E1E1E1E1E1E1E1E1E1E1BEE1E1E1E1
310
BE28E1E1E1E1E1E1E1E1E1E1E1E1E1E1E10F0F0F0F0F0FE10F0F0F0F0F0F0F0F0FBEE1E10F0FE1E1E1BEE10F0F0F0F0F0F0F0F0F0FBEE1E10F0F0F0F0F0F0F0FE1E1E1E1E1E1E1E1E1E1E1E1E1E1E1E1E1E1E1E1E1E1E1E1E1E1E1E1E1E1E1E1E1E1E1E1E1E1E1E1E1E1E1E1E1E1E1E1E1E1E1E1E1E1E1E1E1E1E1E1E1E1E1
310
E1E1E1E1E1E1E1E1E1E1E1E1E1E1E1E1E1E1E1E1E1E10FE1E2E2E2E2E1E1E1E2E2E2E1E1E1E1E1E1E1E1E1E1E1E1E1E1E1E1E1E1E1E128BEE1E1E1E1E1E1E1E1E1E1E1E1E1E1E1E1E1E1E1E1E1E1E1E1E1E1E1E1E1E1E1E1E1E1E1E1E1E1E1E1E1E1E1E1E1E1E1E1E1E1E1E1E1E1E1E1E1E1E1E1E1E1E1E1E1E1E1E1BEE1E1
310
E1E1BE28E1E1E1E1E1E1E1E1E1E1E1E1E1E1E10F0F0F0F0F0FE10F0F0FE10F0F0F0F0FBEE1E1E10FE1E1E1BEE10F0F0F0F0FE10F0F0FE1BEE1E10F0F0F0F0FE10FE1E1E1E1E1E1E1E1E1E1E1E1E1E1E1E1E1E1E1E1E1E1E1E1E1E1E1E1E1E1E1E1E1E1E1E1E1E1E1E1E1E1E1E1E1E1E1E1E1E1E1E1E1E1E1E1E1E1E1E1E1E1
310
E1E1E1E1E1E1E1E1E1E1E1E1E1E1E1E1E1E1E1E1E1E1E1E10FE1E2E2E2E2E2E2E2E2E2E2E2E2E2E2E2E2E2E2E2E2E2E2E2E2E2E2E2E1E1E128BEE1E1E1E1E1E1E1E1E1E1E1E1E1E1E1E1E1E1E1E1E1E1E1E1E1E1E1E1E1E1E1E1E1E1E1E1E1E1E1E1E1E1E1E1E1E1E1E1E1E1E1E1E1E1E1E1E1E1E1E1E1E1E1E1E1E1E1E1BE
310
E1E1E1E1BE28E1E1E1E1E1E1E1E1E1E1E1E1E1E1E1E1E1E1E1E1E1E1E1E1E1E1E1E1E1E1E1BEE1E1E1E1E1E1E1BEE1E1E1E1E1E1E1E1E1E1E1BEE1E1E1E1E1E1E1E1E1E1E1E1E1E1E1E1E1E1E1E1E1E1E1E1E1E1E1E1E1E1E1E1E1E1E1E1E1E1E1E1E1E1E1E1E1E1E1E1E1E1E1E1E1E1E1E1E1E1E1E1E1E1E1E1E1E1E1E1E1
310
E1E1E1E1E1E1E1E1E1E1E1E1E1E1E1E1E1E1E1E1E1E1E1E1E1E10FE1E2E2E2E2E2E2E2E2E2E2E2E2E2E2E2E2E2E2E2E2E2E2E2E2E2E2E2E2E1E128BEE1E1E1E1E1E1E1E1E1E1E1E1E1E1E1E1E1E1E1E1E1E1E1E1E1E1E1E1E1E1E1E1E1E1E1E1E1E1E1E1E1E1E1E1E1E1E1E1E1E1E1E1E1E1E1E1E1E1E1E1E1E1E1E1E1E1E1
310
E1BEE1E1E1E1BE28E1E1E1E1E1E1E1E1E1E1E1E1E1E1E10F0F0F0F0F0FE10F0F0F0F0F0F0F0FE1BEE1E10F0FE1E1E1BEE1E10F0F0F0F0F0FE10FE1BEE1E10F0F0F0F0F0F0FE1E1E1E1E1E1E1E1E1E1E1E1E1E1E1E1E1E1E1E1E1E1E1E1E1E1E1E1E1E1E1E1E1E1E1E1E1E1E1E1E1E1E1E1E1E1E1E1E1E1E1E1E1E1E1E1E1E1
310
E1E1E1E1E1E1E1E1E1E1E1E1E1E1E1E1E1E1E1E1E1E1E1E1E1E1E1E10FE1E2E2E2E2E2E2E2E2E2E2E2E2E2E2E2E2E1E1E1E1E1E1E1E1E1E1E1E1E1E128BEE1E1E1E1E1E1E1E1E1E1E1E1E1E1E1E1E1E1E1E1E1E1E1E1E1E1E1E1E1E1E1E1E1E1E1E1E1E1E1E1E1E1E1E1E1E1E1E1E1E1E1E1E1E1E1E1E1E1E1E1E1E1E1E1E1
310
E1E1E1BEE1E1E1E1BE28E1E1E1E1E1E1E1E1E1E1E1E1E1E1E10F0F0F0F0F0FE10F0F0F0F0F0F0F0FE1BEE1E10F0FE1E1E1BEE10F0F0F0F0FE10F0F0FE1BEE1E10F0F0F0F0F0F0FE1E1E1E1E1E1E1E1E1E1E1E1E1E1E1E1E1E1E1E1E1E1E1E1E1E1E1E1E1E1E1E1E1E1E1E1E1E1E1E1E1E1E1E1E1E1E1E1E1E1E1E1E1E1E1E1
310
E1E1E1E1E1E1E1E1E1E1E1E1E1E1E1E1E1E1E1E1E1E1E1E1E1E1E1E1E1E10FE1E2E2E2E2E2E2E1E2E1E2E2E2E2E2E2E2E1E1E1E1E1E1E1E1E1E1E1E1E1E128BEE1E1E1E1E1E1E1E1E1E1E1E1E1E1E1E1E1E1E1E1E1E1E1E1E1E1E1E1E1E1E1E1E1E1E1E1E1E1E1E1E1E1E1E1E1E1E1E1E1E1E1E1E1E1E1E1E1E1E1E1E1E1E1
310
E1E1E1E1E1BEE1E1E1E1BE28E1E1E1E1E1E1E1E1E1E1E1E1E1E1E10F0F0F0FE10FE10F0F0F0F0F0F0F0FE1BEE1E1E10FE1E1E1BEE1E10F0F0F0F0F0F0FE1E1BEE1E10F0F0F0FE10F0FE1E1E1E1E1E1E1E1E1E1E1E1E1E1E1E1E1E1E1E1E1E1E1E1E1E1E1E1E1E1E1E1E1E1E1E1E1E1E1E1E1E1E1E1E1E1E1E1E1E1E1E1E1E1
310
E1E1E1E1E1E1E1E1E1E1E1E1E1E1E1E1E1E1E1E1E1E1E1E1E1E1E1E1E1E1E1E10F0F0F0F0F0F0F0F0F0F0F0F0F0F0F0F0F0F0F0F0F0F0F0F0F0F0F0F0F0F0F0F0FBEE1E1E1E1E1E1E1E1E1E1E1E1E1E1E1E1E1E1E1E1E1E1E1E1E1E1E1E1E1E1E1E1E1E1E1E1E1E1E1E1E1E1E1E1E1E1E1E1E1E1E1E1E1E1E1E1E1E1E1E1E1
310
E1E1E1E1E1E1E1BEE1E1E1E1BE28E1E1E1E1E1E1E1E1E1E1E1E1E1BEBEBEBEBEBEBEBEBEBEBEBEBEBEBEBEBEBEBEBEBEBEBEBEBEBEBEBEBEBEBEBEBEBEBEBEBEBEBEBEBEBEBEBEBEBEBEBEBEBEBEE1E1E1E1E1E1E1E1E1E1E1E1E1E1E1E1E1E1E1E1E1E1E1E1E1E1E1E1E1E1E1E1E1E1E1E1E1E1E1E1E1E1E1E1E1E1E1E1E1
310
E1E1E1E1E1E1E1E1E1E1E1E1E1E1E1E1E1E1E1E1E1E1E1E1E1E1E1E1E1E1E1E1E1E10FE1E1E1E1E1E1E1E1E2E2E1E2E2E2E2E2E2E2E2E2E2E2E1E1E1E1E1E1E1E1E128BEE1E1E1E1E1E1E1E1E1E1E1E1E1E1E1E1E1E1E1E1E1E1E1E1E1E1E1E1E1E1E1E1E1E1E1E1E1E1E1E1E1E1E1E1E1E1E1E1E1E1E1E1E1E1E1E1E1E1E1
310
E1E1E1E1E1E1E1E1E1BEE1E1E1E1BE28E1E1E1E1E1E1E1E1E1E1E1E1E1E1E1E1E1E1E1E10FE10F0FE1E1E1E1E1E1E1BE0F0F0F0FE10F0FBEE1E1E1E10F0FE1E1E1E1E1BEE1E1E1E1E10FE1E1E1E1E1E1E1E1E1E1E1E1E1E1E1E1E1E1E1E1E1E1E1E1E1E1E1E1E1E1E1E1E1E1E1E1E1E1E1E1E1E1E1E1E1E1E1E1E1E1E1E1E1
310
E1E1E1E1E1E1E1E1E1E1E1E1E1E1E1E1E1E1E1E1E1E1E1E1E1E1E1E1E1E1E1E1E1E1E1E10FE1E1E1E1E1E1E1E1E2E2E1E2E2E2E2E1E2E2E2E2E2E2E1E1E1E1E1E1E1E1E128BEE1E1E1E1E1E1E1E1E1E1E1E1E1E1E1E1E1E1E1E1E1E1E1E1E1E1E1E1E1E1E1E1E1E1E1E1E1E1E1E1E1E1E1E1E1E1E1E1E1E1E1E1E1E1E1E1E1
310
E1E1E1E1E1E1E1E1E1E1E1BEE1E1E1E1BE28E1E1E1E1E1E1E1E1E1E1E1E1E1E1E1E1E1E1E1E10FE10F0F0F0FE1E1E1E1E1BE0F0F0FE10F0F0FBEE1E1E1E10F0FE1E1E1E1E1BEE1E1E1E1E10FE1E1E1E1E1E1E1E1E1E1E1E1E1E1E1E1E1E1E1E1E1E1E1E1E1E1E1E1E1E1E1E1E1E1E1E1E1E1E1E1E1E1E1E1E1E1E1E1E1E1E1
310
E1E1E1E1E1E1E1E1E1E1E1E1E1E1E1E1E1E1E1E1E1E1E1E1E1E1E1E1E1E1E1E1E1E1E1E1E1E10FE10F0F0F0F0F0F0F0F0F0F0F0F0F0F0F0F0F0F0F0F0FE1E1E1E1E1E1E1E1E128BEE1E1E1E1E1E1E1E1E1E1E1E1E1E1E1E1E1E1E1E1E1E1E1E1E1E1E1E1E1E1E1E1E1E1E1E1E1E1E1E1E1E1E1E1E1E1E1E1E1E1E1E1E1E1E1
310
E1E1E1E1E1E1E1E1E1E1E1E1E1BEE1E1E1E1BE28E1E1E1E1E1E1E1E1E1E1E1E1E1E1E1E1E1E1E10F0F0FE10F0FE1E1E1E1E1E1BE0F0F0F0F0F0F0FBEE1E1E1E1E10FE1E1E1E1E1BEE1E1E1E1E10FE1E1E1E1E1E1E1E1E1E1E1E1E1E1E1E1E1E1E1E1E1E1E1E1E1E1E1E1E1E1E1E1E1E1E1E1E1E1E1E1E1E1E1E1E1E1E1E1E1
310
E1E1E1E1E1E1E1E1E1E1E1E1E1E1E1E1E1E1E1E1E1E1E1E1E1E1E1E1E1E1E1E1E1E1E1E1E1E1E1E10F0F0F0F0F0F0F0F0F0F0F0F0F0F0F0F0F0F0F0F0F0F0F0F0F0F0F0F0F0F0F0F0FBEE1E1E1E1E1E1E1E1E1E1E1E1E1E1E1E1E1E1E1E1E1E1E1E1E1E1E1E1E1E1E1E1E1E1E1E1E1E1E1E1E1E1E1E1E1E1E1E1E1E1E1E1E1
310
E1E1E1E1E1E1E1E1E1E1E1E1E1E1E1BEE1E1E1E1BE28E1E1E1E1E1E1E1E1E1E1E1E1E1E1E1E1E1E1E1E1E1E1E1E1E1E1E1E1E1E1E1BEE1E1E1E1E1E1E1BEE1E1E1E1E1E1E1E1E1E1E1BEE1E1E1E1E1E1E1E1E1E1E1E1E1E1E1E1E1E1E1E1E1E1E1E1E1E1E1E1E1E1E1E1E1E1E1E1E1E1E1E1E1E1E1E1E1E1E1E1E1E1E1E1E1
310
E1E1E1E1E1E1E1E1E1E1E1E1E1E1E1E1E1E1E1E1E1E1E1E1E1E1E1E1E1E1E1E1E1E1E1E1E1E1E1E1E1E10FE1BEBEBEBEE1E1E1E1E1E1E1E1E1E1E1E1E1E1E1E1E1E1E1E1E10F0F0F0F0F0FBEE1E1E1E1E1E1E1E1E1E1E1E1E1E1E1E1E1E1E1E1E1E1E1E1E1E1E1E1E1E1E1E1E1E1E1E1E1E1E1E1E1E1E1E1E1E1E1E1E1E1E1
310
E1E1E1E1E1E1E1E1E1E1E1E1E1E1E1E1E1BEE1E1E1E1BE28E1E1E1E1E1E1E1E1E1E1E1E1E1E1E1E1E1E1E1E1E1E1E1E1E1E1E1E1E1E1E1E1E1E1E1E1E1E1E1E1E1E1E1E1E1E1E1E1E1E1E1E1E1E1E1E1E1E1E1E1E1E1E1E1E1E1E1E1E1E1E1E1E1E1E1E1E1E1E1E1E1E1E1E1E1E1E1E1E1E1E1E1E1E1E1E1E1E1E1E1E1E1E1
310
E1E1E1E1E1E1E1E1E1E1E1E1E1E1E1E1E1E1E1E1E1E1E1E1E1E1E1E1E1E1E1E1E1E1E1E1E1E1E1E1E1E1E1E10FE1BEBEBEBEBEBEE2E2E1E1E1E1E1E1E1E1E1E1E1E1E1E1E1E1E10FBEBEBEBEBEBEE1E1E1E1E1E1E1E1E1E1E1E1E1E1E1E1E1E1E1E1E1E1E1E1E1E1E1E1E1E1E1E1E1E1E1E1E1E1E1E1E1E1E1E1E1E1E1E1E1
310
E1E1E1E1E1E1E1E1E1E1E1E1E1E1E1E1E1E1E1BEE1E1E1E1BE28E1E1E1E1E1E1E1E1E1E1E1E1E1E1E1E1E1E1E1E1E1E1E1E1E1E1E1E1E1E1E1E1E1E1E1E1E1E1E1E1E1E1E1E1E1E1E1E1E1E1E1E1E1E1E1E1E1E1E1E1E1E1E1E1E1E1E1E1E1E1E1E1E1E1E1E1E1E1E1E1E1E1E1E1E1E1E1E1E1E1E1E1E1E1E1E1E1E1E1E1E1
310
E1E1E1E1E1E1E1E1E1E1E1E1E1E1E1E1E1E1E1E1E1E1E1E1E1E1E1E1E1E1E1E1E1E1E1E1E1E1E1E1E1E1E1E1E1E10F0FBEBEBEBEBEBEE1E1E1E1E1E1E1E1E1E1E1E1E1E1E1E1E1E1E1E10F0F0F0F28BEE1E1E1E1E1E1E1E1E1E1E1E1E1E1E1E1E1E1E1E1E1E1E1E1E1E1E1E1E1E1E1E1E1E1E1E1E1E1E1E1E1E1E1E1E1E1E1
310
E1E1E1E1E1E1E1E1E1E1E1E1E1E1E1E1E1E1E1E1E1BEE1E1E1E1BE28E1E1E1E1E1E1E1E1E1E1E1E1E1E1E1E1E1E1E1E1E1E1E1E1E1E1E1E1E1E1E1E1E1E1E1E1E1E1E1E1E1E1E1E1E1E1E1E1E1E1E1E1E1E1E1E1E1E1E1E1E1E1E1E1E1E1E1E1E1E1E1E1E1E1E1E1E1E1E1E1E1E1E1E1E1E1E1E1E1E1E1E1E1E1E1E1E1E1E1
310
E1E1E1E1E1E1E1E1E1E1E1E1E1E1E1E1E1E1E1E1E1E1E1E1E1E1E1E1E1E1E1E1E1E1E1E1E1E1E1E1E1E1E1E1E1E1E1E1E10F0F0F0F0F0F0F0F0F0F0F0F0F0F0F0F0F0F0F0F0F0F0F0F0F0F0F0F0F0F0F0FBEE1E1E1E1E1E1E1E1E1E1E1E1E1E1E1E1E1E1E1E1E1E1E1E1E1E1E1E1E1E1E1E1E1E1E1E1E1E1E1E1E1E1E1E1E1
310
E1E1E1E1E1E1E1E1E1E1E1E1E1E1E1E1E1E1E1E1E1E1E1BEE1E1E1E1BE28E1E1E1E1E1E1E1E1E1E1E1E1E1E1E1E1E1E1E1E1E1E1E1E1E1E1E1E1E1E1E1E1E1E1E1E1E1E1E1E1E1E1E1E1E1E1E1E1E1E1E1E1E1E1E1E1E1E1E1E1E1E1E1E1E1E1E1E1E1E1E1E1E1E1E1E1E1E1E1E1E1E1E1E1E1E1E1E1E1E1E1E1E1E1E1E1E1
310
E1E1E1E1E1E1E1E1E1E1E1E1E1E1E1E1E1E1E1E1E1E1E1E1E1E1E1E1E1E1E1E1E1E1E1E1E1E1E1E1E1E1E1E1E1E1E1E1E1E1E1E1E1E1E1E1E1E1E1E1E1E1E1E1E1E1E1E1E1E1E1E1E1E1E1E1E1E1E1E1E1E128BEE1E1E1E1E1E1E1E1E1E1E1E1E1E1E1E1E1E1E1E1E1E1E1E1E1E1E1E1E1E1E1E1E1E1E1E1E1E1E1E1E1E1E1
310
E1E1E1E1E1E1E1E1E1E1E1E1E1E1E1E1E1E1E1E1E1E1E1E1E1BEE1E1E1E1BE28E1E1E1E1E1E1E1E1E1E1E1E1E1E1E1E1E1E1E1E1E1E1E1E1E1E1E1E1E1E1E1E1E1E1E1E1E1E1E1E1E1E1E1E1E1E1E1E1E1E1E1E1E1E1E1E1E1E1E1E1E1E1E1E1E1E1E1E1E1E1E1E1E1E1E1E1E1E1E1E1E1E1E1E1E1E1E1E1E1E1E1E1E1E1E1
310
E1E1E1E1E1E1E1E1E1E1E1E1E1E1E1E1E1E1E1E1E1E1E1E1E1E1E1E1E1E1E1E1E1E1E1E1E1E1E1E1E1E1E1E1E1E1E1E1E1E1E1E1E1E1E1E1E1E1E1E1E1E1E1E1E1E1E1E1E1E1E1E1E1E1E1E1E1E1E1E1E1E1E1E128BEE1E1E1E1E1E1E1E1E1E1E1E1E1E1E1E1E1E1E1E1E1E1E1E1E1E1E1E1E1E1E1E1E1E1E1E1E1E1E1E1E1
310
E1E1E1E1E1E1E1E1E1E1E1E1E1E1E1E1E1E1E1E1E1E1E1E1E1E1E1BEE1E1E1E1BE28E1E1E1E1E1E1E1E1E1E1E1E1E1E1E1E1E1E1E1E1E1E1E1E1E1E1E1E1E1E1E1E1E1E1E1E1E1E1E1E1E1E1E1E1E1E1E1E1E1E1E1E1E1E1E1E1E1E1E1E1E1E1E1E1E1E1E1E1E1E1E1E1E1E1E1E1E1E1E1E1E1E1E1E1E1E1E1E1E1E1E1E1E1
310
E1E1E1E1E1E1E1E1E1E1E1E1E1E1E1E1E1E1E1E1E1E1E1E1E1E1E1E1E1E1E1E1E1E1E1E1E1E1E1E1E1E1E1E1E1E1E1E1E1E1E1E1E1E1E1E1E1E1E1E1E1E1E1E1E1E1E1E1E1E1E1E1E1E1E1E1E1E1E1E1E1E1E1E1E1E128BEE1E1E1E1E1E1E1E1E1E1E1E1E1E1E1E1E1E1E1E1E1E1E1E1E1E1E1E1E1E1E1E1E1E1E1E1E1E1E1
310
E1E1E1E1E1E1E1E1E1E1E1E1E1E1E1E1E1E1E1E1E1E1E1E1E1E1E1E1E1BEE1E1E1E1BE28E1E1E1E1E1E1E1E1E1E1E1E1E1E1E1E1E1E1E1E1E1E1E1E1E1E1E1E1E1E1E1E1E1E1E1E1E1E1E1E1E1E1E1E1E1E1E1E1E1E1E1E1E1E1E1E1E1E1E1E1E1E1E1E1E1E1E1E1E1E1E1E1E1E1E1E1E1E1E1E1E1E1E1E1E1E1E1E1E1E1E1
310
E1E1E1E1E1E1E1E1E1E1E1E1E1E1E1E1E1E1E1E1E1E1E1E1E1E1E1E1E1E1E1E1E1E1E1E1E1E1E1E1E1E1E1E1E1E1E1E1E1E1E1E1E1E1E1E1E1E1E1E1E1E1E1E1E1E1E1E1E1E1E1E1E1E1E1E1E1E1E1E1E1E1E1E1E1E1E1E128BEE1E1E1E1E1E1E1E1E1E1E1E1E1E1E1E1E1E1E1E1E1E1E1E1E1E1E1E1E1E1E1E1E1E1E1E1E1
310
E1E1E1E1E1E1E1E1E1E1E1E1E1E1E1E1E1E1E1E1E1E1E1E1E1E1E1E1E1E1E1BEE1E1E1E1BE28E1E1E1E1E1E1E1E1E1E1E1E1E1E1E1E1E1E1E1E1E1E1E1E1E1E1E1E1E1E1E1E1E1E1E1E1E1E1E1E1E1E1E1E1E1E1E1E1E1E1E1E1E1E1E1E1E1E1E1E1E1E1E1E1E1E1E1E1E1E1E1E1E1E1E1E1E1E1E1E1E1E1E1E1E1E1E1E1E1
310
E1E1E1E1E1E1E1E1E1E1E1E1E1E1E1E1E1E1E1E1E1E1E1E1E1E1E1E1E1E1E1E1E1E1E1E1E1E1E1E1E1E1E1E1E1E1E1E1E1E1E1E1E1E1E1E1E1E1E1E1E1E1E1E1E1E1E1E1E1E1E1E1E1E1E1E1E1E1E1E1E1E1E1E1E1E1E1E1E1E128BEE1E1E1E1E1E1E1E1E1E1E1E1E1E1E1E1E1E1E1E1E1E1E1E1E1E1E1E1E1E1E1E1E1E1E1
310
E1E1E1E1E1E1E1E1E1E1E1E1E1E1E1E1E1E1E1E1E1E1E1E1E1E1E1E1E1E1E1E1E1BEE1E1E1E1BE28E1E1E1E1E1E1E1E1E1E1E1E1E1E1E1E1E1E1E1E1E1E1E1E1E1E1E1E1E1E1E1E1E1E1E1E1E1E1E1E1E1E1E1E1E1E1E1E1E1E1E1E1E1E1E1E1E1E1E1E1E1E1E1E1E1E1E1E1E1E1E1E1E1E1E1E1E1E1E1E1E1E1E1E1E1E1E1
310
E1E1E1E1E1E1E1E1E1E1E1E1E1E1E1E1E1E1E1E1E1E1E1E1E1E1E1E1E1E1E1E1E1E1E1E1E1E1E1E1E1E1E1E1E1E1E1E1E1E1E1E1E1E1E1E1E1E1E1E1E1E1E1E1E1E1E1E1E1E1E1E1E1E1E1E1E1E1E1E1E1E1E1E1E1E1E1E1E1E1E1E128BEE1E1E1E1E1E1E1E1E1E1E1E1E1E1E1E1E1E1E1E1E1E1E1E1E1E1E1E1E1E1E1E1E1
310
E1E1E1E1E1E1E1E1E1E1E1E1E1E1E1E1E1E1E1E1E1E1E1E1E1E1E1E1E1E1E1E1E1E1E1BEE1E1E1E1BE28E1E1E1E1E1E1E1E1E1E1E1E1E1E1E1E1E1E1E1E1E1E1E1E1E1E1E1E1E1E1E1E1E1E1E1E1E1E1E1E1E1E1E1E1E1E1E1E1E1E1E1E1E1E1E1E1E1E1E1E1E1E1E1E1E1E1E1E1E1E1E1E1E1E1E1E1E1E1E1E1E1E1E1E1E1
310
E1E1E1E1E1E1E1E1E1E1E1E1E1E1E1E1E1E1E1E1E1E1E1E1E1E1E1E1E1E1E1E1E1E1E1E1E1E1E1E1E1E1E1E1E1E1E1E1E1E1E1E1E1E1E1E1E1E1E1E1E1E1E1E1E1E1E1E1E1E1E1E1E1E1E1E1E1E1E1E1E1E1E1E1E1E1E1E1E1E1E1E1E1E128BEE1E1E1E1E1E1E1E1E1E1E1E1E1E1E1E1E1E1E1E1E1E1E1E1E1E1E1E1E1E1E1
310
E1E1E1E1E1E1E1E1E1E1E1E1E1E1E1E1E1E1E1E1E1E1E1E1E1E1E1E1E1E1E1E1E1E1E1E1E1BEE1E1E1E1BE28E1E1E1E1E1E1E1E1E1E1E1E1E1E1E1E1E1E1E1E1E1E1E1E1E1E1E1E1E1E1E1E1E1E1E1E1E1E1E1E1E1E1E1E1E1E1E1E1E1E1E1E1E1E1E1E1E1E1E1E1E1E1E1E1E1E1E1E1E1E1E1E1E1E1E1E1E1E1E1E1E1E1E1
310
E1E1E1E1E1E1E1E1E1E1E1E1E1E1E1E1E1E1E1E1E1E1E1E1E1E1E1E1E1E1E1E1E1E1E1E1E1E1E1E1E1E1E1E1E1E1E1E1E1E1E1E1E1E1E1E1E1E1E1E1E1E1E1E1E1E1E1E1E1E1E1E1E1E1E1E1E1E1E1E1E1E1E1E1E1E1E1E1E1E1E1E1E1E1E1E128BEE1E1E1E1E1E1E1E1E1E1E1E1E1E1E1E1E1E1E1E1E1E1E1E1E1E1E1E1E1
310
E1E1E1E1E1E1E1E1E1E1E1E1E1E1E1E1E1E1E1E1E1E1E1E1E1E1E1E1E1E1E1E1E1E1E1E1E1E1E1BEE1E1E1E1BE28E1E1E1E1E1E1E1E1E1E1E1E1E1E1E1E1E1E1E1E1E1E1E1E1E1E1E1E1E1E1E1E1E1E1E1E1E1E1E1E1E1E1E1E1E1E1E1E1E1E1E1E1E1E1E1E1E1E1E1E1E1E1E1E1E1E1E1E1E1E1E1E1E1E1E1E1E1E1E1E1E1
310
E1E1E1E1E1E1E1E1E1E1E1E1E1E1E1E1E1E1E1E1E1E1E1E1E1E1E1E1E1E1E1E1E1E1E1E1E1E1E1E1E1E1E1E1E1E1E1E1E1E1E1E1E1E1E1E1E1E1E1E1E1E1E1E1E1E1E1E1E1E1E1E1E1E1E1E1E1E1E1E1E1E1E1E1E1E1E1E1E1E1E1E1E1E1E1E1E1E128BEE1E1E1E1E1E1E1E1E1E1E1E1E1E1E1E1E1E1E1E1E1E1E1E1E1E1E1
310
E1E1E1E1E1E1E1E1E1E1E1E1E1E1E1E1E1E1E1E1E1E1E1E1E1E1E1E1E1E1E1E1E1E1E1E1E1E1E1E1E1BEE1E1E1E1BE28E1E1E1E1E1E1E1E1E1E1E1E1E1E1E1E1E1E1E1E1E1E1E1E1E1E1E1E1E1E1E1E1E1E1E1E1E1E1E1E1E1E1E1E1E1E1E1E1E1E1E1E1E1E1E1E1E1E1E1E1E1E1E1E1E1E1E1E1E1E1E1E1E1E1E1E1E1E1E1
310
E1E1E1E1E1E1E1E1E1E1E1E1E1E1E1E1E1E1E1E1E1E1E1E1E1E1E1E1E1E1E1E1E1E1E1E1E1E1E1E1E1E1E1E1E1E1E1E1E1E1E1E1E1E1E1E1E1E1E1E1E1E1E1E1E1E1E1E1E1E1E1E1E1E1E1E1E1E1E1E1E1E1E1E1E1E1E1E1E1E1E1E1E1E1E1E1E1E1E1E128BEE1E1E1E1E1E1E1E1E1E1E1E1E1E1E1E1E1E1E1E1E1E1E1E1E1
310
E1E1E1E1E1E1E1E1E1E1E1E1E1E1E1E1E1E1E1E1E1E1E1E1E1E1E1E1E1E1E1E1E1E1E1E1E1E1E1E1E1E1E1BEE1E1E1E1BE28E1E1E1E1E1E1E1E1E1E1E1E1E1E1E1E1E1E1E1E1E1E1E1E1E1E1E1E1E1E1E1E1E1E1E1E1E1E1E1E1E1E1E1E1E1E1E1E1E1E1E1E1E1E1E1E1E1E1E1E1E1E1E1E1E1E1E1E1E1E1E1E1E1E1E1E1E1
310
E1E1E1E1E1E1E1E1E1E1E1E1E1E1E1E1E1E1E1E1E1E1E1E1E1E1E1E1E1E1E1E1E1E1E1E1E1E1E1E1E1E1E1E1E1E1E1E1E1E1E1E1E1E1E1E1E1E1E1E1E1E1E1E1E1E1E1E1E1E1E1E1E1E1E1E1E1E1E1E1E1E1E1E1E1E1E1E1E1E1E1E1E1E1E1E1E1E1E1E1E1E128BEE1E1E1E1E1E1E1E1E1E1E1E1E1E1E1E1E1E1E1E1E1E1E1
310
E1E1E1E1E1E1E1E1E1E1E1E1E1E1E1E1E1E1E1E1E1E1E1E1E1E1E1E1E1E1E1E1E1E1E1E1E1E1E1E1E1E1E1E1E1BEE1E1E1E1BE28E1E1E1E1E1E1E1E1E1E1E1E1E1E1E1E1E1E1E1E1E1E1E1E1E1E1E1E1E1E1E1E1E1E1E1E1E1E1E1E1E1E1E1E1E1E1E1E1E1E1E1E1E1E1E1E1E1E1E1E1E1E1E1E1E1E1E1E1E1E1E1E1E1E1E1
310
E1E1E1E1E1E1E1E1E1E1E1E1E1E1E1E1E1E1E1E1E1E1E1E1E1E1E1E1E1E1E1E1E1E1E1E1E1E1E1E1E1E1E1E1E1E1E1E1E1E1E1E1E1E1E1E1E1E1E1E1E1E1E1E1E1E1E1E1E1E1E1E1E1E1E1E1E1E1E1E1E1E1E1E1E1E1E1E1E1E1E1E1E1E1E1E1E1E1E1E1E1E1E1E128BEE1E1E1E1E1E1E1E1E1E1E1E1E1E1E1E1E1E1E1E1E1
310
E1E1E1E1E1E1E1E1E1E1E1E1E1E1E1E1E1E1E1E1E1E1E1E1E1E1E1E1E1E1E1E1E1E1E1E1E1E1E1E1E1E1E1E1E1E1E1BEE1E1E1E1BE28E1E1E1E1E1E1E1E1E1E1E1E1E1E1E1E1E1E1E1E1E1E1E1E1E1E1E1E1E1E1E1E1E1E1E1E1E1E1E1E1E1E1E1E1E1E1E1E1E1E1E1E1E1E1E1E1E1E1E1E1E1E1E1E1E1E1E1E1E1E1E1E1E1
310
E1E1E1E1E1E1E1E1E1E1E1E1E1E1E1E1E1E1E1E1E1E1E1E1E1E1E1E1E1E1E1E1E1E1E1E1E1E1E1E1E1E1E1E1E1E1E1E1E1E1E1E1E1E1E1E1E1E1E1E1E1E1E1E1E1E1E1E1E1E1E1E1E1E1E1E1E1E1E1E1E1E1E1E1E1E1E1E1E1E1E1E1E1E1E1E1E1E1E1E1E1E1E1E1E1E128BEE1E1E1E1E1E1E1E1E1E1E1E1E1E1E1E1E1E1E1
310
E1E1E1E1E1E1E1E1E1E1E1E1E1E1E1E1E1E1E1E1E1E1E1E1E1E1E1E1E1E1E1E1E1E1E1E1E1E1E1E1E1E1E1E1E1E1E1E1E1BEE1E1E1E1BE28E1E1E1E1E1E1E1E1E1E1E1E1E1E1E1E1E1E1E1E1E1E1E1E1E1E1E1E1E1E1E1E1E1E1E1E1E1E1E1E1E1E1E1E1E1E1E1E1E1E1E1E1E1E1E1E1E1E1E1E1E1E1E1E1E1E1E1E1E1E1E1
310
E1E1E1E1E1E1E1E1E1E1E1E1E1E1E1E1E1E1E1E1E1E1E1E1E1E1E1E1E1E1E1E1E1E1E1E1E1E1E1E1E1E1E1E1E1E1E1E1E1E1E1E1E1E1E1E1E1E1E1E1E1E1E1E1E1E1E1E1E1E1E1E1E1E1E1E1E1E1E1E1E1E1E1E1E1E1E1E1E1E1E1E1E1E1E1E1E1E1E1E1E1E1E1E1E1E1E1E128BEE1E1E1E1E1E1E1E1E1E1E1E1E1E1E1E1E1
310
E1E1E1E1E1E1E1E1E1E1E1E1E1E1E1E1E1E1E1E1E1E1E1E1E1E1E1E1E1E1E1E1E1E1E1E1E1E1E1E1E1E1E1E1E1E1E1E1E1E1E1BEE1E1E1E1BE28E1E1E1E1E1E1E1E1E1E1E1E1E1E1E1E1E1E1E1E1E1E1E1E1E1E1E1E1E1E1E1E1E1E1E1E1E1E1E1E1E1E1E1E1E1E1E1E1E1E1E1E1E1E1E1E1E1E1E1E1E1E1E1E1E1E1E1E1E1
310
E1E1E1E1E1E1E1E1E1E1E1E1E1E1E1E1E1E1E1E1E1E1E1E1E1E1E1E1E1E1E1E1E1E1E1E1E1E1E1E1E1E1E1E1E1E1E1E1E1E1E1E1E1E1E1E1E1E1E1E1E1E1E1E1E1E1E1E1E1E1E1E1E1E1E1E1E1E1E1E1E1E1E1E1E1E1E1E1E1E1E1E1E1E1E1E1E1E1E1E1E1E1E1E1E1E1E1E1E1E128BEE1E1E1E1E1E1E1E1E1E1E1E1E1E1E1
310
E1E1E1E1E1E1E1E1E1E1E1E1E1E1E1E1E1E1E1E1E1E1E1E1E1E1E1E1E1E1E1E1E1E1E1E1E1E1E1E1E1E1E1E1E1E1E1E1E1E1E1E1E1BEE1E1E1E1BE28E1E1E1E1E1E1E1E1E1E1E1E1E1E1E1E1E1E1E1E1E1E1E1BEBEBEBEBEBEBEBEBEBEBEBEBEBEBEBEBEBEBEBEBEBEBEBEBEBEBEBEBEBEBEBEBEBEBEBEBEBEBEBEBEBEBEBE
310
BEBEBEBEBEBEBEBEBEBEBEBEBEBEBEBEBEBEBEBEBEBEBEBEBEBEBEBEBEBEBEBEBEBEBEBEBEBEBEBEBEE1E1E1E1E1E1E1E1E1E1E1E1E1E1E1E1E1E1E1E1E1E1E1E1E1E1E1E1E1E1E1E1E1E1E1E1E1E1E1E1E1E1E1E1E1E1E1E1E1E1E1E1E1E1E1E1E1E1E1E1E1E1E1E1E1E1E1E1E1E1E128BEE1E1E1E1E1E1E1E1E1E1E1E1E1
310
E1E1E1E1E1E1E1E1E1E1E1E1E1E1E1E1E1E1E1E1E1E1E1E1E1E1E1E1E1E1E1E1E1E1E1E1E1E1E1E1E1E1E1E1E1E1E1E1E1E1E1E1E1E1E1BEE1E1E1E1BE28E1E1E1E1E1E1E1E1E1E1E1E1E1E1E1E1E1E1E1E1E1E1E1BEE1E1E1E1E1E1E1E1E1E1E1E1E1E1E1E1E1E1E1E1E1E1E1E1E1E1E1E1E1E1E1E1E1E1E1E1E1E10F0F0F
310
0F0F0F0F0FE1E1E1E1E1E1E1E1E1E1E1E1E1E1E1E1E1E1E1E1E1E1E1E1E1E1E1E1E1E1E1E1E1E1E1E1E1BEE1E1E1E1E1E1E1E1E1E1E1E1E1E1E1E1E1E1E1E1E1E1E1E1E1E1E1E1E1E1E1E1E1E1E1E1E1E1E1E1E1E1E1E1E1E1E1E1E1E1E1E1E1E1E1E1E1E1E1E1E1E1E1E1E1E1E1E1E1E1E128BEE1E1E1E1E1E1E1E1E1E1E1
310
E1E1E1E1E1E1E1E1E1E1E1E1E1E1E1E1E1E1E1E1E1E1E1E1E1E1E1E1E1E1E1E1E1E1E1E1E1E1E1E1E1E1E1E1E1E1E1E1E1E1E1E1E1E1E1E1E1BEE1E1E1E1BE28E1E1E1E1E1E1E1E1E1E1E1E1E1E1E1E1E1E1E1E1E1E1E1BEE1E1E1E1E1E1E1E1E1E1E1E1E1E1E1E1E1E1E1E1E1E1E1E1E1E1E1E1E1E1E1E1E1E1E1E1E1E10F
310
0F0F0FE1E10FE1E1E1E1E1E1E1E1E1E1E1E1E1E1E1E1E1E1E1E1E1E1E1E1E1E1E1E1E1E1E1E1E1E1E1E1E1E1BEE1E1E1E1E1E1E1E1E1E1E1E1E1E1E1E1E1E1E1E1E1E1E1E1E1E1E1E1E1E1E1E1E1E1E1E1E1E1E1E1E1E1E1E1E1E1E1E1E1E1E1E1E1E1E1E1E1E1E1E1E1E1E1E1E1E1E1E1E1E1E128BEE1E1E1E1E1E1E1E1E1
310
E1E1E1E1E1E1E1E1E1E1E1E1E1E1E1E1E1E1E1E1E1E1E1E1E1E1E1E1E1E1E1E1E1E1E1E1E1E1E1E1E1E1E1E1E1E1E1E1E1E1E1E1E1E1E1E1E1E1E1BEE1E1E1E1BE28E1E1E1E1E1E1E1E1E1E1E1E1E1E1E1E1E1E1E1E1E1E1E1BEBEBEBEBEBEBEBEBEBEBEBEBEBEBEBEBEBEBEBEBEBEBEBEBEBEBEBEBEBEBEBEBEBEBEBEBEBE
310
BEBEBEBEBEBEBEBEBEBEBEBEBEBEBEBEE1E1E1E1E1E1E1E1E1E1E1E1E1E1E1E1E1E1E1E1E1E1E1E1E1E1E1E1E1E1BEE1E1E1E1E1E1E1E1E1BEBEBEBEBEBEBEBEE1E1E1E1E1E1E1E1E1E1E1E1E1E1E1E1E1E1E1E1E1E1E1E1E1E1E1E1E1E1E1E1E1E1E1E1E1E1E1E1E1E1E1E1E1E1E1E1E1E1E1E1E1E128BEE1E1E1E1E1E1E1
310
E1E1E1E1E1E1E1E1E1E1E1E1E1E1E1E1E1E1E1E1E1E1E1E1E1E1E1E1E1E1E1E1E1E1E1E1E1E1E1E1E1E1E1E1E1E1E1E1E1E1E1E1E1E1E1E1E1E1E1E1E1BEE1E1E1E1BE28E1E1E1E1E1E1E1E1E1E1E1E1E1E1E1E1E1E1E1E1E1E1E1BEBEBEE1E1E1E1E1E1E1E1E1E1E1E1E1E1E1E10F0F0F0F0F0F0FE1E1E1E1E1E1E1E1E1E1
310
E1E1E1BEBEBEE1BEBEE10F0F0F0F0F0F0FE1E1E1E1E1E1E1E1E1E1E1E1E1E1E1E1E1E1E1E1E1E1E1E1E1E1E1E1E1E1E1BEE1E1E1E1E1E1E1E1E10F0FBEBEBEE1E1E1E1E1E1E1E1E1E1E1E1E1E1E1E1E1E1E1E1E1E1E1E1E1E1E1E1E1E1E1E1E1E1E1E1E1E1E1E1E1E1E1E1E1E1E1E1E1E1E1E1E1E1E1E1E128BEE1E1E1E1E1
310
E1E1E1E1E1E1E1E1E1E1E1E1E1E1E1E1E1E1E1E1E1E1E1E1E1E1E1E1E1E1E1E1E1E1E1E1E1E1E1E1E1E1E1E1E1E1E1E1E1E1E1E1E1E1E1E1E1E1E1E1E1E1E1BEE1E1E1E1BE28E1E1E1E1E1E1E1E1E1E1E1E1E1E1E1E1E1E1E1E1E1E1E1BEBEE1E1E1E1E1E1E1E1E1E1E1E1E1E1E1E1E10F0F0F0FE10F0FE1E1E1E1E1E1E1E1
310
E1E1E1E1E1E1BEE1E1E1BEE10F0F0FE10F0F0FE1E1E1E1E1E1E1E1E1E1E1E1E1E1E1E1E1E1E1E1E1E1E1E1E1E1E1E1E1E1E1BEE1E1E1E1E1E1E1E1E10F0FE1BEE1E1E1E1E1E1E1E1E1E1E1E1E1E1E1E1E1E1E1E1E1E1E1E1E1E1E1E1E1E1E1E1E1E1E1E1E1E1E1E1E1E1E1E1E1E1E1E1E1E1E1E1E1E1E1E1E1E128BEE1E1E1
310
E1E1E1E1E1E1E1E1E1E1E1E1E1E1E1E1E1E1E1E1E1E1E1E1E1E1E1E1E1E1E1E1E1E1E1E1E1E1E1E1E1E1E1E1E1E1E1E1E1E1E1E1E1E1E1E1E1E1E1E1E1E1E1E1E1BEE1E1E1E1BE28E1E1E1E1E1E1E1E1E1E1E1E1E1E1E1E1E1E1E1E1E1E1E1BEBEE1E1E1E1E1E1E1E1E1E1BEE1E1E1E1E1E1E1E1E1E1E1E1E1E1E1E1E1BEE1
310
E1E1E1E1E1E1E1E1BEE1E1E1BEE1E1E1E1E1E1E1E1E1BEE1E1E1E1E1E1E1E1E1E1E1E1E1E1E1E1E1E1E1E1E1E1E1E1E1E1E1E1E1BEE1E1E1E1E1E1E1E1E1E1E1E1BEBEE1E1E1E1E1E1E1E1E1E1E1E1E1E1E1E1E1E1E1E1E1E1E1E1E1E1E1E1E1E1E1E1E1E1E1E1E1E1E1E1E1E1E1E1E1E1E1E1E1E1E1E1E1E1E1E1E128BEE1
310
E1E1E1E1E1E1E1E1E1E1E1E1E1E1E1E1E1E1E1E1E1E1E1E1E1E1E1E1E1E1E1E1E1E1E1E1E1E1E1E1E1E1E1E1E1E1E1E1E1E1E1E1E1E1E1E1E1E1E1E1E1E1E1E1E1E1E1BEE1E1E1E1BE28E1E1E1E1E1E1E1E1E1E1E1E1E1E1E1E1E1E1E1E1E1E1E1BEBEE1E1E1E1E1E1E1E1E1E1BEBEBEBEBEBEBEBE0F0F0F0F0F0FBEBEBEBE
310
BEBEBEBEBEBEBEBEBEBEBEBEBEBEBE0F0F0F0F0F0FBEBEBEBEE1E1E1E1E1E1E1E1E1E1E1E1E1E1E1E1E1E1E1E1E1E1E1E1E1E1E1E1E1BEE1E1E1E1E1E1E1E1E1BEBEBEBEBEBE0FBEE1E1E1E1E1E1E1E1E1E1E1E1E1E1E1E1E1E1E1E1E1E1E1E1E1E1E1E1E1E1E1E1E1E1E1E1E1E1E1E1E1E1E1E1E1E1E1E1E1E1E1E1E1E128
310
BEE1E1E1E1E1E1E1E1E1E1E1E1E1E1E1E1E1E1E1E1E1E1E1E1E1E1E1E1E1E1E1E1E1E1E1E1E1E1E1E1E1E1E1E1E1E1E1E1E1E1E1E1E1E1E1E1E1E1E1E1E1E1E1E1E1E1E1E1BEE1E1E1E1BE28E1E1E1E1E1E1E1E1E1E1E1E1E1E1E1E1E1E1E1E1E1E1E1BEBEE1E1E1E1E1E1E1E1E1E1BEE1E1E1E1E1E1E10F0F0FE10F0FE1E1
310
E1E1BEE1E1E1E1E1E1E1E1E1BEE1E1E1BE0F0F0F0F0F0F0FE1E1BEE1E1E1E1E1E1E1E1E1E1E1E1E1E1E1E1E1E1E1E1E1E1E1E1E1E1E1E1E1BEE1E1E1E1E1E1E1E1E1E1E1E1BEBEE10FE1E1E1E1E1E1E1E1E1E1E1E1E1E1E1E1E1E1E1E1E1E1E1E1E1E1E1E1E1E1E1E1E1E1E1E1E1E1E1E1E1E1E1E1E1E1E1E1E1E1E1E1E1E1
310
E128BEE1E1E1E1E1E1E1E1E1E1E1E1E1E1E1E1E1E1E1E1E1E1E1E1E1E1E1E1E1E1E1E1E1E1E1E1E1E1E1E1E1E1E1E1E1E1E1E1E1E1E1E1E1E1E1E1E1E1E1E1E1E1E1E1E1E1E1E1BEE1E1E1E1BE28E1E1E1E1E1E1E1E1E1E1E1E1E1E1E1E1E1E1E1E1E1E1E1BEBEE1E1E1E1E1E1E1E1E1E1BEE1E1E1E1E1E1E10F0F0FE10F0F
310
E1E1E1E1BEE1E1E1E1E1E1E1E1E1BEE1BEE10F0F0F0FE10F0FE1E1E1BEE1E1E1E1E1E1E1E1E1E1E1E1E1E1E1E1E1E1E1E1E1E1E1E1E1E1E1E1E1BEE1E1E1E1E1E1E1E1E1E1E1E1BEBEE10FE1E1E1E1E1E1E1E1E1E1E1E1E1E1E1E1E1E1E1E1E1E1E1E1E1E1E1E1E1E1E1E1E1E1E1E1E1E1E1E1E1E1E1E1E1E1E1E1E1E1E1E1
310
E1E1E128BEE1E1E1E1E1E1E1E1E1E1E1E1E1E1E1E1E1E1E1E1E1E1E1E1E1E1E1E1E1E1E1E1E1E1E1E1E1E1E1E1E1E1E1E1E1E1E1E1E1E1E1E1E1E1E1E1E1E1E1E1E1E1E1E1E1E1E1E1BEE1E1E1E1BE28E1E1E1E1E1E1E1E1E1E1E1E1E1E1E1E1E1E1E1E1E1E1E1E2BEE2E2E2E2E2E2E2E2E2E2E2E2E2E2E2E2E2E2E2BEE2E2
310
E2E2E2E2E2E2E2E2E2E2E2E2E2E2E2E2BEE2E2E2E2E2E2E2E2E2E2E2E2E2E2E2E2E2E2E2E2E2E2E2E2E2E2E2E2E2E2E2E2E2E2E2E2E2E2E2E2E2E2E2E2BEBEBEBEBEBEBEBEE1E1E1E1E2BEBEBEBEBEE1E1E1E1E1E1E1E1E1E1E1E1E1E1E1E1E1E1E1E1E1E1E1E1E1E1E1E1E1E1E1E1E1E1E1E1E1E1E1E1E1E1E1E1E1E1E1E1
310
E1E1E1E1E128BEE1E1E1E1E1E1E1E1E1E1E1E1E1E1E1E1E1E1E1E1E1E1E1E1E1E1E1E1E1E1E1E1E1E1E1E1E1E1E1E1E1E1E1E1E1E1E1E1E1E1E1E1E1E1E1E1E1E1E1E1E1E1E1E1E1E1E1E1BEE1E1E1E1BE28E1E1E1E1E1E1E1E1E1E1E1E1E1E1E1E1E1E1E1E1E1E1E1E2BEE2E1E1E1E1E1E1E1E1E2BEE1E1E1E1E1E1E1E1BE
310
E1E1E1E1E1E1E1E2BEE2E1E1E1E1E1E1E1E1BEE2BEE2BEE1E1E1E1E1E1E1E1E2BEE2E1E1E1E1E1E1E1BEE1E1E1E1E1E1E1E1BEE2E1E1E1E1E1E1E1E1E2BEE2E1E1E1E1E1E1BEE1E1E1E1E1E2BEE1E1BEE1E1E1E1E1E1E1E1E1E1E1E1E1E1E1E1E1E1E1E1E1E1E1E1E1E1E1E1E1E1E1E1E1E1E1E1E1E1E1E1E1E1E1E1E1E1E1
310
E1E1E1E1E1E1E128BEE1E1E1E1E1E1E1E1E1E1E1E1E1E1E1E1E1E1E1E1E1E1E1E1E1E1E1E1E1E1E1E1E1E1E1E1E1E1E1E1E1E1E1E1E1E1E1E1E1E1E1E1E1E1E1E1E1E1E1E1E1E1E1E1E1E1E1E1BEE1E1E1E1BE28E1E1E1E1E1E1E1E1E1E1E1E1E1E1E1E1E1E1E1E1E1E1E1E2BEE2E1E1E1E1E1E1E1E2E2BEE2E1E1E1E1E1E1
310
E1BEE1E1E1E1E1E1E1E2BEE2E1E1E1E1E1E1E1E1BEE2BEE2BEE1E1E1E1E1E1E1E1E2BEE2E1E1E1E1E1E1E1BEE1E1E1E1E1E1E1E2BEE2E2E1E1E1E1E1E1E1E2BEE2E1E1E1E1E1E1BEE1E1E1E1E1E2E2E1E1BEE1E1E1E1E1E1E1E1E1E1E1E1E1E1E1E1E1E1E1E1E1E1E1E1E1E1E1E1E1E1E1E1E1E1E1E1E1E1E1E1E1E1E1E1E1
310
E1E1E1E1E1E1E1E1E128BEE1E1E1E1E1E1E1E1E1E1E1E1E1E1E1E1E1E1E1E1E1E1E1E1E1E1E1E1E1E1E1E1E1E1E1E1E1E1E1E1E1E1E1E1E1E1E1E1E1E1E1E1E1E1E1E1E1E1E1E1E1E1E1E1E1E1E1E1BEE1E1E1E1BE28E1E1E1E1E1E1E1E1E1E1E1E1E1E1E1E1E1E1E1E1E1E1E1E2BEE2E1E1E1E1E1E1BEE2E2BEE2BEBEBEBE
310
BEBEBEBEBEBEBEBEBEBEBEE2BEE2BEBEE1E1E1E1E1E1BEE2BEE2BEE1E1E1E1E1E1BEBEE2BEE2BEBEBEBEBEBEBEBEBEBEBEBEBEBEBEE2BEE2E2BEE1E1E1E1E1E1E2BEE2E1E1E1E1E1E1BEE1E1E1E1E1E2E1E1E1BEE1E1E1E1E1E1E1E1E1E1E1E1E1E1E1E1E1E1E1E1E1E1E1E1E1E1E1E1E1E1E1E1E1E1E1E1E1E1E1E1E1E1E1
310
E1E1E1E1E1E1E1E1E1E1E128BEE1E1E1E1E1E1E1E1E1E1E1E1E1E1E1E1E1E1E1E1E1E1E1E1E1E1E1E1E1E1E1E1E1E1E1E1E1E1E1E1E1E1E1E1E1E1E1E1E1E1E1E1E1E1E1E1E1E1E1E1E1E1E1E1E1E1E1E1BEE1E1E1E1BE28E1E1E1E1E1E1E1E1E1E1E1E1E1E1E1E1E1E1E1E1E1E1E1E2BEE2E1E1E1E1E1E1E1E1E2BEE2E1E1
310
E1E1E1E1E1BEE1E1E1E1E1E1BEE2BEE2E1E1E1E1E1E1E1E1BEE2BEE2BEE1E1E1E1E1E1E1E1E2BEE2E1E1E1E1E1E1E1BEE1E1E1E1E1E1E1E2BEE2E1E1E1E1E1E1E1E1E2BEE2E1E1E1E1E1E1BEE1E1E1E1E1E2E2E1E1BEE1E1E1E1E1E1E1E1E1E1E1E1E1E1E1E1E1E1E1E1E1E1E1E1E1E1E1E1E1E1E1E1E1E1E1E1E1E1E1E1E1
310
E1E1E1E1E1E1E1E1E1E1E1E1E128BEE1E1E1E1E1E1E1E1E1E1E1E1E1E1E1E1E1E1E1E1E1E1E1E1E1E1E1E1E1E1E1E1E1E1E1E1E1E1E1E1E1E1E1E1E1E1E1E1E1E1E1E1E1E1E1E1E1E1E1E1E1E1E1E1E1E1E1E1BEE1E1E1E1BE28E1E1E1E1E1E1E1E1E1E1E1E1E1E1E1E1E1E1E1E1E1E1E1E2BEE2E1E1E1E1E1E1E1E1E1BEBE
310
E1E1E1E1E1E1E1BEE1E1E1E1BEBEE1E1BEE1E1E1E1E1E1E1E1E1BEE2BEE2BEE1E1E1E1E1E1E1E1E1BEE1E1E1E1E1E1E1E1BEE1E1E1E1E1E1E1E1BEE1E1E1E1E1E1E1E1E1E2BEE2E1E1E1E1E1E1BEE1E1E1E1E1E2E2E1E1BEE1E1E1E1E1E1E1E1E1E1E1E1E1E1E1E1E1E1E1E1E1E1E1E1E1E1E1E1E1E1E1E1E1E1E1E1E1E1E1
310
E1E1E1E1E1E1E1E1E1E1E1E1E1E1E128BEE1E1E1E1E1E1E1E1E1E1E1E1E1E1E1E1E1E1E1E1E1E1E1E1E1E1E1E1E1E1E1E1E1E1E1E1E1E1E1E1E1E1E1E1E1E1E1E1E1E1E1E1E1E1E1E1E1E1E1E1E1E1E1E1E1E1E1E1BEE1E1E1E1BE28E1E1E1E1E1E1E1E1E1E1E1E1E1E1E1E1E1E1E1E1E1E1E1E2BEE2E1E1E1E1E1E1E1E1E1
310
E1E1BEE1E1E1E1E1E1BEE1E1E1BEE1E1E1E1E1E1E1E1E1E1E1E1E1E1BEE2BEE2BEE1E1E1E1E1E1E1E1E1E1E1E1E1E1E1E1E1E1BEE1E1E1E1E1E1E1E1E1E1E1E1E1E1E1E1E1E1E2BEE2E1E1E1E1E1E1BEE1E1E1E1E1E2E1E1E1BEE1E1E1E1E1E1E1E1E1E1E1E1E1E1E1E1E1E1E1E1E1E1E1E1E1E1E1E1E1E1E1E1E1E1E1E1E1
310
E1E1E1E1E1E1E1E1E1E1E1E1E1E1E1E1E128BEE1E1E1E1E1E1E1E1E1E1E1E1E1E1E1E1E1E1E1E1E1E1E1E1E1E1E1E1E1E1E1E1E1E1E1E1E1E1E1E1E1E1E1E1E1E1E1E1E1E1E1E1E1E1E1E1E1E1E1E1E1E1E1E1E1E1E1E1BEE1E1E1E1BE28E1E1E1E1E1E1E1E1E1E1E1E1E1E1E1E1E1E1E1E1E1E1E1E2BEE2E1E1E1E1E1E1E1
310
E1E1E1E1E1BEE1E1E1E1E1BEE1BEBEE1E1E1E1E1E1E1E1E1E1E1E1E1E1E1BEE2BEE2BEE1E1E1E1E1E1E1E1E1E1E1E1E1E1E1E1E1E1BEE1E1E1E1E1E1E1E1E1E1E1E1E1E1E1E1E1E1E2BEE2E1E1E1E1E1E1BEE1E1E1E1E1E2E1E1E1BEE1E1E1E1E1E1E1E1E1E1E1E1E1E1E1E1E1E1E1E1E1E1E1E1E1E1E1E1E1E1E1E1E1E1E1
310
E1E1E1E1E1E1E1E1E1E1E1E1E1E1E1E1E1E1E128BEE1E1E1E1E1E1E1E1E1E1E1E1E1E1E1E1E1E1E1E1E1E1E1E1E1E1E1E1E1E1E1E1E1E1E1E1E1E1E1E1E1E1E1E1E1E1E1E1E1E1E1E1E1E1E1E1E1E1E1E1E1E1E1E1E1E1E1E1BEE1E1E1E1BE28E1E1E1E1E1E1E1E1E1E1E1E1E1E1E1E1E1E1E1E1E1E1E1E2BEE2E1E1E1E1E1
310
E1E1E1E1E1E1E1BEE1E1E1E1E1BEBEE1E1E1E1E1E1E1E1E1E1E1E1E1E1E1E1E1BEE2BEE2BEE1E1E1E1E1E1E1E1E1E1E1E1E1E1E1E1E1E1BEE1E1E1E1E1E1E1E1E1E1E1E1E1E1E1E1E1E1E2BEE2E1E1E1E1E1E1BEE1E1E1E1E1E2E2E1E1BEE1E1E1E1E1E1E1E1E1E1E1E1E1E1E1E1E1E1E1E1E1E1E1E1E1E1E1E1E1E1E1E1E1
310
E1E1E1E1E1E1E1E1E1E1E1E1E1E1E1E1E1E1E1E1E128BEE1E1E1E1E1E1E1E1E1E1E1E1E1E1E1E1E1E1E1E1E1E1E1E1E1E1E1E1E1E1E1E1E1E1E1E1E1E1E1E1E1E1E1E1E1E1E1E1E1E1E1E1E1E1E1E1E1E1E1E1E1E1E1E1E1E1E1E1BEE1E1E1E1BE28E1E1E1E1E1E1E1E1E1E1E1E1E1E1E1E1E1E1E1E1E1E1E1E2BEE2E1E1E1
310
E1E1E1E1E1E1E1E1E1E1BEE1E1E1BEBEE1E1E1E1E1E1E1E1E1E1E1E1E1E1E1E1E1E1BEE2BEE2BEE1E1E1E1E1E1E1E1E1E1E1E1E1E1E1E1E1E1BEE1E1E1E1E1E1E1E1E1E1E1E1E1E1E1E1E1E1E2BEE2E1E1E1E1E1E1BEE1E1E1E1E1E2E2E1E1BEE1E1E1E1E1E1E1E1E1E1E1E1E1E1E1E1E1E1E1E1E1E1E1E1E1E1E1E1E1E1E1
310
E1E1E1E1E1E1E1E1E1E1E1E1E1E1E1E1E1E1E1E1E1E1E128BEE1E1E1E1E1E1E1E1E1E1E1E1E1E1E1E1E1E1E1E1E1E1E1E1E1E1E1E1E1E1E1E1E1E1E1E1E1E1E1E1E1E1E1E1E1E1E1E1E1E1E1E1E1E1E1E1E1E1E1E1E1E1E1E1E1E1E1E1BEE1E1E1E1E128E1E1E1E1E1E1E1E1E1E1E1E1E1E1E1E1E1E1E1E1E1E1E1E2BEE2E1
310
E1E1E1E1E1E1E1E1E1E1E1E1BEE1BEBEE1BEE1E1E1E1E1E1E1E1E1E1E1E1E1E1E1E1E1E1BEE2BEE2BEE1E1E1E1E1E1E1E1E1E1E1E1E1E1E1E1E1E1BEE1E1E1E1E1E1E1E1E1E1E1E1E1E1E1E1E1E1E2BEE2E1E1E1E1E1E1BEE1E1E1E1E1E2E1E1E1BEE1E1E1E1E1E1E1E1E1E1E1E1E1E1E1E1E1E1E1E1E1E1E1E1E1E1E1E1E1
310
E1E1E1E1E1E1E1E1E1E1E1E1E1E1E1E1E1E1E1E1E1E1E1E1E128BEE1E1E1E1E1E1E1E1E1E1E1E1E1E1E1E1E1E1E1E1E1E1E1E1E1E1E1E1E1E1E1E1E1E1E1E1E1E1E1E1E1E1E1E1E1E1E1E1E1E1E1E1E1E1E1E1E1E1E1E1E1E1E1E1E1E1E1E1BEE1E1E1E1E128E1E1E1E1E1E1E1E1E1E1E1E1E1E1E1E1E1E1E1E1E1E1E1E2BE
310
E2E1E1E1E1E1E1E1E10F0F0FE10FE1BEE1E1E1BEE1E1E1E1E1E1E1E1E1E1E1E1E1E1E1E1E1E1BEE2BEE2BEE1E1E1E1E1E1E1E1E1E1E1E1E1E1E1E1E1E1BEE1E1E1E1E1E1E1E1E1E1E1E1E1E1E1E1E1E1E2BEE2E1E1E1E1E1E1BEE1E1E1E1E1E2E2E1E1BEE1E1E1E1E1E1E1E1E1E1E1E1E1E1E1E1E1E1E1E1E1E1E1E1E1E1E1
310
E1E1E1E1E1E1E1E1E1E1E1E1E1E1E1E1E1E1E1E1E1E1E1E1E1E1E128BEE1E1E1E1E1E1E1E1E1E1E1E1E1E1E1E1E1E1E1E1E1E1E1E1E1E1E1E1E1E1E1E1E1E1E1E1E1E1E1E1E1E1E1E1E1E1E1E1E1E1E1E1E1E1E1E1E1E1E1E1E1E1E1E1E1E1E1E1BEE1E1E1E1E128E1E1E1E1E1E1E1E1E1E1E1E1E1E1E1E1E1E1E1E1E1E1E1
310
E2BEE2E1E1E1E1E1E1E1E10F0F0FE10FE1BEE1E1E1BEE1E1E1E1E1E1E1E1E1E1E1E1E1E1E1E1E1E1BEE2BEE2BEE1E1E1E1E1E1E1E1E1E1E1E1E1E1E1E1E1E1BEE1E1E1E1E1E1E1E1E1E1E1E1E1E1E1E1E1E1E2BEE2E1E1E1E1E1E1BEE1E1E1E1E1E2E2E1E1BEE1E1E1E1E1E1E1E1E1E1E1E1E1E1E1E1E1E1E1E1E1E1E1E1E1
310
E1E1E1E1E1E1E1E1E1E1E1E1E1E1E1E1E1E1E1E1E1E1E1E1E1E1E1E1E128BEE1E1E1E1E1E1E1E1E1E1E1E1E1E1E1E1E1E1E1E1E1E1E1E1E1E1E1E1E1E1E1E1E1E1E1E1E1E1E1E1E1E1E1E1E1E1E1E1E1E1E1E1E1E1E1E1E1E1E1E1E1E1E1E1E1E1E1E1BEE1E1E1E1E128E1E1E1E1E1E1E1E1E1E1E1E1E1E1E1E1E1E1E1E1E1
310
E1E1E2BEE2E1E1E1E1E1E1E1E1E10F0FE10FE1BEE1E1E1BEE1E1E1E1E1E1E1E1E1E1E1E1E1E1E1E1E1E1BEE2BEE2BEE1E1E1E1E1E1E1E1E1E1E1E1E1E1E1E1E1E1BEE1E1E1E1E1E1E1E1E1E1E1E1E1E1E1E1E1E1E2BEE2E1E1E1E1E1E1BEE1E1E1E1E1E2E1E1E1BEE1E1E1E1E1E1E1E1E1E1E1E1E1E1E1E1E1E1E1E1E1E1E1
310
E1E1E1E1E1E1E1E1E1E1E1E1E1E1E1E1E1E1E1E1E1E1E1E1E1E1E1E1E1E1E128BEE1E1E1E1E1E1E1E1E1E1E1E1E1E1E1E1E1E1E1E1E1E1E1E1E1E1E1E1E1E1E1E1E1E1E1E1E1E1E1E1E1E1E1E1E1E1E1E1E1E1E1E1E1E1E1E1E1E1E1E1E1E1E1E1E1E1E1E1BEE1E1E1E1E128E1E1E1E1E1E1E1E1E1E1E1E1E1E1E1E1E1E1E1
310
E1E1E1E1E2BEE2E1E1E1E1E1E1E1E1E10F0FE10FE1BEE1E1E1BEE1E1E1E1E1E1E1E1E1E1E1E1E1E1E1E1E1E1BEE2BEE2BEE1E1E1E1E1E1E1E1E1E1E1E1E1E1E1E1E1E1BEE1E1E1E1E1E1E1E1E1E1E1E1E1E1E1E1E1E1E2BEE2E1E1E1E1E1E1BEE1E1E1E1E1E2E2E1E1BEE1E1E1E1E1E1E1E1E1E1E1E1E1E1E1E1E1E1E1E1E1
310
E1E1E1E1E1E1E1E1E1E1E1E1E1E1E1E1E1E1E1E1E1E1E1E1E1E1E1E1E1E1E1E1E128BEE1E1E1E1E1E1E1E1E1E1E1E1E1E1E1E1E1E1E1E1E1E1E1E1E1E1E1E1E1E1E1E1E1E1E1E1E1E1E1E1E1E1E1E1E1E1E1E1E1E1E1E1E1E1E1E1E1E1E1E1E1E1E1E1E1E1E1E1BEE1E1E1E1E128E1E1E1E1E1E1E1E1E1E1E1E1E1E1E1E1E1
310
E1E1E1E1E1E1E2BEE2E1E1E1E1E1E1E1E1E10F0FE10FE1BEE1E1E1BEE1E1E1E1E1E1E1E1E1E1E1E1E1E1E1E1E1E1BEE2BEE2BEE1E1E1E1E1E1E1E1E1E1E1E1E1E1E1E1E1E1BEE1E1E1E1E1E1E1E1E1E1E1E1E1E1E1E1E1E1E2BEE2E1E1E1E1E1E1BEE1E1E1E1E1E2E2E1E1BEE1E1E1E1E1E1E1E1E1E1E1E1E1E1E1E1E1E1E1
310
E1E1E1E1E1E1E1E1E1E1E1E1E1E1E1E1E1E1E1E1E1E1E1E1E1E1E1E1E1E1E1E1E1E1E128BEE1E1E1E1E1E1E1E1E1E1E1E1E1E1E1E1E1E1E1E1E1E1E1E1E1E1E1E1E1E1E1E1E1E1E1E1E1E1E1E1E1E1E1E1E1E1E1E1E1E1E1E1E1E1E1E1E1E1E1E1E1E1E1E1E1E1E1E1BEE1E1E1E1E128E1E1E1E1E1E1E1E1E1E1E1E1E1E1E1
310
E1E1E1E1E1E1E1E1E2BEE2E1E1E1E1E1E1E1E10F0F0FE10FE1BEE1E1E1BEE1E1E1E1E1E1E1E1E1E1E1E1E1E1E1E1E1E1BEE2BEE2BEE1E1E1E1E1E1E1E1E1E1E1E1E1E1E1E1E1E1BEE1E1E1E1E1E1E1E1E1E1E1E1E1E1E1E1E1E1E2BEE2E1E1E1E1E1E1BEE1E1E1E1E1E2E1E1E1BEE1E1E1E1E1E1E1E1E1E1E1E1E1E1E1E1E1
310
E1E1E1E1E1E1E1E1E1E1E1E1E1E1E1E1E1E1E1E1E1E1E1E1E1E1E1E1E1E1E1E1E1E1E1E1E128BEE1E1E1E1E1E1E1E1E1E1E1E1E1E1E1E1E1E1E1E1E1E1E1E1E1E1E1E1E1E1E1E1E1E1E1E1E1E1E1E1E1E1E1E1E1E1E1E1E1E1E1E1E1E1E1E1E1E1E1E1E1E1E1E1E1E1E1E1BEE1E1E1E1E128E1E1E1E1E1E1E1E1E1E1E1E1E1
310
E1E1E1E1E1E1E1E1E1E1E2BEE2E1E1E1E1E1E1E1E1E10F0F0F0FE1BEE1E1E1BEE1E1E1E1E1E1E1E1E1E1E1E1E1E1E1E1E1E1BEE2BEE2BEE1E1E1E1E1E1E1E1E1E1E1E1E1E1E1E1E1E1BEE1E1E1E1E1E1E1E1E1E1E1E1E1E1E1E1E1E1E2BEE2E1E1E1E1E1E1BEE1E1E1E1E1E2E2E1E1BEE1E1E1E1E1E1E1E1E1E1E1E1E1E1E1
310
E1E1E1E1E1E1E1E1E1E1E1E1E1E1E1E1E1E1E1E1E1E1E1E1E1E1E1E1E1E1E1E1E1E1E1E1E1E1E128BEE1E1E1E1E1E1E1E1E1E1E1E1E1E1E1E1E1E1E1E1E1E1E1E1E1E1E1E1E1E1E1E1E1E1E1E1E1E1E1E1E1E1E1E1E1E1E1E1E1E1E1E1E1E1E1E1E1E1E1E1E1E1E1E1E1E1E1E1BEE1E1E1E1E128E1E1E1E1E1E1E1E1E1E1E1
310
E1E1E1E1E1E1E1E1E1E1E1E1E2BEE2E1E1E1E1E1E1E1E1E10F0FE10FE1BEE1E1E1BEE1E1E1E1E1E1E1E1E1E1E1E1E1E1E1E1E1E1BEE2BEE2BEE1E1E1E1E1E1E1E1E1E1E1E1E1E1E1E1E1E1BEE1E1E1E1E1E1E1E1E1E1E1E1E1E1E1E1E1E1E2BEE2E1E1E1E1E1E1BEE1E1E1E1E1E2E2E1E1BEE1E1E1E1E1E1E1E1E1E1E1E1E1
310
E1E1E1E1E1E1E1E1E1E1E1E1E1E1E1E1E1E1E1E1E1E1E1E1E1E1E1E1E1E1E1E1E1E1E1E1E1E1E1E1E128BEE1E1E1E1E1E1E1E1E1E1E1E1E1E1E1E1E1E1E1E1E1E1E1E1E1E1E1E1E1E1E1E1E1E1E1E1E1E1E1E1E1E1E1E1E1E1E1E1E1E1E1E1E1E1E1E1E1E1E1E1E1E1E1E1E1E1E1E1BEE1E1E1E1E128E1E1E1E1E1E1E1E1E1
310
E1E1E1E1E1E1E1E1E1E1E1E1E1E1E2BEE2E1E1E1E1E1E1E1E1E10F0FE10FE1BEE1E1E1BEE1E1E1E1E1E1E1E1E1E1E1E1E1E1E1E1E1E1BEE2BEE2BEE1E1E1E1E1E1E1E1E1E1E1E1E1E1E1E1E1E1BEE1E1E1E1E1E1E1E1E1E1E1E1E1E1E1E1E1E1E2BEE2E1E1E1E1E1E1BEE1E1E1E1E1E2E1E1E1BEE1E1E1E1E1E1E1E1E1E1E1
310
E1E1E1E1E1E1E1E1E1E1E1E1E1E1E1E1E1E1E1E1E1E1E1E1E1E1E1E1E1E1E1E1E1E1E1E1E1E1E1E1E1E1E128BEE1E1E1E1E1E1E1E1E1E1E1E1E1E1E1E1E1E1E1E1E1E1E1E1E1E1E1E1E1E1E1E1E1E1E1E1E1E1E1E1E1E1E1E1E1E1E1E1E1E1E1E1E1E1E1E1E1E1E1E1E1E1E1E1E1E1E1E1BEE1E1E1E1E128E1E1E1E1E1E1E1
310
E1E1E1E1E1E1E1E1E1E1E1E1E1E1E1E1E2BEE2E1E1E1E1E1E1E1E1E10F0FE10FE1BEE1E1E1BEE1E1E1E1E1E1E1E1E1E1E1E1E1E1E1E1E1E1BEE2BEE2BEE1E1E1E1E1E1E1E1E1E1E1E1E1E1E1E1E1E1BEE1E1E1E1E1E1E1E1E1E1E1E1E1E1E1E1E1E1E2BEE2E1E1E1E1E1E1BEE1E1E1E1E1E2E2E1E1BEE1E1E1E1E1E1E1E1E1
310
E1E1E1E1E1E1E1E1E1E1E1E1E1E1E1E1E1E1E1E1E1E1E1E1E1E1E1E1E1E1E1E1E1E1E1E1E1E1E1E1E1E1E1E1E128BEE1E1E1E1E1E1E1E1E1E1E1E1E1E1E1E1E1E1E1E1E1E1E1E1E1E1E1E1E1E1E1E1E1E1E1E1E1E1E1E1E1E1E1E1E1E1E1E1E1E1E1E1E1E1E1E1E1E1E1E1E1E1E1E1E1E1E1E1BEE1E1E1E1E128E1E1E1E1E1
310
E1E1E1E1E1E1E1E1E1E1E1E1E1E1E1E1E1E1E2BEE2E1E1E1E1E1E1E1E1E1E1E1E10FE1BEE1E1E1BEE1E1E1E1E1E1E1E1E1E1E1E1E1E1E1E1E1E1BEE2BEE2BEE1E1E1E1E1E1E1E1E1E1E1E1E1E1E1E1E1E1BEE1E1E1E1E1E1E1E1E1E1E1E1E1E1E1E1E1E1E2BEE2E1E1E1E1E1E1BEE1E1E1E1E1E2E2E1E1BEE1E1E1E1E1E1E1
310
E1E1E1E1E1E1E1E1E1E1E1E1E1E1E1E1E1E1E1E1E1E1E1E1E1E1E1E1E1E1E1E1E1E1E1E1E1E1E1E1E1E1E1E1E1E1E128BEE1E1E1E1E1E1E1E1E1E1E1E1E1E1E1E1E1E1E1E1E1E1E1E1E1E1E1E1E1E1E1E1E1E1E1E1E1E1E1E1E1E1E1E1E1E1E1E1E1E1E1E1E1E1E1E1E1E1E1E1E1E1E1E1E1E1E1E1BEE1E1E1E1E128E1E1E1
310
E1E1E1E1E1E1E1E1E1E1E1E1E1E1E1E1E1E1E1E1E2BEE2E1E1E1E1E1E1E1E10F0F0FE10FE1BEE1E1E1BEE1E1E1E1E1E1E1E1E1E1E1E1E1E1E1E1E1E1BEE2BEE2BEE1E1E1E1E1E1E1E1E1E1E1E1E1E1E1E1E1E1BEE1E1E1E1E1E1E1E1E1E1E1E1E1E1E1E1E1E1E2BEE2E1E1E1E1E1E1BEE1E1E1E1E1E2E1E1E1BEE1E1E1E1E1
310
E1E1E1E1E1E1E1E1E1E1E1E1E1E1E1E1E1E1E1E1E1E1E1E1E1E1E1E1E1E1E1E1E1E1E1E1E1E1E1E1E1E1E1E1E1E1E1E1E128BEE1E1E1E1E1E1E1E1E1E1E1E1E1E1E1E1E1E1E1E1E1E1E1E1E1E1E1E1E1E1E1E1E1E1E1E1E1E1E1E1E1E1E1E1E1E1E1E1E1E1E1E1E1E1E1E1E1E1E1E1E1E1E1E1E1E1E1E1BEE1E1E1E1E128E1
310
E1E1E1E1E1E1E1E1E1E1E1E1E1E1E1E1E1E1E1E1E1E1E2BEE2E1E1E1E1E1E1E1E1E10F0FE10FE1BEE1E1E1BEE1E1E1E1E1E1E1E1E1E1E1E1E1E1E1E1E1E1BEE2BEE2BEE1E1E1E1E1E1E1E1E1E1E1E1E1E1E1E1E1E1BEE1E1E1E1E1E1E1E1E1E1E1E1E1E1E1E1E1E1E2BEE2E10F0FBEE1E1BEE1E1E1E1E1E2E2E1E1BEE1E1E1
310
E1E1E1E1E1E1E1E1E1E1E1E1E1E1E1E1E1E1E1E1E1E1E1E1E1E1E1E1E1E1E1E1E1E1E1E1E1E1E1E1E1E1E1E1E1E1E1E1E1E1E128BEE1E1E1E1E1E1E1E1E1E1E1E1E1E1E1E1E1E1E1E1E1E1E1E1E1E1E1E1E1E1E1E1E1E1E1E1E1E1E1E1E1E1E1E1E1E1E1E1E1E1E1E1E1E1E1E1E1E1E1E1E1E1E1E1E1E1E1E1BEE1E1E1E1E1
310
28E1E1E1E1E1E1E1E1E1E1E1E1E1E1E1E1E1E1E1E1E1E1E1E2BEE2E1E1E1E1E1E1E1E1E10F0F0F0FE1BEE1E1E1BEE1E1E1E1E1E1E1E1E1E1E1E1E1E1E1E1E1E1BEE2BEE2BEE1E1E1E1E1E1E1E1E1E1E1E1E1E1E1E1E1E1BEE1E1E1E1E1E1E1E1E1E1E1E1E1E1E1E1E1E1E2BEE20F0F0FBEE1E1BEE1E1E1E1E1E2E2E1E1BEE1
310
E1E1E1E1E1E1E1E1E1E1E1E1E1E1E1E1E1E1E1E1E1E1E1E1E1E1E1E1E1E1E1E1E1E1E1E1E1E1E1E1E1E1E1E1E1E1E1E1E1E1E1E1E128BEE1E1E1E1E1E1E1E1E1E1E1E1E1E1E1E1E1E1E1E1E1E1E1E1E1E1E1E1E1E1E1E1E1E1E1E1E1E1E1E1E1E1E1E1E1E1E1E1E1E1E1E1E1E1E1E1E1E1E1E1E1E1E1E1E1E1E1E1BEE1E1E1
310
E1E128E1E1E1E1E1E1E1E1E1E1E1E1E1E1E1E1E1E1E1E1E1E1E1E2BEE2E1E1E1E1E1E1E1E10F0FE1E10FE1BEE1E1E1BEE1E1E1E1E1E1E1E1E1E1E1E1E1E1E1E1E1E1BEE2BEE2BEE1E1E1E1E1E1E1E1E1E1E1E1E1E1E1E1E1E1BEE1E1E1E1E1E1E1E1E1E1E1E1E1E1E1E1E1E1E2BEE20F0F0FBEE1E1BEE1E1E1E1E1E2E1E1E1
310
BEE1E1E1E1E1E1E1E1E1E1E1E1E1E1E1E1E1E1E1E1E1E1E1E1E1E1E1E1E1E1E1E1E1E1E1E1E1E1E1E1E1E1E1E1E1E1E1E1E1E1E1E1E1E128BEE1E1E1E1E1E1E1E1E1E1E1E1E1E1E1E1E1E1E1E1E1E1E1E1E1E1E1E1E1E1E1E1E1E1E1E1E1E1E1E1E1E1E1E1E1E1E1E1E1E1E1E1E1E1E1E1E1E1E1E1E1E1E1E1E1E1E1E1BEE1
310
E1E1E1E128E1E1E1E1E1E1E1E1E1E1E1E1E1E1E1E1E1E1E1E1E1E1E1E2BEE2E1E1E1E1E1E1E1E1E10F0FE10FE1BEE1E1E1BEE1E1E1E1E1E1E1E1E1E1E1E1E1E1E1E1E1E1BEE2BEE2BEE1E1E1E1E1E1E1E1E1E1E1E1E1E1E1E1E1E1BEE1E1E1E1E1E1E1E1E1E1E1E1E1E1E1E1E1E1E2BEE20F0F0FBEE1E1BEE1E1E1E1E1E2E1
310
E1E1BEE1E1E1E1E1E1E1E1E1E1E1E1E1E1E1E1E1E1E1E1E1E1E1E1E1E1E1E1E1E1E1E1E1E1E1E1E1E1E1E1E1E1E1E1E1E1E1E1E1E1E1E1E1E128BEE1E1E1E1E1E1E1E1E1E1E1E1E1E1E1E1E1E1E1E1E1E1E1E1E1E1E1E1E1E1E1E1E1E1E1E1E1E1E1E1E1E1E1E1E1E1E1E1E1E1E1E1E1E1E1E1E1E1E1E1E1E1E1E1E1E1E1E1
310
BEE1E1E1E1E128E1E1E1E1E1E1E1E1E1E1E1E1E1E1E1E1E1E1E1E1E1E1E1E2BEE2E1E1E1E1E1E1E1E10F0F0F0F0FE1BEE1E1E1BEE1E1E1E1E1E1E1E1E1E1E1E1E1E1E1E1E1E1BEE2BEE2BEE1E1E1E1E1E1E1E1E1E1E1E1E1E1E1E1E1E1BEE1E1E1E1E1E1E1E1E1E1E1E1E1E1E1E1E1BEE2BEE2BEBEBEBEE1E1BEE1E1E1E1E1
310
E2E2E1E1BEE1E1E1E1E1E1E1E1E1E1E1E1E1E1E1E1E1E1E1E1E1E1E1E1E1E1E1E1E1E1E1E1E1E1E1E1E1E1E1E1E1E1E1E1E1E1E1E1E1E1E1E1E1E128BEE1E1E1E1E1E1E1E1E1E1E1E1E1E1E1E1E1E1E1E1E1E1E1E1E1E1E1E1E1E1E1E1E1E1E1E1E1E1E1E1E1E1E1E1E1E1E1E1E1E1E1E1E1E1E1E1E1E1E1E1E1E1E1E1E1E1
310
E1E1BEE1E1E1E1E128E1E1E1E1E1E1E1E1E1E1E1E1E1E1E1E1E1E1E1E1E1E1E1E2BEE2E1E1E1E1E1E1E1E10F0F0FE10FE1BEE1E1E1BEE1E1E1E1E1E1E1E1E1E1E1E1E1E1E1E1E1E1BEE2BEE2BEE1E1E1E1E1E1E1E1E1E1E1E1E1E1E1E1E1E1BEE1E1E1E1E1E1E1E1E1E1E1E1E1E1E1E1E1E1E2BEE2E1E1E1BEE1E1BEE1E1E1
310
E1E1E2E10F0FBEE1E1E1E1E1E1E1E1E1E1E1E1E1E1E1E1E1E1E1E1E1E1E1E1E1E1E1E1E1E1E1E1E1E1E1E1E1E1E1E1E1E1E1E1E1E1E1E1E1E1E1E1E1E128BEE1E1E1E1E1E1E1E1E1E1E1E1E1E1E1E1E1E1E1E1E1E1E1E1E1E1E1E1E1E1E1E1E1E1E1E1E1E1E1E1E1E1E1E1E1E1E1E1E1E1E1E1E1E1E1E1E1E1E1E1E1E1E1E1
310
E1E1E1E1BEE1E1E1E1E128E1E1E1E1E1E1E1E1E1E1E1E1E1E1E1E1E1E1E1E1E1E1E1E2BEE2E1E1E1E1E1E1E1E10F0F0FE10FE1BEE1E1E1BEE1E1E1E1E1E1E1E1E1E1E1E1E1E1E1E1E1E1BEE2BEE2BEE1E1E1E1E1E1E1E1E1E1E1E1E1E1E1E1E1E1BEE1E1E1E1E1E1E1E1E1E1E1E1E1E1E1E1E1E1E2BEE2E1E1E1BEE1E1BEE1
310
E1E1E1E1E2E10F0FBEE1E1E1E1E1E1E1E1E1E1E1E1E1E1E1E1E1E1E1E1E1E1E1E1E1E1E1E1E1E1E1E1E1E1E1E1E1E1E1E1E1E1E1E1E1E1E1E1E1E1E1E1E1E128BEE1E1E1E1E1E1E1E1E1E1E1E1E1E1E1E1E1E1E1E1E1E1E1E1E1E1E1E1E1E1E1E1E1E1E1E1E1E1E1E1E1E1E1E1E1E1E1E1E1E1E1E1E1E1E1E1E1E1E1E1E1E1
310
E1E1E1E1E1E1BEE1E1E1E1E128E1E1E1E1E1E1E1E1E1E1E1E1E1E1E1E1E1E1E1E1E1E1E1E2BEE2E1E1E1E1E1E1E1E10F0F0F0F0FE1BEE1E1E1BEE1E1E1E1E1E1E1E1E1E1E1E1E1E1E1E1E1E1BEE2BEE2BEE1E1E1E1E1E1E1E1E1E1E1E1E1E1E1E1E1E1BEE1E1E1E1E1E1E1E1E1E1E1E1E1E1E1E1E1E1E2BEE2E1E1E1BEE1E1
310
BEE1E1E1E1E1E2E2E1E1BEE1E1E1E1E1E1E1E1E1E1E1E1E1E1E1E1E1E1E1E1E1E1E1E1E1E1E1E1E1E1E1E1E1E1E1E1E1E1E1E1E1E1E1E1E1E1E1E1E1E1E1E1E1E128BEE1E1E1E1E1E1E1E1E1E1E1E1E1E1E1E1E1E1E1E1E1E1E1E1E1E1E1E1E1E1E1E1E1E1E1E1E1E1E1E1E1E1E1E1E1E1E1E1E1E1E1E1E1E1E1E1E1E1E1E1
310
E1E1E1E1E1E1E1E1BEE1E1E1E1E128E1E1E1E1E1E1E1E1E1E1E1E1E1E1E1E1E1E1E1E1E1E1E1E2BEE2E1E1E1E1E1E1E1E10F0F0FE10FE1BEE1E1E1BEE1E1E1E1E1E1E1E1E1E1E1E1E1E1E1E1E1E1BEE2BEE2BEE1E1E1E1E1E1E1E1E1E1E1E1E1E1E1E1E1E1BEE1E1E1E1E1E1E1E1E1E1E1E1E1E1E1E1E1E1E2BEE2E1E1E1BE
310
0F0FBEE1E1E1E1E1E2E2E1E1BEE1E1E1E1E1E1E1E1E1E1E1E1E1E1E1E1E1E1E1E1E1E1E1E1E1E1E1E1E1E1E1E1E1E1E1E1E1E1E1E1E1E1E1E1E1E1E1E1E1E1E1E1E1E128BEE1E1E1E1E1E1E1E1E1E1E1E1E1E1E1E1E1E1E1E1E1E1E1E1E1E1E1E1E1E1E1E1E1E1E1E1E1E1E1E1E1E1E1E1E1E1E1E1E1E1E1E1E1E1E1E1E1E1
310
E1E1E1E1E1E1E1E1E1E1BEE1E1E1E1E128E1E1E1E1E1E1E1E1E1E1E1E1E1E1E1E1E1E1E1E1E1E1E1E2BEE2E1E1E1E1E1E1E1E10F0FE10F0FE1BEE1E1E1BEE1E1E1E1E1E1E1E1E1E1E1E1E1E1E1E1E1E1BEE2BEE2BEE1E1E1E1E1E1E1E1E1E1E1E1E1E1E1E1E1E1BEE1E1E1E1E1E1E1E1E1E1E1E1E1E1E1E1E1E1E2BEE2E1E1
310
E1E1E1E1BEE1E1E1E1E1E2E1E1E1BEE1E1E1E1E1E1E1E1E1E1E1E1E1E1E1E1E1E1E1E1E1E1E1E1E1E1E1E1E1E1E1E1E1E1E1E1E1E1E1E1E1E1E1E1E1E1E1E1E1E1E1E1E1E128BEE1E1E1E1E1E1E1E1E1E1E1E1E1E1E1E1E1E1E1E1E1E1E1E1E1E1E1E1E1E1E1E1E1E1E1E1E1E1E1E1E1E1E1E1E1E1E1E1E1E1E1E1E1E1E1E1
310
E1E1E1E1E1E1E1E1E1E1E1E1BEE1E1E1E1E128E1E1E1E1E1E1E1E1E1E1E1E1E1E1E1E1E1E1E1E1E1E1E1E2BEE2E1E1E1E1E1E1E1E10F0F0F0F0FE1BEE1E1E1BEE1E1E1E1E1E1E1E1E1E1E1E1E1E1E1E1E1E1BEE2BEE2BEE1E1E1E1E1E1E1E1E1E1E1E1E1E1E1E1E1E1BEE1E1E1E1E1E1E1E1E1E1E1E1E1E1E1E1E1E1E2BEE2
310
E1E1E1E1E1E1BEE1E1E1E1E1E2E2E1E1BEE1E1E1E1E1E1E1E1E1E1E1E1E1E1E1E1E1E1E1E1E1E1E1E1E1E1E1E1E1E1E1E1E1E1E1E1E1E1E1E1E1E1E1E1E1E1E1E1E1E1E1E1E1E128BEE1E1E1E1E1E1E1E1E1E1E1E1E1E1E1E1E1E1E1E1E1E1E1E1E1E1E1E1E1E1E1E1E1E1E1E1E1E1E1E1E1E1E1E1E1E1E1E1E1E1E1E1E1E1
310
E1E1E1E1E1E1E1E1E1E1E1E1E1E1BEE1E1E1E1E128E1E1E1E1E1E1E1E1E1E1E1E1E1E1E1E1E1E1E1E1E1E1E1E2BEE2E1E1E1E1E1E1E1E10F0F0F0F0FE1BEE1E1E1BEE1E1E1E1E1E1E1E1E1E1E1E1E1E1E1E1E1E1BEE2BEE2BEE1E1E1E1E1E1E1E1E1E1E1E1E1E1E1E1E1E1BEE1E1E1E1E1E1E1E1E1E1E1E1E1E1E1E1E1E1E2
310
BEE2E1E1E1BEE1E1BEE1E1E1E1E1E2E2E1E1BEE1E1E1E1E1E1E1E1E1E1E1E1E1E1E1E1E1E1E1E1E1E1E1E1E1E1E1E1E1E1E1E1E1E1E1E1E1E1E1E1E1E1E1E1E1E1E1E1E1E1E1E1E1E128BEE1E1E1E1E1E1E1E1E1E1E1E1E1E1E1E1E1E1E1E1E1E1E1E1E1E1E1E1E1E1E1E1E1E1E1E1E1E1E1E1E1E1E1E1E1E1E1E1E1E1E1E1
310
E1E1E1E1E1E1E1E1E1E1E1E1E1E1E1E1BEE1E1E1E1E128E1E1E1E1E1E1E1E1E1E1E1E1E1E1E1E1E1E1E1E1E1E1E1E2BEE2E1E1E1E1E1E1E1E1E1E1E10F0FE1BEE1E1E1BEE1E1E1E1E1E1E1E1E1E1E1E1E1E1E1E1E1E1BEE2BEE2BEE1E1E1E1E1E1E1E1E1E1E1E1E1E1E1E1E1E1BEE1E1E1E1E1E1E1E1E1E1E1E1E1E1E1E1E1
310
E1E2BEE2E1E1E1BEE1E1BEE1E1E1E1E1E2E1E1E1BEE1E1E1E1E1E1E1E1E1E1E1E1E1E1E1E1E1E1E1E1E1E1E1E1E1E1E1E1E1E1E1E1E1E1E1E1E1E1E1E1E1E1E1E1E1E1E1E1E1E1E1E1E1E1BEBEE1E1E1E1E1E1E1E1E1E1E1E1E1E1E1E1E1E1E1E1E1E1E1E1E1E1E1E1E1E1E1E1E1E1E1E1E1E1E1E1E1E1E1E1E1E1E1E1E1E1
310
E1E1E1E1E1E1E1E1E1E1E1E1E1E1E1E1E1E1BEE1E1E1E1E128E1E1E1E1E1E1E1E1E1E1E1E1E1E1E1E1E1E1E1E1E1E1E1E2BEE2E1E1E1E1E1E1E1E1E1E1E10F0FE1BEE1E1E1BEE1E1E1E1E1E1E1E1E1E1E1E1E1E1E1E1E1E1BEE2BEE2BEE1E1E1E1E1E1E1E1E1E1E1E1E1E1E1E1E1E1BEE1E1E1E1E1E1E1E1E1E1E1E1E1E1E1
310
E1E1E1E2BEE2E1E1E1BEE1E1BEE1E1E1E1E1E2E2E1E1BEE1E1E1E1E1E1E1E1E1E1E1E1E1E1E1E1E1E1E1E1E1E1E1E1E1E1E1E1E1E1E1E1E1E1E1E1E1E1E1E1E1E1E1E1E1E1E1E1E1E1E1E1E1E128BEE1E1E1E1E1E1E1E1E1E1E1E1E1E1E1E1E1E1E1E1E1E1E1E1E1E1E1E1E1E1E1E1E1E1E1E1E1E1E1E1E1E1E1E1E1E1E1E1
310
E1E1E1E1E1E1E1E1E1E1E1E1E1E1E1E1E1E1E1E1BEE1E1E1E1E128E1E1E1E1E1E1E1E1E1E1E1E1E1E1E1E1E1E1E1E1E1E1E1E2BEE2E1E1E1E1E1E1E1E1E1E1E10F0FE1BEE1E1E1BEE1E1E1E1E1E1E1E1E1E1E1E1E1E1E1E1E1E1BEE2BEE2BEE1E1E1E1E1E1E1E1E1E1E1E1E1E1E1E1E1E1BEE1E1E1E1E1E1E1E1E1E1E1E1E1
310
E1E1E1E1E1E2BEE2BEBEBEBEE1E1BEE1E1E1E1E1E2E2E1E1BEE1E1E1E1E1E1E1E1E1E1E1E1E1E1E1E1E1E1E1E1E1E1E1E1E1E1E1E1E1E1E1E1E1E1E1E1E1E1E1E1E1E1E1E1E1E1E1E1E1E1E1E1E1E128BEE1E1E1E1E1E1E1E1E1E1E1E1E1E1E1E1E1E1E1E1E1E1E1E1E1E1E1E1E1E1E1E1E1E1E1E1E1E1E1E1E1E1E1E1E1E1
310
E1E1E1E1E1E1E1E1E1E1E1E1E1E1E1E1E1E1E1E1E1E1BEE1E1E1E1E128E1E1E1E1E1E1E1E1E1E1E1E1E1E1E1E1E1E1E1E1E1E1E1E2BEE2E1E1E1E1E1E1E1E1E1E1E10F0FE1BEE1E1E1BEE1E1E1E1E1E1E1E1E1E1E1E1E1E1E1E1E1E1BEE2BEE2BEE1E1E1E1E1E1E1E1E1E1E1E1E1E1E1E1E1E1BEE1E1E1E1E1E1E1E1E1E1E1
310
E1E1E1E1E1E1BEE2BEE2E1E1E1BEE1E1BEE1E1E1E1E1E2E1E1E1BEE1E1E1E1E1E1E1E1E1E1E1E1E1E1E1E1E1E1E1E1E1E1E1E1E1E1E1E1E1E1E1E1E1E1E1E1E1E1E1E1E1E1E1E1E1E1E1E1E1E1E1E1E1E128BEE1E1E1E1E1E1E1E1E1E1E1E1E1E1E1E1E1E1E1E1E1E1E1E1E1E1E1E1E1E1E1E1E1E1E1E1E1E1E1E1E1E1E1E1
310
E1E1E1E1E1E1E1E1E1E1E1E1E1E1E1E1E1E1E1E1E1E1E1E1BEE1E1E1E1E128E1E1E1E1E1E1E1E1E1E1E1E1E1E1E1E1E1E1E1E1E1E1E1E2BEE2E1E1E1E1E1E1E1E1E1E1E1E1E1E1E1E1E1E1BEE1E1E1E1E1E1E1E1E1E1E1E1E1E1E1E1E1E1BEE2BEE2BEE1E1E1E1E1E1E1E1E1E1E1E1E1E1E1E1E1E1BEE1E1E1E1E1E1E1E1E1
310
E1E1E1E1E1E1E1E1E1E2BEE2BEBEBEBEE1E1BEE1E1E1E1E1E2E2E1E1BEE1E1E1E1E1E1E1E1E1E1E1E1E1E1E1E1E1E1E1E1E1E1E1E1E1E1E1E1E1E1E1E1E1E1E1E1E1E1E1E1E1E1E1E1E1E1E1E1E1E1E1E1E1E128BEE1E1E1E1E1E1E1E1E1E1E1E1E1E1E1E1E1E1E1E1E1E1E1E1E1E1E1E1E1E1E1E1E1E1E1E1E1E1E1E1E1E1
310
E1E1E1E1E1E1E1E1E1E1E1E1E1E1E1E1E1E1E1E1E1E1E1E1E1E1BEE1E1E1E1E128E1E1E1E1E1E1E1E1E1E1E1E1E1E1E1E1E1E1E1E1E1E1E1E2BEE2E1E1E1E1E1E1E1E1E1E1E1E1E1E1E1E1E1E1BEE1E1E1E1E1E1E1E1E1E1E1E1E1E1E1E1E1E1BEE2BEE2BEE1E1E1E1E1E1E1E1E1E1E1E1E1E1E1E1E1E1BEE1E1E1E1E1E1E1
310
E1E1E1E1E1E1E1E1E1E1E1E2BEE2E1E1E1BEE1E1BEE1E1E1E1E1E2E2E1E1BEE1E1E1E1E1E1E1E1E1E1E1E1E1E1E1E1E1E1E1E1E1E1E1E1E1E1E1E1E1E1E1E1E1E1E1E1E1E1E1E1E1E1E1E1E1E1E1E1E1E1E1E1E1E128BEE1E1E1E1E1E1E1E1E1E1E1E1E1E1E1E1E1E1E1E1E1E1E1E1E1E1E1E1E1E1E1E1E1E1E1E1E1E1E1E1
310
E1E1E1E1E1E1E1E1E1E1E1E1E1E1E1E1E1E1E1E1E1E1E1E1E1E1E1E1BEE1E1E1E1E128E1E1E1E1E1E1E1E1E1E1E1E1E1E1E1E1E1E1E1E1E1E1E1E2BEE2E1E1E1E1E1E1E1E1E1E1E1E1E1E1E1E1E1E1BEE1E1E1E1E1E1E1E1E1E1E1E1E1E1E1E1E1E1BEE2BEE2BEE1E1E1E1E1E1E1E1E1E1E1E1E1E1E1E1E1E1BEE1E1E1E1E1
310
E1E1E1E1E1E1E1E1E1E1E1E1E1E2BEE2E10F0FBEE1E1BEE1E1E1E1E1E2E1E1E1BEE1E1E1E1E1E1E1E1E1E1E1E1E1E1E1E1E1E1E1E1E1E1E1E1E1E1E1E1E1E1E1E1E1E1E1E1E1E1E1E1E1E1E1E1E1E1E1E1E1E1E1E1E1E128BEE1E1E1E1E1E1E1E1E1E1E1E1E1E1E1E1E1E1E1E1E1E1E1E1E1E1E1E1E1E1E1E1E1E1E1E1E1E1
310
E1E1E1E1E1E1E1E1E1E1E1E1E1E1E1E1E1E1E1E1E1E1E1E1E1E1E1E1E1E1BEE1E1E1E1E128E1E1E1E1E1E1E1E1E1E1E1E1E1E1E1E1E1E1E1E1E1E1E1E2BEE2E1E1E1E1E1E1E1E1E1E1E1E1E1E1E1E1E1E1BEE1E1E1E1E1E1E1E1E1E1E1E1E1E1E1E1E1E1BEE2BEE2BEE1E1E1E1E1E1E1E1E1E1E1E1E1E1E1E1E1E1BEE1E1E1
310
E1E1E1E1E1E1E1E1E1E1E1E1E1E1E1E2BEE20F0F0FBEE1E1BEE1E1E1E1E1E2E2E1E1BEE1E1E1E1E1E1E1E1E1E1E1E1E1E1E1E1E1E1E1E1E1E1E1E1E1E1E1E1E1E1E1E1E1E1E1E1E1E1E1E1E1E1E1E1E1E1E1E1E1E1E1E1E1E128BEE1E1E1E1E1E1E1E1E1E1E1E1E1E1E1E1E1E1E1E1E1E1E1E1E1E1E1E1E1E1E1E1E1E1E1E1
310
E1E1E1E1E1E1E1E1E1E1E1E1E1E1E1E1E1E1E1E1E1E1E1E1E1E1E1E1E1E1E1E1BEE1E1E1E1E128E1E1E1E1E1E1E1E1E1E1E1E1E1E1E1E1E1E1E1E1E1E1E1E2BEE2E1E1E1E1E1E1E1E1E1E1E1E1E1E1E1E1E1E1BEE1E1E1E1E1E1E1E1E1E1E1E1E1E1E1E1E1E1BEE2BEE2BEE1E1E1E1E1E1E1E1E1E1E1E1E1E1E1E1E1E1BEE1
310
E1E1E1E1E1E1E1E1E1E1E1E1E1E1E1E1E1E2BEE20F0F0FE1E1E1BEE1E1E1E1E1E2E2E1E1BEE1E1E1E1E1E1E1E1E1E1E1E1E1E1E1E1E1E1E1E1E1E1E1E1E1E1E1E1E1E1E1E1E1E1E1E1E1E1E1E1E1E1E1E1E1E1E1E1E1E1E1E1E1E128BEE1E1E1E1E1E1E1E1E1E1E1E1E1E1E1E1E1E1E1E1E1E1E1E1E1E1E1E1E1E1E1E1E1E1
310
E1E1E1E1E1E1E1E1E1E1E1E1E1E1E1E1E1E1E1E1E1E1E1E1E1E1E1E1E1E1E1E1E1E1BEE1E1E1E1E128E1E1E1E1E1E1E1E1E1E1E1E1E1E1E1E1E1E1E1E1E1E1E1E2BEE2E1E1E1E1E1E1E1E1E1E1E1E1E1E1E1E1E1E1BEE1E1E1E1E1E1E1E1E1E1E1E1E1E1E1E1E1E1BEE2BEE2BEE1E1E1E1E1E1E1E1E1E1E1E1E1E1E1E1E1E1
310
BEE1E1E1E1E1E1E1E1E1E1E1E1E1E1E1E1E1E1E2BEE2E10F0FE1E1E1BEE1E1E1E1E1E2E1E1E1BEE1E1E1E1E1E1E1E1E1E1E1E1E1E1E1E1E1E1E1E1E1E1E1E1E1E1E1E1E1E1E1E1E1E1E1E1E1E1E1E1E1E1E1E1E1E1E1E1E1E1E1E1E1E128BEE1E1E1E1E1E1E1E1E1E1E1E1E1E1E1E1E1E1E1E1E1E1E1E1E1E1E1E1E1E1E1E1
310
E1E1E1E1E1E1E1E1E1E1E1E1E1E1E1E1E1E1E1E1E1E1E1E1E1E1E1E1E1E1E1E1E1E1E1E1BEE1E1E1E1E128E1E1E1E1E1E1E1E1E1E1E1E1E1E1E1E1E1E1E1E1E1E1E1E2BEE2E1E1E1E1E1E1E1E1E1E1E1E1E1E1E1E1E1E1BEE1E1E1E1E1E1E1E1E1E1E1E1E1E1E1E1E1E1BEE2BEE2BEE1E1E1E1E1E1E1E1E1E1E1E1E1E1E1E1
310
E1E1BEE1E1E1E1E1E1E1E1E1E1E1E1E1E1E1E1E1E1E2BEE2E1E1E1E1E1E1BEE1E1E1E1E1E2E2E1E1BEE1E1E1E1E1E1E1E1E1E1E1E1E1E1E1E1E1E1E1E1E1E1E1E1E1E1E1E1E1E1E1E1E1E1E1E1E1E1E1E1E1E1E1E1E1E1E1E1E1E1E1E1E1E128BEE1E1E1E1E1E1E1E1E1E1E1E1E1E1E1E1E1E1E1E1E1E1E1E1E1E1E1E1E1E1
310
E1E1E1E1E1E1E1E1E1E1E1E1E1E1E1E1E1E1E1E1E1E1E1E1E1E1E1E1E1E1E1E1E1E1E1E1E1E1BEE1E1E1E1E128E1E1E1E1E1E1E1E1E1E1E1E1E1E1E1E1E1E1E1E1E1E1E1E2BEE2E1E1E1E1E1E1E1E1E1E1E1E1E1E1E1E1E1E1BEE1E1E1E1E1E1E1E1E1E1E1E1E1E1E1E1E1E1BEE2BEE2BEE1E1E1E1E1E1E1E1E1E1E1E1E1E1
310
E1E1E1E1BEE1E1E1E1E1E1E1E1E1E1E1E1E1E1E1E1E1E1E2BEE2E1E1E1E1E1E1BEE1E1E1E1BEE2E2E1E1BEE1E1E1E1E1E1E1E1E1E1E1E1E1E1E1E1E1E1E1E1E1E1E1E1E1E1E1E1E1E1E1E1E1E1E1E1E1E1E1E1E1E1E1E1E1E1E1E1E1E1E1E1E1E128BEE1E1E1E1E1E1E1E1E1E1E1E1E1E1E1E1E1E1E1E1E1E1E1E1E1E1E1E1
310
E1E1E1E1E1E1E1E1E1E1E1E1E1E1E1E1E1E1E1E1E1E1E1E1E1E1E1E1E1E1E1E1E1E1E1E1E1E1E1E1BEE1E1E1E1E128E1E1E1E1E1E1E1E1E1E1E1E1E1E1E1E1E1E1E1E1E1E1E1E2BEE2E1E1E1E1E1E1E1E1E1E1E1E1E1E1E1E1E1E1BEE1E1E1E1E1E1E1E1E1E1E1E1E1E1E1E1E1E1BEE2BEE2BEE1E1E1E1E1E1E1E1E1E1E1E1
310
E1E1E1E1E1E1BEE1E1E1E1E1E1E1E1E1E1E1E1E1E1E1E1E1E1E2BEE2E1E1E1E1E1E1BEE1E1E1E1BEE2E1E1E1BEE1E1E1E1E1E1E1E1E1E1E1E1E1E1E1E1E1E1E1E1E1E1E1E1E1E1E1E1E1E1E1E1E1E1E1E1E1E1E1E1E1E1E1E1E1E1E1E1E1E1E1E1E1E128BEE1E1E1E1E1E1E1E1E1E1E1E1E1E1E1E1E1E1E1E1E1E1E1E1E1E1
310
E1E1E1E1E1E1E1E1E1E1E1E1E1E1E1E1E1E1E1E1E1E1E1E1E1E1E1E1E1E1E1E1E1E1E1E1E1E1E1E1E1E1BEE1E1E1E1E128E1E1E1E1E1E1E1E1E1E1E1E1E1E1E1E1E1E1E1E1E1E1E1E2BEE2E1E1E1E1E1E1E1E1E1E1E1E1E1E1E1E1E1E1BEE1E1E1E1E1E1E1E1E1E1E1E1E1E1E1E1E1E1BEE2BEE2BEE1E1E1E1E1E1E1E1E1E1
310
E1E1E1E1E1E1E1E1BEE1E1E1E1E1E1E1E1E1E1E1E1E1E1E1E1E1E1E2BEE2E1E1E1BEE1E1BEE1E1E1BEBEBEBEBEE1BEE1E1E1E1E1E1E1E1E1E1E1E1E1E1E1E1E1E1E1E1E1E1E1E1E1E1E1E1E1E1E1E1E1E1E1E1E1E1E1E1E1E1E1E1E1E1E1E1E1E1E1E1E1E128BEE1E1E1E1E1E1E1E1E1E1E1E1E1E1E1E1E1E1E1E1E1E1E1E1
310
E1E1E1E1E1E1E1E1E1E1E1E1E1E1E1E1E1E1E1E1E1E1E1E1E1E1E1E1E1E1E1E1E1E1E1E1E1E1E1E1E1E1E1E1BEE1E1E1E1E128E1E1E1E1E1E1E1E1E1E1E1E1E1E1E1E1E1E1E1E1E1E1E1E2BEE2E1E1E1E1E1E1E1E1E1E1E1E1E1E1E1E1E1E1BEE1E1E1E1E1E1E1E1E1E1E1E1E1E1E1E1E1E1BEE2BEE2BEE1E1E1E1E1E1E1E1
310
E1E1E1E1E1E1E1E1E1E1BEE1E1E1E1E1E1E1E1E1E1E1E1E1E1E1E1E1E1E2BEE20F0F0FBEE1E1BEE1E1E1BEBEBEBEBEE1BEE1E1E1E1E1E1E1E1E1E1E1E1E1E1E1E1E1E1E1E1E1E1E1E1E1E1E1E1E1E1E1E1E1E1E1E1E1E1E1E1E1E1E1E1E1E1E1E1E1E1E1E1E1E128BEE1E1E1E1E1E1E1E1E1E1E1E1E1E1E1E1E1E1E1E1E1E1
310
E1E1E1E1E1E1E1E1E1E1E1E1E1E1E1E1E1E1E1E1E1E1E1E1E1E1E1E1E1E1E1E1E1E1E1E1E1E1E1E1E1E1E1E1E1E1BEE1E1E1E1E128E1E1E1E1E1E1E1E1E1E1E1E1E1E1E1E1E1E1E1E1E1E1E1E2BEE2E1E1E1E1E1E1E1E1E1E1E1E1E1E1E1E1E1E1BEE1E1E1E1E1E1E1E1E1E1E1E1E1E1E1E1E1E1BEE2BEE2BEE1E1E1E1E1E1
310
E1E1E1E1E1E1E1E1E1E1E1E1BEE1E1E1E1E1E1E1E1E1E1E1E1E1E1E1E1E1E1E2BEE2E1E1E1BEE1E1BEE1E1E1E1BEE2E2E1E1BEE1E1E1E1E1E1E1E1E1E1E1E1E1E1E1E1E1E1E1E1E1E1E1E1E1E1E1E1E1E1E1E1E1E1E1E1E1E1E1E1E1E1E1E1E1E1E1E1E1E1E1E1E1E128BEE1E1E1E1E1E1E1E1E1E1E1E1E1E1E1E1E1E1E1E1
310
E1E1E1E1E1E1E1E1E1E1E1E1E1E1E1E1E1E1E1E1E1E1E1E1E1E1E1E1E1E1E1E1E1E1E1E1E1E1E1E1E1E1E1E1E1E1E1E1BEE1E1E1E1E128E1E1E1E1E1E1E1E1E1E1E1E1E1E1E1E1E1E1E1E1E1E1E1E2BEE2E1E1E1E1E1E1E1E1E1E1E1E1E1E1E1E1E1E1BEE1E1E1E1E1E1E1E1E1E1E1E1E1E1E1E1E1E1BEE2BEE2BEE1E1E1E1
310
E1E1E1E1E1E1E1E1E1E1E1E1E1E1BEE1E1E1E1E1E1E1E1E1E1E1E1E1E1E1E1E1BEE2BEE2BEBEBEBEE1E1BEE1E1E1BEBEBEBEBEE1BEE1E1E1E1E1E1E1E1E1E1E1E1E1E1E1E1E1E1E1E1E1E1E1E1E1E1E1E1E1E1E1E1E1E1E1E1E1E1E1E1E1E1E1E1E1E1E1E1E1E1E1E1E1E128BEE1E1E1E1E1E1E1E1E1E1E1E1E1E1E1E1E1E1
310
E1E1E1E1E1E1E1E1E1E1E1E1E1E1E1E1E1E1E1E1E1E1E1E1E1E1E1E1E1E1E1E1E1E1E1E1E1E1E1E1E1E1E1E1E1E1E1E1E1E1BEE1E1E1E1E128E1E1E1E1E1E1E1E1E1E1E1E1E1E1E1E1E1E1E1E1E1E1E1E2BEE2E1E1E1E1E1E1E1E1E1E1E1E1E1E1E1E1E1E1BEE1E1E1E1E1E1E1E1E1E1E1E1E1E1E1E1E1E1BEE2BEE2BEE1E1
310
E1E1E1E1E1E1E1E1E1E1E1E1E1E1E1E1BEE1E1E1E1E1E1E1E1E1E1E1E1E1E1E1E1E1BEE2BEE2BEBEBEBEE1E1BEE1E1E1BEBEBEBEBEE1BEE1E1E1E1E1E1E1E1E1E1E1E1E1E1E1E1E1E1E1E1E1E1E1E1E1E1E1E1E1E1E1E1E1E1E1E1E1E1E1E1E1E1E1E1E1E1E1E1E1E1E1E1E1E128BEE1E1E1E1E1E1E1E1E1E1E1E1E1E1E1E1
310
E1E1E1E1E1E1E1E1E1E1E1E1E1E1E1E1E1E1E1E1E1E1E1E1E1E1E1E1E1E1E1E1E1E1E1E1E1E1E1E1E1E1E1E1E1E1E1E1E1E1E1E1BEE1E1E1E1E128E1E1E1E1E1E1E1E1E1E1E1E1E1E1E1E1E1E1E1E1E1E1E1E2BEE2E2E2E2E2E2E2E2E2E2E2E2E2E2E2E2E2E2E2BEE2E2E2E2E2E2E2E2E2E2E2E2E2E2E2E2E2E2BEE2E2E2E2
310
E2E2E2E2E2E2E2E2E2E2E2E2E2E2E2E2E2E2E2E2E2E2E2E2E2E2E2E2E2E2E2E2E2E2E2E2E2E2E2E2BEBEBEBEBEBEBEBEE1E1E1BEE2E2E1E1BEE1E1E1E1E1E1E1E1E1E1E1E1E1E1E1E1E1E1E1E1E1E1E1E1E1E1E1E1E1E1E1E1E1E1E1E1E1E1E1E1E1E1E1E1E1E1E1E1E1E1E1E1E1E128BEE1E1E1E1E1E1E1E1E1E1E1E1E1E1
310
E1E1E1E1E1E1E1E1E1E1E1E1E1E1E1E1E1E1E1E1E1E1E1E1E1E1E1E1E1E1E1E1E1E1E1E1E1E1E1E1E1E1E1E1E1E1E1E1E1E1E1E1E1E1BEE1E1E1E1E128E1E1E1E1E1E1E1E1E1E1E1E1E1E1E1E1E1E1E1E1E1E1E1E1BEE1BEE1E1E1E1E1E1E1E1E1E1E1E1E1E1E1E1E1BEE1E1E1E1E1E1E1E1E1E1E1E1E1E1E1E1E1E1BEE1BE
310
E1BEE1E1E1E1E1E1E1E1E1E1E1E1E1E1E1E1E1E1BEE1E1E1E1E1E1E1E1E1E1E1E1E1E1E1E1E1BEE1BEE1E1E1E1BEE1E1E1E1E1E1E1BEBEE1E1E1BEE1E1E1E1E1E1E1E1E1E1E1E1E1E1E1E1E1E1E1E1E1E1E1E1E1E1E1E1E1E1E1E1E1E1E1E1E1E1E1E1E1E1E1E1E1E1E1E1E1E1E1E1E1E128BEE1E1E1E1E1E1E1E1E1E1E1E1
310
E1E1E1E1E1E1E1E1E1E1E1E1E1E1E1E1E1E1E1E1E1E1E1E1E1E1E1E1E1E1E1E1E1E1E1E1E1E1E1E1E1E1E1E1E1E1E1E1E1E1E1E1E1E1E1E1BEE1E1E1E1E128E1E1E1E1E1E1E1E1E1E1E1E1E1E1E1E1E1E1E1E1E1E1E1E1E1E1BEE1E1E1E1E1E1E1E1E1E1E1E1E1E1E1E1E1E1E1E1E1E1E1E1E1E1E1E1E1E1E1E1E1E1E1E1E1
310
E1BEE1E1E1E1E1E1E1E1E1E1E1E1E1E1E1E1E1E1E1E1E1E1E1E1E1E1E1E1E1E1E1E1E1E1E1E1E1E1BEE1E1E10F0F0FBEE1E1E1E1E1E1E1E1BEE1E1E1BEE1E1E1E1E1E1E1E1E1E1E1E1E1E1E1E1E1E1E1E1E1E1E1E1E1E1E1E1E1E1E1E1E1E1E1E1E1E1E1E1E1E1E1E1E1E1E1E1E1E1E1E1E1E128BEE1E1E1E1E1E1E1E1E1E1
310
E1E1E1E1E1E1E1E1E1E1E1E1E1E1E1E1E1E1E1E1E1E1E1E1E1E1E1E1E1E1E1E1E1E1E1E1E1E1E1E1E1E1E1E1E1E1E1E1E1E1E1E1E1E1E1E1E1E1BEE1E1E1E1E128E1E1E1E1E1E1E1E1E1E1E1E1E1E1E1E1E1E1E1E1E1E1E1BEBEBEBEBEBEBEBEBEBEBEBEBEBEBEBEBEBEBEBEBEBEBEBEBEBEBEBEBEBEBEBEBEBEBEBEBEBEBE
310
BEBEBEBEBEBEBEBEBEBEBEBEBEBEBEBEBEBEBEBEBEBEBEBEBEBEBEBEBEBEBEBEBEBEBEBEBEBEBEBEBEBEBEBEBEBE0F0F0FBEBEBEBEBEBEBEBEBEBEBEE1E1BEE1E1E1E1E1E1E1E1E1E1E1E1E1E1E1E1E1E1E1E1E1E1E1E1E1E1E1E1E1E1E1E1E1E1E1E1E1E1E1E1E1E1E1E1E1E1E1E1E1E1E1E1E1E128BEE1E1E1E1E1E1E1E1
310
E1E1E1E1E1E1E1E1E1E1E1E1E1E1E1E1E1E1E1E1E1E1E1E1E1E1E1E1E1E1E1E1E1E1E1E1E1E1E1E1E1E1E1E1E1E1E1E1E1E1E1E1E1E1E1E1E1E1E1E1BEE1E1E1E1E128E1E1E1E1E1E1E1E1E1E1E1E1E1E1E1E1E1E1E1E1E1E1E1BEBEBEBEBEBEBEBEBEBEBEBEBEBEBEBEBEBEBEBEBEBEBEBEBEBEBEBEBEBEBEBEBEBEBEBEBE
310
BEBEBEBEBEBEBEBEBEBEBEBEBEBEBEBEBEBEBEBEBEBEBEBEBEBEBEBEBEBEBEBEBEBEBEBEBEBEBEBEBEBEBEBEBEBEBEBEE1E10FE1BEBEBEBEBEBEBEBEBEBEBEBEBEBEE1E1E1E1E1E1E1E1E1E1E1E1E1E1E1E1E1E1E1E1E1E1E1E1E1E1E1E1E1E1E1E1E1E1E1E1E1E1E1E1E1E1E1E1E1E1E1E1E1E1E1E1E128BEE1E1E1E1E1E1
310
E1E1E1E1E1E1E1E1E1E1E1E1E1E1E1E1E1E1E1E1E1E1E1E1E1E1E1E1E1E1E1E1E1E1E1E1E1E1E1E1E1E1E1E1E1E1E1E1E1E1E1E1E1E1E1E1E1E1E1E1E1E1BEE1E1E1E1E128E1E1E1E1E1E1E1E1E1E1E1E1E1E1E1E1E1E1E1E1E1E1E1E1E1E1E1E1E1E1E1E1E1E1E1E1E1E1E1E1E1E1E1E1E1E1E1E1E1E1E1E1E1E1E1E1E1E1
310
E1E1E1E1E1E1E1E1E1E1E1E1E1E1E1E1E1E1E1E1E1E1E1E1E1E1E1E1E1E1E1E1E1E1E1E1E1E1E1E1E1E1E1E1E1E1E1E1E1E10F0F0FE1E1E1E1E1E1E1E1E1E1E1E1E1E1E1E1E1E1E1E1E1E1E1E1E1E1E1E1E1E1E1E1E1E1E1E1E1E1E1E1E1E1E1E1E1E1E1E1E1E1E1E1E1E1E1E1E1E1E1E1E1E1E1E1E1E1E1E128BEE1E1E1E1
310
E1E1E1E1E1E1E1E1E1E1E1E1E1E1E1E1E1E1E1E1E1E1E1E1E1E1E1E1E1E1E1E1E1E1E1E1E1E1E1E1E1E1E1E1E1E1E1E1E1E1E1E1E1E1E1E1E1E1E1E1E1E1E1E1BEE1E1E1E1E128E1E1E1E1E1E1E1E1E1E1E1E1E1E1E1E1E1E1E1E1E1E1E1E1E1E1E1E1E1E1E1E1E1E1E1E1E1E1E1E1E1E1E1E1E1E1E1E1E1E1E1E1E1E1E1E1
310
E1E1E1E1E1E1E1E1E1E1E1E1E1E1E1E1E1E1E1E1E1E1E1E1E1E1E1E1E1E1E1E1E1E1E1E1E1E1E1E1E1E1E1E1E1E1E1E1E1E1E1E1E10F0FE1E1E1E1E1E1E1E1E1E1E1E1E1E1E1E1E1E1E1E1E1E1E1E1E1E1E1E1E1E1E1E1E1E1E1E1E1E1E1E1E1E1E1E1E1E1E1E1E1E1E1E1E1E1E1E1E1E1E1E1E1E1E1E1E1E1E1E128BEE1E1
310
E1E1E1E1E1E1E1E1E1E1E1E1E1E1E1E1E1E1E1E1E1E1E1E1E1E1E1E1E1E1E1E1E1E1E1E1E1E1E1E1E1E1E1E1E1E1E1E1E1E1E1E1E1E1E1E1E1E1E1E1E1E1E1E1E1E1BEE1E1E1E1E128E1E1E1E1E1E1E1E1E1E1E1E1E1E1E1E1E1E1E1E1E1E1E1E1E1E1E1E1E1E1E1E1E1E1E1E1E1E1E1E1E1E1E1E1E1E1E1E1E1E1E1E1E1E1
310
E1E1E1E1E1E1E1E1E1E1E1E1E1E1E1E1E1E1E1E1E1E1E1E1E1E1E1E1E1E1E1E1E1E1E1E1E1E1E1E1E1E1E1E1E1E1E1E1E1E1E1E1E1E1E1E1E1E1E1E1E1E1E1E1E1E1E1E1E1E1E1E1E1E1E1E1E1E1E1E1E1E1E1E1E1E1E1E1E1E1E1E1E1E1E1E1E1E1E1E1E1E1E1E1E1E1E1E1E1E1E1E1E1E1E1E1E1E1E1E1E1E1E1E1E128BE
310
E1E1E1E1E1E1E1E1E1E1E1E1E1E1E1E1E1E1E1E1E1E1E1E1E1E1E1E1E1E1E1E1E1E1E1E1E1E1E1E1E1E1E1E1E1E1E1E1E1E1E1E1E1E1E1E1E1E1E1E1E1E1E1E1E1E1E1E1BEE1E1E1E1E128E1E1E1E1E1E1E1E1E1E1E1E1E1E1E1E1E1E1E1E1E1E1E1E1E1E1E1E1E1E1E1E1E1E1E1E1E1E1E1E1E1E1E1E1E1E1E1E1E1E1E1E1
310
E1E1E1E1E1E1E1E1E1E1E1E1E1E1E1E1E1E1E1E1E1E1E1E1E1E1E1E1E1E1E1E1E1E1E1E1E1E1E1E1E1E1E1E1E1E1E1E1E1E1E1E1E1E1E1E1E1E1E1E1E1E1E1E1E1E1E1E1E1E1E1E1E1E1E1E1E1E1E1E1E1E1E1E1E1E1E1E1E1E1E1E1E1E1E1E1E1E1E1E1E1E1E1E1E1E1E1E1E1E1E1E1E1E1E1E1E1E1E1E1E1E1E1E1E1E1E1
310
28BEE1E1E1E1E1E1E1E1E1E1E1E1E1E1E1E1E1E1E1E1E1E1E1E1E1E1E1E1E1E1E1E1E1E1E1E1E1E1E1E1E1E1E1E1E1E1E1E1E1E1E1E1E1E1E1E1E1E1E1E1E1E1E1E1E1E1E1E1BEE1E1E1E1E128E1E1E1E1E1E1E1E1E1E1E1E1E1E1E1E1E1E1E1E1E1E1E1E1E1E1E1E1E1E1E1E1E1E1E1E1E1E1E1E1E1E1E1E1E1E1E1E1E1E1
310
E1E1E1E1E1E1E1E1E1E1E1E1E1E1E1E1E1E1E1E1E1E1E1E1E1E1E1E1E1E1E1E1E1E1E1E1E1E1E1E1E1E1E1E1E1E1E1E1E1E1E1E1E1E1E1E1E1E1E1E1E1E1E1E1E1E1E1E1E1E1E1E1E1E1E1E1E1E1E1E1E1E1E1E1E1E1E1E1E1E1E1E1E1E1E1E1E1E1E1E1E1E1E1E1E1E1E1E1E1E1E1E1E1E1E1E1E1E1E1E1E1E1E1E1E1E1E1
310
E1E128BEE1E1E1E1E1E1E1E1E1E1E1E1E1E1E1E1E1E1E1E1E1E1E1E1E1E1E1E1E1E1E1E1E1E1E1E1E1E1E1E1E1E1E1E1E1E1E1E1E1E1E1E1E1E1E1E1E1E1E1E1E1E1E1E1E1E1E1E1BEE1E1E1E1E128E1E1E1E1E1E1E1E1E1E1E1E1E1E1E1E1E1E1E1E1E1E1E1E1E1E1E1E1E1E1E1E1E1E1E1E1E1E1E1E1E1E1E1E1E1E1E1E1
310
E1E1E1E1E1E1E1E1E1E1E1E1E1E1E1E1E1E1E1E1E1E1E1E1E1E1E1E1E1E1E1E1E1E1E1E1E1E1E1E1E1E1E1E1E1E1E1E1E1E1E1E1E1E1E1E1E1E1E1E1E1E1E1E1E1E1E1E1E1E1E1E1E1E1E1E1E1E1E1E1E1E1E1E1E1E1E1E1E1E1E1E1E1E1E1E1E1E1E1E1E1E1E1E1E1E1E1E1E1E1E1E1E1E1E1E1E1E1E1E1E1E1E1E1E1E1E1
310
E1E1E1E128BEE1E1E1E1E1E1E1E1E1E1E1E1E1E1E1E1E1E1E1E1E1E1E1E1E1E1E1E1E1E1E1E1E1E1E1E1E1E1E1E1E1E1E1E1E1E1E1E1E1E1E1E1E1E1E1E1E1E1E1E1E1E1E1E1E1E1E1E1BEE1E1E1E1E128E1E1E1E1E1E1E1E1E1E1E1E1E1E1E1E1E1E1E1E1E1E1E1E1E1E1E1E1E1E1E1E1E1E1E1E1E1E1E1E1E1E1E1E1E1E1
310
E1E1E1E1E1E1E1E1E1E1E1E1E1E1E1E1E1E1E1E1E1E1E1E1E1E1E1E1E1E1E1E1E1E1E1E1E1E1E1E1E1E1E1E1E1E1E1E1E1E1E1E1E1E1E1E1E1E1E1E1E1E1E1E1E1E1E1E1E1E1E1E1E1E1E1E1E1E1E1E1E1E1E1E1E1E1E1E1E1E1E1E1E1E1E1E1E1E1E1E1E1E1E1E1E1E1E1E1E1E1E1E1E1E1E1E1E1E1E1E1E1E1E1E1E1E1E1
310
E1E1E1E1E1E128BEE1E1E1E1E1E1E1E1E1E1E1E1E1E1E1E1E1E1E1E1E1E1E1E1E1E1E1E1E1E1E1E1E1E1E1E1E1E1E1E1E1E1E1E1E1E1E1E1E1E1E1E1E1E1E1E1E1E1E1E1E1E1E1E1E1E1E1E1BEE1E1E1E1E128E1E1E1E1E1E1E1E1E1E1E1E1E1E1E1E1E1E1E1E1E1E1E1E1E1E1E1E1E1E1E1E1E1E1E1E1E1E1E1E1E1E1E1E1
310
E1E1E1E1E1E1E1E1E1E1E1E1E1E1E1E1E1E1E1E1E1E1E1E1E1E1E1E1E1E1E1E1E1E1E1E1E1E1E1E1E1E1E1E1E1E1E1E1E1E1E1E1E1E1E1E1E1E1E1E1E1E1E1E1E1E1E1E1E1E1E1E1E1E1E1E1E1E1E1E1E1E1E1E1E1E1E1E1E1E1E1E1E1E1E1E1E1E1E1E1E1E1E1E1E1E1E1E1E1E1E1E1E1E1E1E1E1E1E1E1E1E1E1E1E1E1E1
310
E1E1E1E1E1E1E1E128BEE1E1E1E1E1E1E1E1E1E1E1E1E1E1E1E1E1E1E1E1E1E1E1E1E1E1E1E1E1E1E1E1E1E1E1E1E1E1E1E1E1E1E1E1E1E1E1E1E1E1E1E1E1E1E1E1E1E1E1E1E1E1E1E1E1E1E1E1BEE1E1E1E1E128E1E1E1E1E1E1E1E1E1E1E1E1E1E1E1E1E1E1E1E1E1E1E1E1E1E1E1E1E1E1E1E1E1E1E1E1E1E1E1E1E1E1
310
E1E1E1E1E1E1E1E1E1E1E1E1E1E1E1E1E1E1E1E1E1E1E1E1E1E1E1E1E1E1E1E1E1E1E1E1E1E1E1E1E1E1E1E1E1E1E1E1E1E1E1E1E1E1E1E1E1E1E1E1E1E1E1E1E1E1E1E1E1E1E1E1E1E1E1E1E1E1E1E1E1E1E1E1E1E1E1E1E1E1E1E1E1E1E1E1E1E1E1E1E1E1E1E1E1E1E1E1E1E1E1E1E1E1E1E1E1E1E1E1E1E1E1E1E1E1E1
310
E1E1E1E1E1E1E1E1E1E128BEE1E1E1E1E1E1E1E1E1E1E1E1E1E1E1E1E1E1E1E1E1E1E1E1E1E1E1E1E1E1E1E1E1E1E1E1E1E1E1E1E1E1E1E1E1E1E1E1E1E1E1E1E1E1E1E1E1E1E1E1E1E1E1E1E1E1E1E1BEE1E1E1E1E128E1E1E1E1E1E1E1E1E1E1E1E1E1E1E1E1E1E1E1E1E1E1E1E1E1E1E1E1E1E1E1E1E1E1E1E1E1E1E1E1
310
E1E1E1E1E1E1E1E1E1E1E1E1E1E1E1E1E1E1E1E1E1E1E1E1E1E1E1E1E1E1E1E1E1E1E1E1E1E1E1E1E1E1E1E1E1E1E1E1E1E1E1E1E1E1E1E1E1E1E1E1E1E1E1E1E1E1E1E1E1E1E1E1E1E1E1E1E1E1E1E1E1E1E1E1E1E1E1E1E1E1E1E1E1E1E1E1E1E1E1E1E1E1E1E1E1E1E1E1E1E1E1E1E1E1E1E1E1E1E1E1E1E1E1E1E1E1E1
310
E1E1E1E1E1E1E1E1E1E1E1E128BEE1E1E1E1E1E1E1E1E1E1E1E1E1E1E1E1E1E1E1E1E1E1E1E1E1E1E1E1E1E1E1E1E1E1E1E1E1E1E1E1E1E1E1E1E1E1E1E1E1E1E1E1E1E1E1E1E1E1E1E1E1E1E1E1E1E1E1E1BEE1E1E1E1E128E1E1E1E1E1E1E1E1E1E1E1E1E1E1E1E1E1E1E1E1E1E1E1E1E1E1E1E1E1E1E1E1E1E1E1E1E1E1
310
E1E1E1E1E1E1E1E1E1E1E1E1E1E1E1E1E1E1E1E1E1E1E1E1E1E1E1E1E1E1E1E1E1E1E1E1E1E1E1E1E1E1E1E1E1E1E1E1E1E1E1E1E1E1E1E1E1E1E1E1E1E1E1E1E1E1E1E1E1E1E1E1E1E1E1E1E1E1E1E1E1E1E1E1E1E1E1E1E1E1E1E1E1E1E1E1E1E1E1E1E1E1E1E1E1E1E1E1E1E1E1E1E1E1E1E1E1E1E1E1E1E1E1E1E1E1E1
310
E1E1E1E1E1E1E1E1E1E1E1E1E1E128BEE1E1E1E1E1E1E1E1E1E1E1E1E1E1E1E1E1E1E1E1E1E1E1E1E1E1E1E1E1E1E1E1E1E1E1E1E1E1E1E1E1E1E1E1E1E1E1E1E1E1E1E1E1E1E1E1E1E1E1E1E1E1E1E1E1E1E1E1BEE1E1E1E1E128E1E1E1E1E1E1E1E1E1E1E1E1E1E1E1E1E1E1E1E1E1E1E1E1E1E1E1E1E1E1E1E1E1E1E1E1
310
E1E1E1E1E1E1E1E1E1E1E1E1E1E1E1E1E1E1E1E1E1E1E1E1E1E1E1E1E1E1E1E1E1E1E1E1E1E1E1E1E1E1E1E1E1E1E1E1E1E1E1E1E1E1E1E1E1E1E1E1E1E1E1E1E1E1E1E1E1E1E1E1E1E1E1E1E1E1E1E1E1E1E1E1E1E1E1E1E1E1E1E1E1E1E1E1E1E1E1E1E1E1E1E1E1E1E1E1E1E1E1E1E1E1E1E1E1E1E1E1E1E1E1E1E1E1E1
310
E1E1E1E1E1E1E1E1E1E1E1E1E1E1E1E128BEE1E1E1E1E1E1E1E1E1E1E1E1E1E1E1E1E1E1E1E1E1E1E1E1E1E1E1E1E1E1E1E1E1E1E1E1E1E1E1E1E1E1E1E1E1E1E1E1E1E1E1E1E1E1E1E1E1E1E1E1E1E1E1E1E1E1E1E1BEE1E1E1E1E128E1E1E1E1E1E1E1E1E1E1E1E1E1E1E1E1E1E1E1E1E1E1E1E1E1E1E1E1E1E1E1E1E1E1
310
E1E1E1E1E1E1E1E1E1E1E1E1E1E1E1E1E1E1E1E1E1E1E1E1E1E1E1E1E1E1E1E1E1E1E1E1E1E1E1E1E1E1E1E1E1E1E1E1E1E1E1E1E1E1E1E1E1E1E1E1E1E1E1E1E1E1E1E1E1E1E1E1E1E1E1E1E1E1E1E1E1E1E1E1E1E1E1E1E1E1E1E1E1E1E1E1E1E1E1E1E1E1E1E1E1E1E1E1E1E1E1E1E1E1E1E1E1E1E1E1E1E1E1E1E1E1E1
310
E1E1E1E1E1E1E1E1E1E1E1E1E1E1E1E1E1E128BEE1E1E1E1E1E1E1E1E1E1E1E1E1E1E1E1E1E1E1E1E1E1E1E1E1E1E1E1E1E1E1E1E1E1E1E1E1E1E1E1E1E1E1E1E1E1E1E1E1E1E1E1E1E1E1E1E1E1E1E1E1E1E1E1E1E1E1E1BEE1E1E1E1E128E1E1E1E1E1E1E1E1E1E1E1E1E1E1E1E1E1E1E1E1E1E1E1E1E1E1E1E1E1E1E1E1
310
E1E1E1E1E1E1E1E1E1E1E1E1E1E1E1E1E1E1E1E1E1E1E1E1E1E1E1E1E1E1E1E1E1E1E1E1E1E1E1E1E1E1E1E1E1E1E1E1E1E1E1E1E1E1E1E1E1E1E1E1E1E1E1E1E1E1E1E1E1E1E1E1E1E1E1E1E1E1E1E1E1E1E1E1E1E1E1E1E1E1E1E1E1E1E1E1E1E1E1E1E1E1E1E1E1E1E1E1E1E1E1E1E1E1E1E1E1E1E1E1E1E1E1E1E1E1E1
310
E1E1E1E1E1E1E1E1E1E1E1E1E1E1E1E1E1E1E1E128BEE1E1E1E1E1E1E1E1E1E1E1E1E1E1E1E1E1E1E1E1E1E1E1E1E1E1E1E1E1E1E1E1E1E1E1E1E1E1E1E1E1E1E1E1E1E1E1E1E1E1E1E1E1E1E1E1E1E1E1E1E1E1E1E1E1E1E1E1BEE1E1E1E1E1282828282828282828282828282828282828282828282828282828282828BE
310
282828282828282828282828282828282828282828282828282828282828BE2828282828282828282828282828282828282828282828282828282828282828282828282828282828282828282828282828282828282828282828BE282828282828282828282828282828282828282828282828282828282828282828282828
310
2828282828282828282828282828282828282828282828BEE1E1E1E1E1E1E1E1E1E1E1E1E1E1E1E1E1E1E1E1E1E1E1E1E1E1E1E1E1E1E1E1E1E1E1E1E1E1E1E1E1E1E1E1E1E1E1E1E1E1E1E1E1E1E1E1E1E1E1E1E1E1E1E1E1E1E1E1BEE1E1E1E1E1E1E1E1E1E1E1E1E1E1E1E1E1E1E1E1E1E1E1E1E1E1E1E1E1E1E1E1E1E1
310
E1BEE1E1E1E1E1E1E1E1E1E1E1E1E1E1E1E1E1E1E1E1E1E1E1E1E1E1E1E1E1E1BEE1E1E1E1E1E1E1E1E1E1E1E1E1E1E1E1E1E1E1E1E1E1E1E1E1E1E1E1E1E1E1E1E1E1E1E1E1E1E1E1E1E1E1E1E1E1E1E1E1E1E1E1E1E1E1E1E1E1E1BEE1E1E1E1E1E1E1E1E1E1E1E1E1E1E1E1E1E1E1E1E1E1E1E1E1E1E1E1E1E1E1E1E1E1
310
E1E1E1E1E1E1E1E1E1E1E1E1E1E1E1E1E1E1E1E1E1E1E1E1E1BEE1E1E1E1E1E1E1E1E1E1E1E1E1E1E1E1E1E1E1E1E1E1E1E1E1E1E1E1E1E1E1E1E1E1E1E1E1E1E1E1E1E1E1E1E1E1E1E1E1E1E1E1E1E1E1E1E1E1E1E1E1E1E1E1E1E1E1E1BEBEBEBEBEBEBEBEBEBEBEBEBEBEBEBEBEBEBEBEBEBEBEBEBEBEBEBEBEBEBEBEBE
310
BEBEBEBEBEBEBEBEBEBEBEBEBEBEBEBEBEBEBEBEBEBEBEBEBEBEBEBEBEBEBEBEBEBEBEBEBEBEBEBEBEBEBEBEBEBEBEBEBEBEBEBEBEBEBEBEBEBEBEBEBEBEBEBEBEBEBEBEBEBEBEBEBEBEBEBEBEBEBEBEBEBEBEBEBEBEBEBEBEBEBEBEBEBEBEBEBEBEBEBEBEBEBEBEBEBEBEBEBEBEBEBEBEBEBEBEBEBEBEBEBEBEBEBEBEBEBE
310
BEBEBEBEBEBEBEBEBEBEBEBEBEBEBEBEBEBEBEBEBEBEBEBEBEBEBEBEE1E1E1E1E1E1E1E1E1E1E1E1E1E1E1E1E1E1E1E1E1E1E1E1E1E1E1E1E1E1E1E1E1E1
  0
XRECORD
  5
E4C
102
{ACAD_REACTORS
330
BE5
102
}
330
BE5
100
AcDbXrecord
280
     1
102
MATERIAL
148
0.0
149
0.0
149
0.0
 93
        0
 94
      127
282
     0
 72
     0
 77
     0
171
     0
175
     0
179
     0
273
     0
  0
XRECORD
  5
BE7
102
{ACAD_REACTORS
330
BE5
102
}
330
BE5
100
AcDbXrecord
280
     1
270
     1
271
     1
  0
XRECORD
  5
BE6
102
{ACAD_REACTORS
330
BE5
102
}
330
BE5
100
AcDbXrecord
280
     1
270
     1
271
     1
  0
XRECORD
  5
BEA
102
{ACAD_REACTORS
330
BE5
102
}
330
BE5
100
AcDbXrecord
280
     1
270
     1
271
     1
  0
XRECORD
  5
BE9
102
{ACAD_REACTORS
330
BE5
102
}
330
BE5
100
AcDbXrecord
280
     1
270
     1
271
     1
  0
XRECORD
  5
BEB
102
{ACAD_REACTORS
330
BE5
102
}
330
BE5
100
AcDbXrecord
280
     1
270
     1
271
     1
  0
XRECORD
  5
BE8
102
{ACAD_REACTORS
330
BE5
102
}
330
BE5
100
AcDbXrecord
280
     1
270
     1
271
     1
  0
XRECORD
  5
E4B
102
{ACAD_REACTORS
330
BDD
102
}
330
BDD
100
AcDbXrecord
280
     1
102
MATERIAL
148
0.0
149
0.0
149
0.0
 93
        0
 94
      127
282
     0
 72
     0
 77
     0
171
     0
175
     0
179
     0
273
     0
  0
XRECORD
  5
BDF
102
{ACAD_REACTORS
330
BDD
102
}
330
BDD
100
AcDbXrecord
280
     1
270
     1
271
     1
  0
XRECORD
  5
BDE
102
{ACAD_REACTORS
330
BDD
102
}
330
BDD
100
AcDbXrecord
280
     1
270
     1
271
     1
  0
XRECORD
  5
BE2
102
{ACAD_REACTORS
330
BDD
102
}
330
BDD
100
AcDbXrecord
280
     1
270
     1
271
     1
  0
XRECORD
  5
BE1
102
{ACAD_REACTORS
330
BDD
102
}
330
BDD
100
AcDbXrecord
280
     1
270
     1
271
     1
  0
XRECORD
  5
BE3
102
{ACAD_REACTORS
330
BDD
102
}
330
BDD
100
AcDbXrecord
280
     1
270
     1
271
     1
  0
XRECORD
  5
BE0
102
{ACAD_REACTORS
330
BDD
102
}
330
BDD
100
AcDbXrecord
280
     1
270
     1
271
     1
  0
XRECORD
  5
E4D
102
{ACAD_REACTORS
330
BED
102
}
330
BED
100
AcDbXrecord
280
     1
102
MATERIAL
148
0.0
149
0.0
149
0.0
 93
        0
 94
      127
282
     0
 72
     0
 77
     0
171
     0
175
     0
179
     0
273
     0
  0
XRECORD
  5
BEF
102
{ACAD_REACTORS
330
BED
102
}
330
BED
100
AcDbXrecord
280
     1
270
     1
271
     1
  0
XRECORD
  5
BEE
102
{ACAD_REACTORS
330
BED
102
}
330
BED
100
AcDbXrecord
280
     1
270
     1
271
     1
  0
XRECORD
  5
BF2
102
{ACAD_REACTORS
330
BED
102
}
330
BED
100
AcDbXrecord
280
     1
270
     1
271
     1
  0
XRECORD
  5
BF1
102
{ACAD_REACTORS
330
BED
102
}
330
BED
100
AcDbXrecord
280
     1
270
     1
271
     1
  0
XRECORD
  5
BF3
102
{ACAD_REACTORS
330
BED
102
}
330
BED
100
AcDbXrecord
280
     1
270
     1
271
     1
  0
XRECORD
  5
BF0
102
{ACAD_REACTORS
330
BED
102
}
330
BED
100
AcDbXrecord
280
     1
270
     1
271
     1
  0
CELLSTYLEMAP
  5
E46
102
{ACAD_REACTORS
330
E45
102
}
330
E45
100
AcDbCellStyleMap
 90
        3
300
CELLSTYLE
  1
TABLEFORMAT_BEGIN
 90
        5
170
     1
 91
        0
 92
    32768
 62
   257
 93
        1
300
CONTENTFORMAT
  1
CONTENTFORMAT_BEGIN
 90
        0
 91
        0
 92
      512
 93
        0
300

 40
0.0
140
1.0
 94
        5
 62
     0
340
10
144
0.25
309
CONTENTFORMAT_END
171
     0
 94
        0
309
TABLEFORMAT_END
  1
CELLSTYLE_BEGIN
 90
        1
 91
        1
300
_TITLE
309
CELLSTYLE_END
300
CELLSTYLE
  1
TABLEFORMAT_BEGIN
 90
        5
170
     1
 91
        0
 92
        0
 62
   257
 93
        1
300
CONTENTFORMAT
  1
CONTENTFORMAT_BEGIN
 90
        0
 91
        0
 92
      512
 93
        0
300

 40
0.0
140
1.0
 94
        5
 62
     0
340
10
144
0.18
309
CONTENTFORMAT_END
171
     0
 94
        0
309
TABLEFORMAT_END
  1
CELLSTYLE_BEGIN
 90
        2
 91
        1
300
_HEADER
309
CELLSTYLE_END
300
CELLSTYLE
  1
TABLEFORMAT_BEGIN
 90
        5
170
     1
 91
        0
 92
        0
 62
   257
 93
        1
300
CONTENTFORMAT
  1
CONTENTFORMAT_BEGIN
 90
        0
 91
        0
 92
      512
 93
        0
300

 40
0.0
140
1.0
 94
        2
 62
     0
340
10
144
0.18
309
CONTENTFORMAT_END
171
     0
 94
        0
309
TABLEFORMAT_END
  1
CELLSTYLE_BEGIN
 90
        3
 91
        2
300
_DATA
309
CELLSTYLE_END
  0
XRECORD
  5
E74
102
{ACAD_REACTORS
330
E45
102
}
330
E45
100
AcDbXrecord
280
     1
102
ACAD_ROUNDTRIP_PRE2007_TABLESTYLE
 90
      512
 91
        0
  1

 92
      512
 93
        0
  2

 94
      512
 95
        0
  3

  0
XRECORD
  5
E59
102
{ACAD_REACTORS
330
E58
102
}
330
E58
100
AcDbXrecord
280
     1
102
RTVSPropertyOp0
 70
     1
102
RTVSPropertyOp1
 70
     1
102
RTVSPropertyOp2
 70
     1
102
RTVSPropertyOp3
 70
     1
102
RTVSPropertyOp4
 70
     1
102
RTVSPropertyOp5
 70
     1
102
RTVSPropertyOp6
 70
     1
102
RTVSPropertyOp7
 70
     1
102
RTVSPropertyOp8
 70
     1
102
RTVSPropertyOp9
 70
     1
102
RTVSPropertyOp10
 70
     1
102
RTVSPropertyOp11
 70
     1
102
RTVSPropertyOp12
 70
     1
102
RTVSPropertyOp13
 70
     1
102
RTVSPropertyOp14
 70
     1
102
RTVSPropertyOp15
 70
     1
102
RTVSPropertyOp16
 70
     1
102
RTVSPropertyOp17
 70
     1
102
RTVSPropertyOp18
 70
     1
102
RTVSPropertyOp19
 70
     1
102
RTVSPropertyOp20
 70
     1
102
RTVSPropertyOp21
 70
     1
102
RTVSPropertyOp22
 70
     1
102
RTVSPropertyOp23
 70
     1
102
RTVSPropertyOp24
 70
     1
102
RTVSPropertyOp25
 70
     1
102
RTVSPropertyOp26
 70
     1
102
RTVSPropertyOp27
 70
     1
  0
XRECORD
  5
E5D
102
{ACAD_REACTORS
330
E5C
102
}
330
E5C
100
AcDbXrecord
280
     1
102
RTVSPropertyOp0
 70
     1
102
RTVSPropertyOp1
 70
     1
102
RTVSPropertyOp2
 70
     1
102
RTVSPropertyOp3
 70
     1
102
RTVSPropertyOp4
 70
     1
102
RTVSPropertyOp5
 70
     1
102
RTVSPropertyOp6
 70
     1
102
RTVSPropertyOp7
 70
     1
102
RTVSPropertyOp8
 70
     1
102
RTVSPropertyOp9
 70
     1
102
RTVSPropertyOp10
 70
     1
102
RTVSPropertyOp11
 70
     1
102
RTVSPropertyOp12
 70
     1
102
RTVSPropertyOp13
 70
     1
102
RTVSPropertyOp14
 70
     1
102
RTVSPropertyOp15
 70
     1
102
RTVSPropertyOp16
 70
     1
102
RTVSPropertyOp17
 70
     1
102
RTVSPropertyOp18
 70
     1
102
RTVSPropertyOp19
 70
     1
102
RTVSPropertyOp20
 70
     1
102
RTVSPropertyOp21
 70
     1
102
RTVSPropertyOp22
 70
     1
102
RTVSPropertyOp23
 70
     1
102
RTVSPropertyOp24
 70
     1
102
RTVSPropertyOp25
 70
     1
102
RTVSPropertyOp26
 70
     1
102
RTVSPropertyOp27
 70
     1
  0
XRECORD
  5
E5B
102
{ACAD_REACTORS
330
E5A
102
}
330
E5A
100
AcDbXrecord
280
     1
102
RTVSPropertyOp0
 70
     1
102
RTVSPropertyOp1
 70
     1
102
RTVSPropertyOp2
 70
     1
102
RTVSPropertyOp3
 70
     1
102
RTVSPropertyOp4
 70
     1
102
RTVSPropertyOp5
 70
     1
102
RTVSPropertyOp6
 70
     1
102
RTVSPropertyOp7
 70
     1
102
RTVSPropertyOp8
 70
     1
102
RTVSPropertyOp9
 70
     1
102
RTVSPropertyOp10
 70
     1
102
RTVSPropertyOp11
 70
     1
102
RTVSPropertyOp12
 70
     1
102
RTVSPropertyOp13
 70
     1
102
RTVSPropertyOp14
 70
     1
102
RTVSPropertyOp15
 70
     1
102
RTVSPropertyOp16
 70
     1
102
RTVSPropertyOp17
 70
     1
102
RTVSPropertyOp18
 70
     1
102
RTVSPropertyOp19
 70
     1
102
RTVSPropertyOp20
 70
     1
102
RTVSPropertyOp21
 70
     1
102
RTVSPropertyOp22
 70
     1
102
RTVSPropertyOp23
 70
     1
102
RTVSPropertyOp24
 70
     1
102
RTVSPropertyOp25
 70
     1
102
RTVSPropertyOp26
 70
     1
102
RTVSPropertyOp27
 70
     1
  0
XRECORD
  5
E57
102
{ACAD_REACTORS
330
E56
102
}
330
E56
100
AcDbXrecord
280
     1
102
RTVSPropertyOp0
 70
     1
102
RTVSPropertyOp1
 70
     1
102
RTVSPropertyOp2
 70
     1
102
RTVSPropertyOp3
 70
     1
102
RTVSPropertyOp4
 70
     1
102
RTVSPropertyOp5
 70
     1
102
RTVSPropertyOp6
 70
     1
102
RTVSPropertyOp7
 70
     1
102
RTVSPropertyOp8
 70
     1
102
RTVSPropertyOp9
 70
     1
102
RTVSPropertyOp10
 70
     1
102
RTVSPropertyOp11
 70
     1
102
RTVSPropertyOp12
 70
     1
102
RTVSPropertyOp13
 70
     1
102
RTVSPropertyOp14
 70
     1
102
RTVSPropertyOp15
 70
     1
102
RTVSPropertyOp16
 70
     1
102
RTVSPropertyOp17
 70
     1
102
RTVSPropertyOp18
 70
     1
102
RTVSPropertyOp19
 70
     1
102
RTVSPropertyOp20
 70
     1
102
RTVSPropertyOp21
 70
     1
102
RTVSPropertyOp22
 70
     1
102
RTVSPropertyOp23
 70
     1
102
RTVSPropertyOp24
 70
     1
102
RTVSPropertyOp25
 70
     1
102
RTVSPropertyOp26
 70
     1
102
RTVSPropertyOp27
 70
     1
  0
XRECORD
  5
E65
102
{ACAD_REACTORS
330
E64
102
}
330
E64
100
AcDbXrecord
280
     1
102
RTVSPropertyOp0
 70
     1
102
RTVSPropertyOp1
 70
     1
102
RTVSPropertyOp2
 70
     1
102
RTVSPropertyOp3
 70
     1
102
RTVSPropertyOp4
 70
     1
102
RTVSPropertyOp5
 70
     1
102
RTVSPropertyOp6
 70
     1
102
RTVSPropertyOp7
 70
     1
102
RTVSPropertyOp8
 70
     1
102
RTVSPropertyOp9
 70
     1
102
RTVSPropertyOp10
 70
     1
102
RTVSPropertyOp11
 70
     1
102
RTVSPropertyOp12
 70
     1
102
RTVSPropertyOp13
 70
     1
102
RTVSPropertyOp14
 70
     1
102
RTVSPropertyOp15
 70
     1
102
RTVSPropertyOp16
 70
     1
102
RTVSPropertyOp17
 70
     1
102
RTVSPropertyOp18
 70
     1
102
RTVSPropertyOp19
 70
     1
102
RTVSPropertyOp20
 70
     1
102
RTVSPropertyOp21
 70
     1
102
RTVSPropertyOp22
 70
     1
102
RTVSPropertyOp23
 70
     1
102
RTVSPropertyOp24
 70
     1
102
RTVSPropertyOp25
 70
     1
102
RTVSPropertyOp26
 70
     1
102
RTVSPropertyOp27
 70
     1
  0
XRECORD
  5
E6D
102
{ACAD_REACTORS
330
E6C
102
}
330
E6C
100
AcDbXrecord
280
     1
102
RTVSPropertyOp0
 70
     1
102
RTVSPropertyOp1
 70
     1
102
RTVSPropertyOp2
 70
     1
102
RTVSPropertyOp3
 70
     1
102
RTVSPropertyOp4
 70
     1
102
RTVSPropertyOp5
 70
     1
102
RTVSPropertyOp6
 70
     1
102
RTVSPropertyOp7
 70
     1
102
RTVSPropertyOp8
 70
     1
102
RTVSPropertyOp9
 70
     1
102
RTVSPropertyOp10
 70
     1
102
RTVSPropertyOp11
 70
     1
102
RTVSPropertyOp12
 70
     1
102
RTVSPropertyOp13
 70
     1
102
RTVSPropertyOp14
 70
     1
102
RTVSPropertyOp15
 70
     1
102
RTVSPropertyOp16
 70
     1
102
RTVSPropertyOp17
 70
     1
102
RTVSPropertyOp18
 70
     1
102
RTVSPropertyOp19
 70
     1
102
RTVSPropertyOp20
 70
     1
102
RTVSPropertyOp21
 70
     1
102
RTVSPropertyOp22
 70
     1
102
RTVSPropertyOp23
 70
     1
102
RTVSPropertyOp24
 70
     1
102
RTVSPropertyOp25
 70
     1
102
RTVSPropertyOp26
 70
     1
102
RTVSPropertyOp27
 70
     1
  0
XRECORD
  5
E5F
102
{ACAD_REACTORS
330
E5E
102
}
330
E5E
100
AcDbXrecord
280
     1
102
RTVSPropertyOp0
 70
     1
102
RTVSPropertyOp1
 70
     1
102
RTVSPropertyOp2
 70
     1
102
RTVSPropertyOp3
 70
     1
102
RTVSPropertyOp4
 70
     1
102
RTVSPropertyOp5
 70
     1
102
RTVSPropertyOp6
 70
     1
102
RTVSPropertyOp7
 70
     1
102
RTVSPropertyOp8
 70
     1
102
RTVSPropertyOp9
 70
     1
102
RTVSPropertyOp10
 70
     1
102
RTVSPropertyOp11
 70
     1
102
RTVSPropertyOp12
 70
     1
102
RTVSPropertyOp13
 70
     1
102
RTVSPropertyOp14
 70
     1
102
RTVSPropertyOp15
 70
     1
102
RTVSPropertyOp16
 70
     1
102
RTVSPropertyOp17
 70
     1
102
RTVSPropertyOp18
 70
     1
102
RTVSPropertyOp19
 70
     1
102
RTVSPropertyOp20
 70
     1
102
RTVSPropertyOp21
 70
     1
102
RTVSPropertyOp22
 70
     1
102
RTVSPropertyOp23
 70
     1
102
RTVSPropertyOp24
 70
     1
102
RTVSPropertyOp25
 70
     1
102
RTVSPropertyOp26
 70
     1
102
RTVSPropertyOp27
 70
     1
  0
XRECORD
  5
E63
102
{ACAD_REACTORS
330
E62
102
}
330
E62
100
AcDbXrecord
280
     1
102
RTVSPropertyOp0
 70
     1
102
RTVSPropertyOp1
 70
     1
102
RTVSPropertyOp2
 70
     1
102
RTVSPropertyOp3
 70
     1
102
RTVSPropertyOp4
 70
     1
102
RTVSPropertyOp5
 70
     1
102
RTVSPropertyOp6
 70
     1
102
RTVSPropertyOp7
 70
     1
102
RTVSPropertyOp8
 70
     1
102
RTVSPropertyOp9
 70
     1
102
RTVSPropertyOp10
 70
     1
102
RTVSPropertyOp11
 70
     1
102
RTVSPropertyOp12
 70
     1
102
RTVSPropertyOp13
 70
     1
102
RTVSPropertyOp14
 70
     1
102
RTVSPropertyOp15
 70
     1
102
RTVSPropertyOp16
 70
     1
102
RTVSPropertyOp17
 70
     1
102
RTVSPropertyOp18
 70
     1
102
RTVSPropertyOp19
 70
     1
102
RTVSPropertyOp20
 70
     1
102
RTVSPropertyOp21
 70
     1
102
RTVSPropertyOp22
 70
     1
102
RTVSPropertyOp23
 70
     1
102
RTVSPropertyOp24
 70
     1
102
RTVSPropertyOp25
 70
     1
102
RTVSPropertyOp26
 70
     1
102
RTVSPropertyOp27
 70
     1
  0
XRECORD
  5
E73
102
{ACAD_REACTORS
330
E72
102
}
330
E72
100
AcDbXrecord
280
     1
102
RTVSPropertyOp0
 70
     0
102
RTVSPropertyOp1
 70
     0
102
RTVSPropertyOp2
 70
     0
102
RTVSPropertyOp3
 70
     0
102
RTVSPropertyOp4
 70
     0
102
RTVSPropertyOp5
 70
     0
102
RTVSPropertyOp6
 70
     0
102
RTVSPropertyOp7
 70
     0
102
RTVSPropertyOp8
 70
     0
102
RTVSPropertyOp9
 70
     0
102
RTVSPropertyOp10
 70
     0
102
RTVSPropertyOp11
 70
     0
102
RTVSPropertyOp12
 70
     0
102
RTVSPropertyOp13
 70
     0
102
RTVSPropertyOp14
 70
     2
102
RTVSPropertyOp15
 70
     0
102
RTVSPropertyOp16
 70
     0
102
RTVSPropertyOp17
 70
     0
102
RTVSPropertyOp18
 70
     0
102
RTVSPropertyOp19
 70
     0
102
RTVSPropertyOp20
 70
     0
102
RTVSPropertyOp21
 70
     0
102
RTVSPropertyOp22
 70
     0
102
RTVSPropertyOp23
 70
     0
102
RTVSPropertyOp24
 70
     0
102
RTVSPropertyOp25
 70
     0
102
RTVSPropertyOp26
 70
     0
102
RTVSPropertyOp27
 70
     0
  0
XRECORD
  5
E6B
102
{ACAD_REACTORS
330
E6A
102
}
330
E6A
100
AcDbXrecord
280
     1
102
RTVSPropertyOp0
 70
     1
102
RTVSPropertyOp1
 70
     1
102
RTVSPropertyOp2
 70
     1
102
RTVSPropertyOp3
 70
     1
102
RTVSPropertyOp4
 70
     1
102
RTVSPropertyOp5
 70
     1
102
RTVSPropertyOp6
 70
     1
102
RTVSPropertyOp7
 70
     1
102
RTVSPropertyOp8
 70
     1
102
RTVSPropertyOp9
 70
     1
102
RTVSPropertyOp10
 70
     1
102
RTVSPropertyOp11
 70
     1
102
RTVSPropertyOp12
 70
     1
102
RTVSPropertyOp13
 70
     1
102
RTVSPropertyOp14
 70
     1
102
RTVSPropertyOp15
 70
     1
102
RTVSPropertyOp16
 70
     1
102
RTVSPropertyOp17
 70
     1
102
RTVSPropertyOp18
 70
     1
102
RTVSPropertyOp19
 70
     1
102
RTVSPropertyOp20
 70
     1
102
RTVSPropertyOp21
 70
     1
102
RTVSPropertyOp22
 70
     1
102
RTVSPropertyOp23
 70
     1
102
RTVSPropertyOp24
 70
     1
102
RTVSPropertyOp25
 70
     1
102
RTVSPropertyOp26
 70
     1
102
RTVSPropertyOp27
 70
     1
  0
XRECORD
  5
E4F
102
{ACAD_REACTORS
330
E4E
102
}
330
E4E
100
AcDbXrecord
280
     1
102
RTVSPropertyOp0
 70
     1
102
RTVSPropertyOp1
 70
     1
102
RTVSPropertyOp2
 70
     1
102
RTVSPropertyOp3
 70
     1
102
RTVSPropertyOp4
 70
     1
102
RTVSPropertyOp5
 70
     1
102
RTVSPropertyOp6
 70
     1
102
RTVSPropertyOp7
 70
     1
102
RTVSPropertyOp8
 70
     1
102
RTVSPropertyOp9
 70
     1
102
RTVSPropertyOp10
 70
     1
102
RTVSPropertyOp11
 70
     1
102
RTVSPropertyOp12
 70
     1
102
RTVSPropertyOp13
 70
     1
102
RTVSPropertyOp14
 70
     1
102
RTVSPropertyOp15
 70
     1
102
RTVSPropertyOp16
 70
     1
102
RTVSPropertyOp17
 70
     1
102
RTVSPropertyOp18
 70
     1
102
RTVSPropertyOp19
 70
     1
102
RTVSPropertyOp20
 70
     1
102
RTVSPropertyOp21
 70
     1
102
RTVSPropertyOp22
 70
     1
102
RTVSPropertyOp23
 70
     1
102
RTVSPropertyOp24
 70
     1
102
RTVSPropertyOp25
 70
     1
102
RTVSPropertyOp26
 70
     1
102
RTVSPropertyOp27
 70
     1
  0
XRECORD
  5
E51
102
{ACAD_REACTORS
330
E50
102
}
330
E50
100
AcDbXrecord
280
     1
102
RTVSPropertyOp0
 70
     1
102
RTVSPropertyOp1
 70
     1
102
RTVSPropertyOp2
 70
     1
102
RTVSPropertyOp3
 70
     1
102
RTVSPropertyOp4
 70
     1
102
RTVSPropertyOp5
 70
     1
102
RTVSPropertyOp6
 70
     1
102
RTVSPropertyOp7
 70
     1
102
RTVSPropertyOp8
 70
     1
102
RTVSPropertyOp9
 70
     1
102
RTVSPropertyOp10
 70
     1
102
RTVSPropertyOp11
 70
     1
102
RTVSPropertyOp12
 70
     1
102
RTVSPropertyOp13
 70
     1
102
RTVSPropertyOp14
 70
     1
102
RTVSPropertyOp15
 70
     1
102
RTVSPropertyOp16
 70
     1
102
RTVSPropertyOp17
 70
     1
102
RTVSPropertyOp18
 70
     1
102
RTVSPropertyOp19
 70
     1
102
RTVSPropertyOp20
 70
     1
102
RTVSPropertyOp21
 70
     1
102
RTVSPropertyOp22
 70
     1
102
RTVSPropertyOp23
 70
     1
102
RTVSPropertyOp24
 70
     1
102
RTVSPropertyOp25
 70
     1
102
RTVSPropertyOp26
 70
     1
102
RTVSPropertyOp27
 70
     1
  0
XRECORD
  5
E53
102
{ACAD_REACTORS
330
E52
102
}
330
E52
100
AcDbXrecord
280
     1
102
RTVSPropertyOp0
 70
     1
102
RTVSPropertyOp1
 70
     1
102
RTVSPropertyOp2
 70
     1
102
RTVSPropertyOp3
 70
     1
102
RTVSPropertyOp4
 70
     1
102
RTVSPropertyOp5
 70
     1
102
RTVSPropertyOp6
 70
     1
102
RTVSPropertyOp7
 70
     1
102
RTVSPropertyOp8
 70
     1
102
RTVSPropertyOp9
 70
     1
102
RTVSPropertyOp10
 70
     1
102
RTVSPropertyOp11
 70
     1
102
RTVSPropertyOp12
 70
     1
102
RTVSPropertyOp13
 70
     1
102
RTVSPropertyOp14
 70
     1
102
RTVSPropertyOp15
 70
     1
102
RTVSPropertyOp16
 70
     1
102
RTVSPropertyOp17
 70
     1
102
RTVSPropertyOp18
 70
     1
102
RTVSPropertyOp19
 70
     1
102
RTVSPropertyOp20
 70
     1
102
RTVSPropertyOp21
 70
     1
102
RTVSPropertyOp22
 70
     1
102
RTVSPropertyOp23
 70
     1
102
RTVSPropertyOp24
 70
     1
102
RTVSPropertyOp25
 70
     1
102
RTVSPropertyOp26
 70
     1
102
RTVSPropertyOp27
 70
     1
  0
XRECORD
  5
E55
102
{ACAD_REACTORS
330
E54
102
}
330
E54
100
AcDbXrecord
280
     1
102
RTVSPropertyOp0
 70
     1
102
RTVSPropertyOp1
 70
     1
102
RTVSPropertyOp2
 70
     1
102
RTVSPropertyOp3
 70
     1
102
RTVSPropertyOp4
 70
     1
102
RTVSPropertyOp5
 70
     1
102
RTVSPropertyOp6
 70
     1
102
RTVSPropertyOp7
 70
     1
102
RTVSPropertyOp8
 70
     1
102
RTVSPropertyOp9
 70
     1
102
RTVSPropertyOp10
 70
     1
102
RTVSPropertyOp11
 70
     1
102
RTVSPropertyOp12
 70
     1
102
RTVSPropertyOp13
 70
     1
102
RTVSPropertyOp14
 70
     1
102
RTVSPropertyOp15
 70
     1
102
RTVSPropertyOp16
 70
     1
102
RTVSPropertyOp17
 70
     1
102
RTVSPropertyOp18
 70
     1
102
RTVSPropertyOp19
 70
     1
102
RTVSPropertyOp20
 70
     1
102
RTVSPropertyOp21
 70
     1
102
RTVSPropertyOp22
 70
     1
102
RTVSPropertyOp23
 70
     1
102
RTVSPropertyOp24
 70
     1
102
RTVSPropertyOp25
 70
     1
102
RTVSPropertyOp26
 70
     1
102
RTVSPropertyOp27
 70
     1
  0
XRECORD
  5
E6F
102
{ACAD_REACTORS
330
E6E
102
}
330
E6E
100
AcDbXrecord
280
     1
102
RTVSPropertyOp0
 70
     0
102
RTVSPropertyOp1
 70
     0
102
RTVSPropertyOp2
 70
     0
102
RTVSPropertyOp3
 70
     0
102
RTVSPropertyOp4
 70
     0
102
RTVSPropertyOp5
 70
     0
102
RTVSPropertyOp6
 70
     0
102
RTVSPropertyOp7
 70
     0
102
RTVSPropertyOp8
 70
     0
102
RTVSPropertyOp9
 70
     0
102
RTVSPropertyOp10
 70
     0
102
RTVSPropertyOp11
 70
     0
102
RTVSPropertyOp12
 70
     0
102
RTVSPropertyOp13
 70
     0
102
RTVSPropertyOp14
 70
     2
102
RTVSPropertyOp15
 70
     0
102
RTVSPropertyOp16
 70
     0
102
RTVSPropertyOp17
 70
     0
102
RTVSPropertyOp18
 70
     0
102
RTVSPropertyOp19
 70
     0
102
RTVSPropertyOp20
 70
     0
102
RTVSPropertyOp21
 70
     0
102
RTVSPropertyOp22
 70
     0
102
RTVSPropertyOp23
 70
     0
102
RTVSPropertyOp24
 70
     0
102
RTVSPropertyOp25
 70
     0
102
RTVSPropertyOp26
 70
     0
102
RTVSPropertyOp27
 70
     0
  0
XRECORD
  5
E69
102
{ACAD_REACTORS
330
E68
102
}
330
E68
100
AcDbXrecord
280
     1
102
RTVSPropertyOp0
 70
     1
102
RTVSPropertyOp1
 70
     1
102
RTVSPropertyOp2
 70
     1
102
RTVSPropertyOp3
 70
     1
102
RTVSPropertyOp4
 70
     1
102
RTVSPropertyOp5
 70
     1
102
RTVSPropertyOp6
 70
     1
102
RTVSPropertyOp7
 70
     1
102
RTVSPropertyOp8
 70
     1
102
RTVSPropertyOp9
 70
     1
102
RTVSPropertyOp10
 70
     1
102
RTVSPropertyOp11
 70
     1
102
RTVSPropertyOp12
 70
     1
102
RTVSPropertyOp13
 70
     1
102
RTVSPropertyOp14
 70
     1
102
RTVSPropertyOp15
 70
     1
102
RTVSPropertyOp16
 70
     1
102
RTVSPropertyOp17
 70
     1
102
RTVSPropertyOp18
 70
     1
102
RTVSPropertyOp19
 70
     1
102
RTVSPropertyOp20
 70
     1
102
RTVSPropertyOp21
 70
     1
102
RTVSPropertyOp22
 70
     1
102
RTVSPropertyOp23
 70
     1
102
RTVSPropertyOp24
 70
     1
102
RTVSPropertyOp25
 70
     1
102
RTVSPropertyOp26
 70
     1
102
RTVSPropertyOp27
 70
     1
  0
XRECORD
  5
E71
102
{ACAD_REACTORS
330
E70
102
}
330
E70
100
AcDbXrecord
280
     1
102
RTVSPropertyOp0
 70
     0
102
RTVSPropertyOp1
 70
     0
102
RTVSPropertyOp2
 70
     0
102
RTVSPropertyOp3
 70
     0
102
RTVSPropertyOp4
 70
     0
102
RTVSPropertyOp5
 70
     0
102
RTVSPropertyOp6
 70
     0
102
RTVSPropertyOp7
 70
     0
102
RTVSPropertyOp8
 70
     0
102
RTVSPropertyOp9
 70
     0
102
RTVSPropertyOp10
 70
     0
102
RTVSPropertyOp11
 70
     0
102
RTVSPropertyOp12
 70
     0
102
RTVSPropertyOp13
 70
     0
102
RTVSPropertyOp14
 70
     2
102
RTVSPropertyOp15
 70
     0
102
RTVSPropertyOp16
 70
     0
102
RTVSPropertyOp17
 70
     0
102
RTVSPropertyOp18
 70
     0
102
RTVSPropertyOp19
 70
     0
102
RTVSPropertyOp20
 70
     0
102
RTVSPropertyOp21
 70
     0
102
RTVSPropertyOp22
 70
     0
102
RTVSPropertyOp23
 70
     0
102
RTVSPropertyOp24
 70
     0
102
RTVSPropertyOp25
 70
     0
102
RTVSPropertyOp26
 70
     0
102
RTVSPropertyOp27
 70
     0
  0
XRECORD
  5
E61
102
{ACAD_REACTORS
330
E60
102
}
330
E60
100
AcDbXrecord
280
     1
102
RTVSPropertyOp0
 70
     1
102
RTVSPropertyOp1
 70
     1
102
RTVSPropertyOp2
 70
     1
102
RTVSPropertyOp3
 70
     1
102
RTVSPropertyOp4
 70
     1
102
RTVSPropertyOp5
 70
     1
102
RTVSPropertyOp6
 70
     1
102
RTVSPropertyOp7
 70
     1
102
RTVSPropertyOp8
 70
     1
102
RTVSPropertyOp9
 70
     1
102
RTVSPropertyOp10
 70
     1
102
RTVSPropertyOp11
 70
     1
102
RTVSPropertyOp12
 70
     1
102
RTVSPropertyOp13
 70
     1
102
RTVSPropertyOp14
 70
     1
102
RTVSPropertyOp15
 70
     1
102
RTVSPropertyOp16
 70
     1
102
RTVSPropertyOp17
 70
     1
102
RTVSPropertyOp18
 70
     1
102
RTVSPropertyOp19
 70
     1
102
RTVSPropertyOp20
 70
     1
102
RTVSPropertyOp21
 70
     1
102
RTVSPropertyOp22
 70
     1
102
RTVSPropertyOp23
 70
     1
102
RTVSPropertyOp24
 70
     1
102
RTVSPropertyOp25
 70
     1
102
RTVSPropertyOp26
 70
     1
102
RTVSPropertyOp27
 70
     1
  0
XRECORD
  5
E67
102
{ACAD_REACTORS
330
E66
102
}
330
E66
100
AcDbXrecord
280
     1
102
RTVSPropertyOp0
 70
     1
102
RTVSPropertyOp1
 70
     1
102
RTVSPropertyOp2
 70
     1
102
RTVSPropertyOp3
 70
     1
102
RTVSPropertyOp4
 70
     1
102
RTVSPropertyOp5
 70
     1
102
RTVSPropertyOp6
 70
     1
102
RTVSPropertyOp7
 70
     1
102
RTVSPropertyOp8
 70
     1
102
RTVSPropertyOp9
 70
     1
102
RTVSPropertyOp10
 70
     1
102
RTVSPropertyOp11
 70
     1
102
RTVSPropertyOp12
 70
     1
102
RTVSPropertyOp13
 70
     1
102
RTVSPropertyOp14
 70
     1
102
RTVSPropertyOp15
 70
     1
102
RTVSPropertyOp16
 70
     1
102
RTVSPropertyOp17
 70
     1
102
RTVSPropertyOp18
 70
     1
102
RTVSPropertyOp19
 70
     1
102
RTVSPropertyOp20
 70
     1
102
RTVSPropertyOp21
 70
     1
102
RTVSPropertyOp22
 70
     1
102
RTVSPropertyOp23
 70
     1
102
RTVSPropertyOp24
 70
     1
102
RTVSPropertyOp25
 70
     1
102
RTVSPropertyOp26
 70
     1
102
RTVSPropertyOp27
 70
     1
  0
PH_GROUP
  5
C39
102
{ACAD_REACTORS
330
6AF
102
}
330
6AF
  0
PH_GROUP
  5
C3B
102
{ACAD_REACTORS
330
6BB
102
}
330
6BB
  0
PH_GROUP
  5
C3D
102
{ACAD_REACTORS
330
6C7
102
}
330
6C7
  0
PH_GROUP
  5
C3E
102
{ACAD_REACTORS
330
6CC
102
}
330
6CC
  0
PH_GROUP
  5
C40
102
{ACAD_REACTORS
330
6D7
102
}
330
6D7
  0
PH_GROUP
  5
C41
102
{ACAD_REACTORS
330
6DC
102
}
330
6DC
  0
PH_GROUP
  5
C46
102
{ACAD_REACTORS
330
70D
102
}
330
70D
  0
PH_GROUP
  5
C47
102
{ACAD_REACTORS
330
711
102
}
330
711
  0
PH_GROUP
  5
C4B
102
{ACAD_REACTORS
330
730
102
}
330
730
  0
PH_GROUP
  5
C4C
102
{ACAD_REACTORS
330
734
102
}
330
734
  0
PH_GROUP
  5
C4F
102
{ACAD_REACTORS
330
743
102
}
330
743
  0
DICTIONARY
  5
754
102
{ACAD_REACTORS
330
752
102
}
330
752
100
AcDbDictionary
281
     1
  3
PH_GRPMEMBERS
350
C50
  0
DICTIONARY
  5
75D
102
{ACAD_REACTORS
330
752
102
}
330
752
100
AcDbDictionary
281
     1
  3
$PH$AAAA
350
75F
  3
$PH$AAAB
350
764
  3
$PH$AAAC
350
769
  3
$PH$AAAD
350
76E
  3
$PH$AAAE
350
773
  3
$PH$AAAF
350
778
  3
$PH$AAAG
350
77D
  3
$PH$AAAH
350
782
  3
$PH$AAAI
350
787
  3
$PH$AAAJ
350
78C
  3
$PH$AAAK
350
791
  3
$PH$AAAL
350
796
  3
$PH$AAAM
350
79B
  3
$PH$AAAN
350
7A0
  3
PH_GRPMEMBERS
350
C5F
  0
PH_GROUP
  5
C60
102
{ACAD_REACTORS
330
752
102
}
330
752
  0
PH_GROUP
  5
C62
102
{ACAD_REACTORS
330
7AE
102
}
330
7AE
  0
DICTIONARY
  5
7B9
102
{ACAD_REACTORS
330
7B6
102
}
330
7B6
100
AcDbDictionary
281
     1
  3
$PH$AAAA
350
7BB
  3
$PH$AAAB
350
7BF
  3
$PH$AAAC
350
7C3
  3
$PH$AAAD
350
7C7
  3
$PH$AAAE
350
7CB
  3
$PH$AAAF
350
7CF
  3
$PH$AAAG
350
7D3
  3
$PH$AAAH
350
7D7
  3
$PH$AAAI
350
7DB
  3
$PH$AAAJ
350
7DF
  3
$PH$AAAK
350
7E3
  3
$PH$AAAL
350
7E7
  3
$PH$AAAM
350
7EB
  3
$PH$AAAN
350
7EF
  3
$PH$AAAO
350
7F3
  3
$PH$AAAP
350
7F7
  3
PH_GRPMEMBERS
350
C73
  0
DICTIONARY
  5
7FB
102
{ACAD_REACTORS
330
7B6
102
}
330
7B6
100
AcDbDictionary
281
     1
  3
$PH$AAAA
350
7FD
  3
$PH$AAAB
350
801
  3
$PH$AAAC
350
805
  3
$PH$AAAD
350
809
  3
$PH$AAAE
350
80D
  3
$PH$AAAF
350
811
  3
$PH$AAAG
350
815
  3
$PH$AAAH
350
819
  3
$PH$AAAI
350
81D
  3
$PH$AAAJ
350
821
  3
$PH$AAAK
350
825
  3
$PH$AAAL
350
829
  3
$PH$AAAM
350
82D
  3
$PH$AAAN
350
831
  3
$PH$AAAO
350
835
  3
$PH$AAAP
350
839
  3
PH_GRPMEMBERS
350
C84
  0
DICTIONARY
  5
83D
102
{ACAD_REACTORS
330
7B6
102
}
330
7B6
100
AcDbDictionary
281
     1
  3
$PH$AAAA
350
83F
  3
$PH$AAAB
350
843
  3
$PH$AAAC
350
847
  3
$PH$AAAD
350
84B
  3
$PH$AAAE
350
84F
  3
$PH$AAAF
350
853
  3
$PH$AAAG
350
857
  3
$PH$AAAH
350
85B
  3
$PH$AAAI
350
85F
  3
$PH$AAAJ
350
863
  3
$PH$AAAK
350
867
  3
$PH$AAAL
350
86B
  3
$PH$AAAM
350
86F
  3
$PH$AAAN
350
873
  3
$PH$AAAO
350
877
  3
$PH$AAAP
350
87B
  3
PH_GRPMEMBERS
350
C95
  0
DICTIONARY
  5
87F
102
{ACAD_REACTORS
330
7B6
102
}
330
7B6
100
AcDbDictionary
281
     1
  3
$PH$AAAA
350
881
  3
$PH$AAAB
350
885
  3
$PH$AAAC
350
889
  3
$PH$AAAD
350
88D
  3
$PH$AAAE
350
891
  3
$PH$AAAF
350
895
  3
$PH$AAAG
350
899
  3
$PH$AAAH
350
89D
  3
$PH$AAAI
350
8A1
  3
$PH$AAAJ
350
8A5
  3
$PH$AAAK
350
8A9
  3
$PH$AAAL
350
8AD
  3
$PH$AAAM
350
8B1
  3
$PH$AAAN
350
8B5
  3
$PH$AAAO
350
8B9
  3
$PH$AAAP
350
8BD
  3
PH_GRPMEMBERS
350
CA6
  0
DICTIONARY
  5
8C4
102
{ACAD_REACTORS
330
7B6
102
}
330
7B6
100
AcDbDictionary
281
     1
  3
PH_GRPMEMBERS
350
CA7
  0
PH_GROUP
  5
CA8
102
{ACAD_REACTORS
330
7B6
102
}
330
7B6
  0
DICTIONARY
  5
DF0
102
{ACAD_REACTORS
330
DEF
102
}
330
DEF
100
AcDbDictionary
281
     1
  3
PH_GRPMEMBERS
350
DF1
  0
PH_GROUP
  5
DF2
102
{ACAD_REACTORS
330
DEF
102
}
330
DEF
  0
PH_GROUP
  5
C50
102
{ACAD_REACTORS
330
754
102
}
330
754
  0
DICTIONARY
  5
75F
102
{ACAD_REACTORS
330
75D
102
}
330
75D
100
AcDbDictionary
281
     1
  3
PH_GRPMEMBERS
350
C51
  0
DICTIONARY
  5
764
102
{ACAD_REACTORS
330
75D
102
}
330
75D
100
AcDbDictionary
281
     1
  3
PH_GRPMEMBERS
350
C52
  0
DICTIONARY
  5
769
102
{ACAD_REACTORS
330
75D
102
}
330
75D
100
AcDbDictionary
281
     1
  3
PH_GRPMEMBERS
350
C53
  0
DICTIONARY
  5
76E
102
{ACAD_REACTORS
330
75D
102
}
330
75D
100
AcDbDictionary
281
     1
  3
PH_GRPMEMBERS
350
C54
  0
DICTIONARY
  5
773
102
{ACAD_REACTORS
330
75D
102
}
330
75D
100
AcDbDictionary
281
     1
  3
PH_GRPMEMBERS
350
C55
  0
DICTIONARY
  5
778
102
{ACAD_REACTORS
330
75D
102
}
330
75D
100
AcDbDictionary
281
     1
  3
PH_GRPMEMBERS
350
C56
  0
DICTIONARY
  5
77D
102
{ACAD_REACTORS
330
75D
102
}
330
75D
100
AcDbDictionary
281
     1
  3
PH_GRPMEMBERS
350
C57
  0
DICTIONARY
  5
782
102
{ACAD_REACTORS
330
75D
102
}
330
75D
100
AcDbDictionary
281
     1
  3
PH_GRPMEMBERS
350
C58
  0
DICTIONARY
  5
787
102
{ACAD_REACTORS
330
75D
102
}
330
75D
100
AcDbDictionary
281
     1
  3
PH_GRPMEMBERS
350
C59
  0
DICTIONARY
  5
78C
102
{ACAD_REACTORS
330
75D
102
}
330
75D
100
AcDbDictionary
281
     1
  3
PH_GRPMEMBERS
350
C5A
  0
DICTIONARY
  5
791
102
{ACAD_REACTORS
330
75D
102
}
330
75D
100
AcDbDictionary
281
     1
  3
PH_GRPMEMBERS
350
C5B
  0
DICTIONARY
  5
796
102
{ACAD_REACTORS
330
75D
102
}
330
75D
100
AcDbDictionary
281
     1
  3
PH_GRPMEMBERS
350
C5C
  0
DICTIONARY
  5
79B
102
{ACAD_REACTORS
330
75D
102
}
330
75D
100
AcDbDictionary
281
     1
  3
PH_GRPMEMBERS
350
C5D
  0
DICTIONARY
  5
7A0
102
{ACAD_REACTORS
330
75D
102
}
330
75D
100
AcDbDictionary
281
     1
  3
PH_GRPMEMBERS
350
C5E
  0
PH_GROUP
  5
C5F
102
{ACAD_REACTORS
330
75D
102
}
330
75D
  0
DICTIONARY
  5
7BB
102
{ACAD_REACTORS
330
7B9
102
}
330
7B9
100
AcDbDictionary
281
     1
  3
PH_GRPMEMBERS
350
C63
  0
DICTIONARY
  5
7BF
102
{ACAD_REACTORS
330
7B9
102
}
330
7B9
100
AcDbDictionary
281
     1
  3
PH_GRPMEMBERS
350
C64
  0
DICTIONARY
  5
7C3
102
{ACAD_REACTORS
330
7B9
102
}
330
7B9
100
AcDbDictionary
281
     1
  3
PH_GRPMEMBERS
350
C65
  0
DICTIONARY
  5
7C7
102
{ACAD_REACTORS
330
7B9
102
}
330
7B9
100
AcDbDictionary
281
     1
  3
PH_GRPMEMBERS
350
C66
  0
DICTIONARY
  5
7CB
102
{ACAD_REACTORS
330
7B9
102
}
330
7B9
100
AcDbDictionary
281
     1
  3
PH_GRPMEMBERS
350
C67
  0
DICTIONARY
  5
7CF
102
{ACAD_REACTORS
330
7B9
102
}
330
7B9
100
AcDbDictionary
281
     1
  3
PH_GRPMEMBERS
350
C68
  0
DICTIONARY
  5
7D3
102
{ACAD_REACTORS
330
7B9
102
}
330
7B9
100
AcDbDictionary
281
     1
  3
PH_GRPMEMBERS
350
C69
  0
DICTIONARY
  5
7D7
102
{ACAD_REACTORS
330
7B9
102
}
330
7B9
100
AcDbDictionary
281
     1
  3
PH_GRPMEMBERS
350
C6A
  0
DICTIONARY
  5
7DB
102
{ACAD_REACTORS
330
7B9
102
}
330
7B9
100
AcDbDictionary
281
     1
  3
PH_GRPMEMBERS
350
C6B
  0
DICTIONARY
  5
7DF
102
{ACAD_REACTORS
330
7B9
102
}
330
7B9
100
AcDbDictionary
281
     1
  3
PH_GRPMEMBERS
350
C6C
  0
DICTIONARY
  5
7E3
102
{ACAD_REACTORS
330
7B9
102
}
330
7B9
100
AcDbDictionary
281
     1
  3
PH_GRPMEMBERS
350
C6D
  0
DICTIONARY
  5
7E7
102
{ACAD_REACTORS
330
7B9
102
}
330
7B9
100
AcDbDictionary
281
     1
  3
PH_GRPMEMBERS
350
C6E
  0
DICTIONARY
  5
7EB
102
{ACAD_REACTORS
330
7B9
102
}
330
7B9
100
AcDbDictionary
281
     1
  3
PH_GRPMEMBERS
350
C6F
  0
DICTIONARY
  5
7EF
102
{ACAD_REACTORS
330
7B9
102
}
330
7B9
100
AcDbDictionary
281
     1
  3
PH_GRPMEMBERS
350
C70
  0
DICTIONARY
  5
7F3
102
{ACAD_REACTORS
330
7B9
102
}
330
7B9
100
AcDbDictionary
281
     1
  3
PH_GRPMEMBERS
350
C71
  0
DICTIONARY
  5
7F7
102
{ACAD_REACTORS
330
7B9
102
}
330
7B9
100
AcDbDictionary
281
     1
  3
PH_GRPMEMBERS
350
C72
  0
PH_GROUP
  5
C73
102
{ACAD_REACTORS
330
7B9
102
}
330
7B9
  0
DICTIONARY
  5
7FD
102
{ACAD_REACTORS
330
7FB
102
}
330
7FB
100
AcDbDictionary
281
     1
  3
PH_GRPMEMBERS
350
C74
  0
DICTIONARY
  5
801
102
{ACAD_REACTORS
330
7FB
102
}
330
7FB
100
AcDbDictionary
281
     1
  3
PH_GRPMEMBERS
350
C75
  0
DICTIONARY
  5
805
102
{ACAD_REACTORS
330
7FB
102
}
330
7FB
100
AcDbDictionary
281
     1
  3
PH_GRPMEMBERS
350
C76
  0
DICTIONARY
  5
809
102
{ACAD_REACTORS
330
7FB
102
}
330
7FB
100
AcDbDictionary
281
     1
  3
PH_GRPMEMBERS
350
C77
  0
DICTIONARY
  5
80D
102
{ACAD_REACTORS
330
7FB
102
}
330
7FB
100
AcDbDictionary
281
     1
  3
PH_GRPMEMBERS
350
C78
  0
DICTIONARY
  5
811
102
{ACAD_REACTORS
330
7FB
102
}
330
7FB
100
AcDbDictionary
281
     1
  3
PH_GRPMEMBERS
350
C79
  0
DICTIONARY
  5
815
102
{ACAD_REACTORS
330
7FB
102
}
330
7FB
100
AcDbDictionary
281
     1
  3
PH_GRPMEMBERS
350
C7A
  0
DICTIONARY
  5
819
102
{ACAD_REACTORS
330
7FB
102
}
330
7FB
100
AcDbDictionary
281
     1
  3
PH_GRPMEMBERS
350
C7B
  0
DICTIONARY
  5
81D
102
{ACAD_REACTORS
330
7FB
102
}
330
7FB
100
AcDbDictionary
281
     1
  3
PH_GRPMEMBERS
350
C7C
  0
DICTIONARY
  5
821
102
{ACAD_REACTORS
330
7FB
102
}
330
7FB
100
AcDbDictionary
281
     1
  3
PH_GRPMEMBERS
350
C7D
  0
DICTIONARY
  5
825
102
{ACAD_REACTORS
330
7FB
102
}
330
7FB
100
AcDbDictionary
281
     1
  3
PH_GRPMEMBERS
350
C7E
  0
DICTIONARY
  5
829
102
{ACAD_REACTORS
330
7FB
102
}
330
7FB
100
AcDbDictionary
281
     1
  3
PH_GRPMEMBERS
350
C7F
  0
DICTIONARY
  5
82D
102
{ACAD_REACTORS
330
7FB
102
}
330
7FB
100
AcDbDictionary
281
     1
  3
PH_GRPMEMBERS
350
C80
  0
DICTIONARY
  5
831
102
{ACAD_REACTORS
330
7FB
102
}
330
7FB
100
AcDbDictionary
281
     1
  3
PH_GRPMEMBERS
350
C81
  0
DICTIONARY
  5
835
102
{ACAD_REACTORS
330
7FB
102
}
330
7FB
100
AcDbDictionary
281
     1
  3
PH_GRPMEMBERS
350
C82
  0
DICTIONARY
  5
839
102
{ACAD_REACTORS
330
7FB
102
}
330
7FB
100
AcDbDictionary
281
     1
  3
PH_GRPMEMBERS
350
C83
  0
PH_GROUP
  5
C84
102
{ACAD_REACTORS
330
7FB
102
}
330
7FB
  0
DICTIONARY
  5
83F
102
{ACAD_REACTORS
330
83D
102
}
330
83D
100
AcDbDictionary
281
     1
  3
PH_GRPMEMBERS
350
C85
  0
DICTIONARY
  5
843
102
{ACAD_REACTORS
330
83D
102
}
330
83D
100
AcDbDictionary
281
     1
  3
PH_GRPMEMBERS
350
C86
  0
DICTIONARY
  5
847
102
{ACAD_REACTORS
330
83D
102
}
330
83D
100
AcDbDictionary
281
     1
  3
PH_GRPMEMBERS
350
C87
  0
DICTIONARY
  5
84B
102
{ACAD_REACTORS
330
83D
102
}
330
83D
100
AcDbDictionary
281
     1
  3
PH_GRPMEMBERS
350
C88
  0
DICTIONARY
  5
84F
102
{ACAD_REACTORS
330
83D
102
}
330
83D
100
AcDbDictionary
281
     1
  3
PH_GRPMEMBERS
350
C89
  0
DICTIONARY
  5
853
102
{ACAD_REACTORS
330
83D
102
}
330
83D
100
AcDbDictionary
281
     1
  3
PH_GRPMEMBERS
350
C8A
  0
DICTIONARY
  5
857
102
{ACAD_REACTORS
330
83D
102
}
330
83D
100
AcDbDictionary
281
     1
  3
PH_GRPMEMBERS
350
C8B
  0
DICTIONARY
  5
85B
102
{ACAD_REACTORS
330
83D
102
}
330
83D
100
AcDbDictionary
281
     1
  3
PH_GRPMEMBERS
350
C8C
  0
DICTIONARY
  5
85F
102
{ACAD_REACTORS
330
83D
102
}
330
83D
100
AcDbDictionary
281
     1
  3
PH_GRPMEMBERS
350
C8D
  0
DICTIONARY
  5
863
102
{ACAD_REACTORS
330
83D
102
}
330
83D
100
AcDbDictionary
281
     1
  3
PH_GRPMEMBERS
350
C8E
  0
DICTIONARY
  5
867
102
{ACAD_REACTORS
330
83D
102
}
330
83D
100
AcDbDictionary
281
     1
  3
PH_GRPMEMBERS
350
C8F
  0
DICTIONARY
  5
86B
102
{ACAD_REACTORS
330
83D
102
}
330
83D
100
AcDbDictionary
281
     1
  3
PH_GRPMEMBERS
350
C90
  0
DICTIONARY
  5
86F
102
{ACAD_REACTORS
330
83D
102
}
330
83D
100
AcDbDictionary
281
     1
  3
PH_GRPMEMBERS
350
C91
  0
DICTIONARY
  5
873
102
{ACAD_REACTORS
330
83D
102
}
330
83D
100
AcDbDictionary
281
     1
  3
PH_GRPMEMBERS
350
C92
  0
DICTIONARY
  5
877
102
{ACAD_REACTORS
330
83D
102
}
330
83D
100
AcDbDictionary
281
     1
  3
PH_GRPMEMBERS
350
C93
  0
DICTIONARY
  5
87B
102
{ACAD_REACTORS
330
83D
102
}
330
83D
100
AcDbDictionary
281
     1
  3
PH_GRPMEMBERS
350
C94
  0
PH_GROUP
  5
C95
102
{ACAD_REACTORS
330
83D
102
}
330
83D
  0
DICTIONARY
  5
881
102
{ACAD_REACTORS
330
87F
102
}
330
87F
100
AcDbDictionary
281
     1
  3
PH_GRPMEMBERS
350
C96
  0
DICTIONARY
  5
885
102
{ACAD_REACTORS
330
87F
102
}
330
87F
100
AcDbDictionary
281
     1
  3
PH_GRPMEMBERS
350
C97
  0
DICTIONARY
  5
889
102
{ACAD_REACTORS
330
87F
102
}
330
87F
100
AcDbDictionary
281
     1
  3
PH_GRPMEMBERS
350
C98
  0
DICTIONARY
  5
88D
102
{ACAD_REACTORS
330
87F
102
}
330
87F
100
AcDbDictionary
281
     1
  3
PH_GRPMEMBERS
350
C99
  0
DICTIONARY
  5
891
102
{ACAD_REACTORS
330
87F
102
}
330
87F
100
AcDbDictionary
281
     1
  3
PH_GRPMEMBERS
350
C9A
  0
DICTIONARY
  5
895
102
{ACAD_REACTORS
330
87F
102
}
330
87F
100
AcDbDictionary
281
     1
  3
PH_GRPMEMBERS
350
C9B
  0
DICTIONARY
  5
899
102
{ACAD_REACTORS
330
87F
102
}
330
87F
100
AcDbDictionary
281
     1
  3
PH_GRPMEMBERS
350
C9C
  0
DICTIONARY
  5
89D
102
{ACAD_REACTORS
330
87F
102
}
330
87F
100
AcDbDictionary
281
     1
  3
PH_GRPMEMBERS
350
C9D
  0
DICTIONARY
  5
8A1
102
{ACAD_REACTORS
330
87F
102
}
330
87F
100
AcDbDictionary
281
     1
  3
PH_GRPMEMBERS
350
C9E
  0
DICTIONARY
  5
8A5
102
{ACAD_REACTORS
330
87F
102
}
330
87F
100
AcDbDictionary
281
     1
  3
PH_GRPMEMBERS
350
C9F
  0
DICTIONARY
  5
8A9
102
{ACAD_REACTORS
330
87F
102
}
330
87F
100
AcDbDictionary
281
     1
  3
PH_GRPMEMBERS
350
CA0
  0
DICTIONARY
  5
8AD
102
{ACAD_REACTORS
330
87F
102
}
330
87F
100
AcDbDictionary
281
     1
  3
PH_GRPMEMBERS
350
CA1
  0
DICTIONARY
  5
8B1
102
{ACAD_REACTORS
330
87F
102
}
330
87F
100
AcDbDictionary
281
     1
  3
PH_GRPMEMBERS
350
CA2
  0
DICTIONARY
  5
8B5
102
{ACAD_REACTORS
330
87F
102
}
330
87F
100
AcDbDictionary
281
     1
  3
PH_GRPMEMBERS
350
CA3
  0
DICTIONARY
  5
8B9
102
{ACAD_REACTORS
330
87F
102
}
330
87F
100
AcDbDictionary
281
     1
  3
PH_GRPMEMBERS
350
CA4
  0
DICTIONARY
  5
8BD
102
{ACAD_REACTORS
330
87F
102
}
330
87F
100
AcDbDictionary
281
     1
  3
PH_GRPMEMBERS
350
CA5
  0
PH_GROUP
  5
CA6
102
{ACAD_REACTORS
330
87F
102
}
330
87F
  0
PH_GROUP
  5
CA7
102
{ACAD_REACTORS
330
8C4
102
}
330
8C4
  0
PH_GROUP
  5
DF1
102
{ACAD_REACTORS
330
DF0
102
}
330
DF0
  0
PH_GROUP
  5
C51
102
{ACAD_REACTORS
330
75F
102
}
330
75F
  0
PH_GROUP
  5
C52
102
{ACAD_REACTORS
330
764
102
}
330
764
  0
PH_GROUP
  5
C53
102
{ACAD_REACTORS
330
769
102
}
330
769
  0
PH_GROUP
  5
C54
102
{ACAD_REACTORS
330
76E
102
}
330
76E
  0
PH_GROUP
  5
C55
102
{ACAD_REACTORS
330
773
102
}
330
773
  0
PH_GROUP
  5
C56
102
{ACAD_REACTORS
330
778
102
}
330
778
  0
PH_GROUP
  5
C57
102
{ACAD_REACTORS
330
77D
102
}
330
77D
  0
PH_GROUP
  5
C58
102
{ACAD_REACTORS
330
782
102
}
330
782
  0
PH_GROUP
  5
C59
102
{ACAD_REACTORS
330
787
102
}
330
787
  0
PH_GROUP
  5
C5A
102
{ACAD_REACTORS
330
78C
102
}
330
78C
  0
PH_GROUP
  5
C5B
102
{ACAD_REACTORS
330
791
102
}
330
791
  0
PH_GROUP
  5
C5C
102
{ACAD_REACTORS
330
796
102
}
330
796
  0
PH_GROUP
  5
C5D
102
{ACAD_REACTORS
330
79B
102
}
330
79B
  0
PH_GROUP
  5
C5E
102
{ACAD_REACTORS
330
7A0
102
}
330
7A0
  0
PH_GROUP
  5
C63
102
{ACAD_REACTORS
330
7BB
102
}
330
7BB
  0
PH_GROUP
  5
C64
102
{ACAD_REACTORS
330
7BF
102
}
330
7BF
  0
PH_GROUP
  5
C65
102
{ACAD_REACTORS
330
7C3
102
}
330
7C3
  0
PH_GROUP
  5
C66
102
{ACAD_REACTORS
330
7C7
102
}
330
7C7
  0
PH_GROUP
  5
C67
102
{ACAD_REACTORS
330
7CB
102
}
330
7CB
  0
PH_GROUP
  5
C68
102
{ACAD_REACTORS
330
7CF
102
}
330
7CF
  0
PH_GROUP
  5
C69
102
{ACAD_REACTORS
330
7D3
102
}
330
7D3
  0
PH_GROUP
  5
C6A
102
{ACAD_REACTORS
330
7D7
102
}
330
7D7
  0
PH_GROUP
  5
C6B
102
{ACAD_REACTORS
330
7DB
102
}
330
7DB
  0
PH_GROUP
  5
C6C
102
{ACAD_REACTORS
330
7DF
102
}
330
7DF
  0
PH_GROUP
  5
C6D
102
{ACAD_REACTORS
330
7E3
102
}
330
7E3
  0
PH_GROUP
  5
C6E
102
{ACAD_REACTORS
330
7E7
102
}
330
7E7
  0
PH_GROUP
  5
C6F
102
{ACAD_REACTORS
330
7EB
102
}
330
7EB
  0
PH_GROUP
  5
C70
102
{ACAD_REACTORS
330
7EF
102
}
330
7EF
  0
PH_GROUP
  5
C71
102
{ACAD_REACTORS
330
7F3
102
}
330
7F3
  0
PH_GROUP
  5
C72
102
{ACAD_REACTORS
330
7F7
102
}
330
7F7
  0
PH_GROUP
  5
C74
102
{ACAD_REACTORS
330
7FD
102
}
330
7FD
  0
PH_GROUP
  5
C75
102
{ACAD_REACTORS
330
801
102
}
330
801
  0
PH_GROUP
  5
C76
102
{ACAD_REACTORS
330
805
102
}
330
805
  0
PH_GROUP
  5
C77
102
{ACAD_REACTORS
330
809
102
}
330
809
  0
PH_GROUP
  5
C78
102
{ACAD_REACTORS
330
80D
102
}
330
80D
  0
PH_GROUP
  5
C79
102
{ACAD_REACTORS
330
811
102
}
330
811
  0
PH_GROUP
  5
C7A
102
{ACAD_REACTORS
330
815
102
}
330
815
  0
PH_GROUP
  5
C7B
102
{ACAD_REACTORS
330
819
102
}
330
819
  0
PH_GROUP
  5
C7C
102
{ACAD_REACTORS
330
81D
102
}
330
81D
  0
PH_GROUP
  5
C7D
102
{ACAD_REACTORS
330
821
102
}
330
821
  0
PH_GROUP
  5
C7E
102
{ACAD_REACTORS
330
825
102
}
330
825
  0
PH_GROUP
  5
C7F
102
{ACAD_REACTORS
330
829
102
}
330
829
  0
PH_GROUP
  5
C80
102
{ACAD_REACTORS
330
82D
102
}
330
82D
  0
PH_GROUP
  5
C81
102
{ACAD_REACTORS
330
831
102
}
330
831
  0
PH_GROUP
  5
C82
102
{ACAD_REACTORS
330
835
102
}
330
835
  0
PH_GROUP
  5
C83
102
{ACAD_REACTORS
330
839
102
}
330
839
  0
PH_GROUP
  5
C85
102
{ACAD_REACTORS
330
83F
102
}
330
83F
  0
PH_GROUP
  5
C86
102
{ACAD_REACTORS
330
843
102
}
330
843
  0
PH_GROUP
  5
C87
102
{ACAD_REACTORS
330
847
102
}
330
847
  0
PH_GROUP
  5
C88
102
{ACAD_REACTORS
330
84B
102
}
330
84B
  0
PH_GROUP
  5
C89
102
{ACAD_REACTORS
330
84F
102
}
330
84F
  0
PH_GROUP
  5
C8A
102
{ACAD_REACTORS
330
853
102
}
330
853
  0
PH_GROUP
  5
C8B
102
{ACAD_REACTORS
330
857
102
}
330
857
  0
PH_GROUP
  5
C8C
102
{ACAD_REACTORS
330
85B
102
}
330
85B
  0
PH_GROUP
  5
C8D
102
{ACAD_REACTORS
330
85F
102
}
330
85F
  0
PH_GROUP
  5
C8E
102
{ACAD_REACTORS
330
863
102
}
330
863
  0
PH_GROUP
  5
C8F
102
{ACAD_REACTORS
330
867
102
}
330
867
  0
PH_GROUP
  5
C90
102
{ACAD_REACTORS
330
86B
102
}
330
86B
  0
PH_GROUP
  5
C91
102
{ACAD_REACTORS
330
86F
102
}
330
86F
  0
PH_GROUP
  5
C92
102
{ACAD_REACTORS
330
873
102
}
330
873
  0
PH_GROUP
  5
C93
102
{ACAD_REACTORS
330
877
102
}
330
877
  0
PH_GROUP
  5
C94
102
{ACAD_REACTORS
330
87B
102
}
330
87B
  0
PH_GROUP
  5
C96
102
{ACAD_REACTORS
330
881
102
}
330
881
  0
PH_GROUP
  5
C97
102
{ACAD_REACTORS
330
885
102
}
330
885
  0
PH_GROUP
  5
C98
102
{ACAD_REACTORS
330
889
102
}
330
889
  0
PH_GROUP
  5
C99
102
{ACAD_REACTORS
330
88D
102
}
330
88D
  0
PH_GROUP
  5
C9A
102
{ACAD_REACTORS
330
891
102
}
330
891
  0
PH_GROUP
  5
C9B
102
{ACAD_REACTORS
330
895
102
}
330
895
  0
PH_GROUP
  5
C9C
102
{ACAD_REACTORS
330
899
102
}
330
899
  0
PH_GROUP
  5
C9D
102
{ACAD_REACTORS
330
89D
102
}
330
89D
  0
PH_GROUP
  5
C9E
102
{ACAD_REACTORS
330
8A1
102
}
330
8A1
  0
PH_GROUP
  5
C9F
102
{ACAD_REACTORS
330
8A5
102
}
330
8A5
  0
PH_GROUP
  5
CA0
102
{ACAD_REACTORS
330
8A9
102
}
330
8A9
  0
PH_GROUP
  5
CA1
102
{ACAD_REACTORS
330
8AD
102
}
330
8AD
  0
PH_GROUP
  5
CA2
102
{ACAD_REACTORS
330
8B1
102
}
330
8B1
  0
PH_GROUP
  5
CA3
102
{ACAD_REACTORS
330
8B5
102
}
330
8B5
  0
PH_GROUP
  5
CA4
102
{ACAD_REACTORS
330
8B9
102
}
330
8B9
  0
PH_GROUP
  5
CA5
102
{ACAD_REACTORS
330
8BD
102
}
330
8BD
  0
ENDSEC
  0
EOF
